999
DXF file: _cgs_temp_output.dxf
999
Pro/ENGINEER 2016360 by Parametric Technology Corporation
  0
SECTION
  2
HEADER
  9
$ACADVER
  1
AC1021
  9
$DWGCODEPAGE
  3
ANSI_1252
  9
$EXTMAX
 10
22.0
 20
17.0
 30
0.0
  9
$EXTMIN
 10
0.0
 20
0.0
 30
0.0
  9
$LIMMIN
 10
0.0
 20
0.0
  9
$LIMMAX
 10
22.0
 20
17.0
  9
$VIEWCTR
 10
11.0
 20
8.5
  9
$VIEWSIZE
 40
17.0
  9
$CLAYER
  8
0
  9
$LTSCALE
 40
1.21
  9
$CELTYPE
  6
BYLAYER
  9
$DIMSCALE
 40
1.0
  9
$DIMASZ
 40
0.1875
  9
$DIMEXO
 40
0.0625
  9
$DIMDLI
 40
0.836
  9
$DIMEXE
 40
0.125
  9
$DIMCEN
 40
0.198
  9
$DIMLFAC
 40
1.0
  9
$DIMBLK
  1
_CLOSED
  9
$DIMALT
 70
0
  9
$DIMALTF
 40
25.4
  9
$DIMTXT
 40
0.15625
  9
$DIMTOL
 70
0
  9
$DIMLIM
 70
0
  9
$DIMTFAC
 40
1.0
  9
$DIMGAP
 40
0.09
  9
$DIMDSEP
 70
46
  9
$AUNITS
 70
0
  9
$PDMODE
 70
3
  9
$PDSIZE
 40
0.3125
  9
$HANDSEED
  5
306
  9
$TILEMODE
 70
1
  9
$MEASUREMENT
 70
0
  9
$INSUNITS
 70
1
  0
ENDSEC
  0
SECTION
  2
CLASSES
  0
CLASS
  1
ACDBDICTIONARYWDFLT
  2
AcDbDictionaryWithDefault
  3
AutoCAD 2000
 90
0
 91
1
280
0
281
0
  0
CLASS
  1
ACDBPLACEHOLDER
  2
AcDbPlaceHolder
  3
AutoCAD 2000
 90
0
 91
1
280
0
281
0
  0
CLASS
  1
LAYOUT
  2
AcDbLayout
  3
AutoCAD 2000
 90
0
 91
0
280
0
281
0
  0
ENDSEC
  0
SECTION
  2
TABLES
  0
TABLE
  2
VPORT
  5
8
100
AcDbSymbolTable
 70
2
  0
VPORT
  5
1F4
100
AcDbSymbolTableRecord
100
AcDbViewportTableRecord
  2
*ACTIVE
 70
0
 10
0.0
 20
0.0
 11
1.0
 21
1.0
 12
11.0
 22
8.5
 13
0.0
 23
0.0
 14
1.0
 24
1.0
 15
0.0
 25
0.0
 16
0.0
 26
0.0
 36
1.0
 17
0.0
 27
0.0
 37
0.0
 40
17.0
 41
1.2941176471
 42
50.0
 43
0.0
 44
0.0
 50
0.0
 51
0.0
 71
0
 72
100
 73
1
 74
1
 75
0
 76
0
 77
0
 78
0
  0
ENDTAB
  0
TABLE
  2
LTYPE
  5
5
100
AcDbSymbolTable
 70
6
  0
LTYPE
  5
14
100
AcDbSymbolTableRecord
100
AcDbLinetypeTableRecord
  2
BYBLOCK
 70
0
  3

 72
65
 73
0
 40
0.0
  0
LTYPE
  5
15
100
AcDbSymbolTableRecord
100
AcDbLinetypeTableRecord
  2
BYLAYER
 70
0
  3

 72
65
 73
0
 40
0.0
  0
LTYPE
  5
16
100
AcDbSymbolTableRecord
100
AcDbLinetypeTableRecord
  2
CONTINUOUS
 70
64
  3
Solid line
 72
65
 73
0
 40
0.0
  0
LTYPE
  5
1F5
100
AcDbSymbolTableRecord
100
AcDbLinetypeTableRecord
  2
CENTER
 70
64
  3
____ _ ____ _ ____ _ ____ _ ____ _ ____ _ ____
 72
65
 73
4
 40
0.6
 49
0.375
 74
0
 49
-0.075
 74
0
 49
0.075
 74
0
 49
-0.075
 74
0
  0
LTYPE
  5
1F6
100
AcDbSymbolTableRecord
100
AcDbLinetypeTableRecord
  2
HIDDEN
 70
64
  3
- - - - - - - - - - - - - - - - - - - -
 72
65
 73
2
 40
0.2
 49
0.1
 74
0
 49
-0.1
 74
0
  0
LTYPE
  5
1F7
100
AcDbSymbolTableRecord
100
AcDbLinetypeTableRecord
  2
PHANTOM
 70
64
  3
_____ _ _ _____ _ _ _____ _ _ _____
 72
65
 73
6
 40
0.8
 49
0.45
 74
0
 49
-0.05
 74
0
 49
0.1
 74
0
 49
-0.05
 74
0
 49
0.1
 74
0
 49
-0.05
 74
0
  0
LTYPE
  5
1F8
100
AcDbSymbolTableRecord
100
AcDbLinetypeTableRecord
  2
DOT
 70
64
  3
. . . . . . . . . . . . . . . . . . . .
 72
65
 73
2
 40
0.2
 49
0.1
 74
0
 49
-0.1
 74
0
  0
LTYPE
  5
1F9
100
AcDbSymbolTableRecord
100
AcDbLinetypeTableRecord
  2
DASHED
 70
64
  3
- - - - - - - - - - - - - - - - - - - -
 72
65
 73
2
 40
0.2
 49
0.1
 74
0
 49
-0.1
 74
0
  0
ENDTAB
  0
TABLE
  2
LAYER
  5
2
100
AcDbSymbolTable
 70
36
  0
LAYER
  5
10
100
AcDbSymbolTableRecord
100
AcDbLayerTableRecord
  2
0
 70
0
 62
7
  6
CONTINUOUS
370
-3
390
F
  0
LAYER
  5
1FA
100
AcDbSymbolTableRecord
100
AcDbLayerTableRecord
  2
DEFAULT_1
 70
0
 62
7
  6
CENTER
370
-3
390
F
  0
LAYER
  5
1FB
100
AcDbSymbolTableRecord
100
AcDbLayerTableRecord
  2
DEFAULT_2
 70
0
 62
8
  6
HIDDEN
370
-3
390
F
  0
LAYER
  5
1FC
100
AcDbSymbolTableRecord
100
AcDbLayerTableRecord
  2
DEFAULT_3
 70
0
 62
7
  6
PHANTOM
370
-3
390
F
  0
LAYER
  5
1FD
100
AcDbSymbolTableRecord
100
AcDbLayerTableRecord
  2
01_ALL_DTM_PLN
 70
0
 62
7
  6
CONTINUOUS
370
-3
390
F
  0
LAYER
  5
1FE
100
AcDbSymbolTableRecord
100
AcDbLayerTableRecord
  2
01__ASM_ALL_DTM_PLN
 70
0
 62
7
  6
CONTINUOUS
370
-3
390
F
  0
LAYER
  5
1FF
100
AcDbSymbolTableRecord
100
AcDbLayerTableRecord
  2
01__ASM_DEF_DTM_PLN
 70
0
 62
7
  6
CONTINUOUS
370
-3
390
F
  0
LAYER
  5
200
100
AcDbSymbolTableRecord
100
AcDbLayerTableRecord
  2
01___PRT_ALL_DTM_PLN
 70
0
 62
7
  6
CONTINUOUS
370
-3
390
F
  0
LAYER
  5
201
100
AcDbSymbolTableRecord
100
AcDbLayerTableRecord
  2
01___PRT_DEF_DTM_PLN
 70
0
 62
7
  6
CONTINUOUS
370
-3
390
F
  0
LAYER
  5
202
100
AcDbSymbolTableRecord
100
AcDbLayerTableRecord
  2
02_ALL_AXES
 70
0
 62
7
  6
CONTINUOUS
370
-3
390
F
  0
LAYER
  5
203
100
AcDbSymbolTableRecord
100
AcDbLayerTableRecord
  2
02__ASM_ALL_AXES
 70
0
 62
7
  6
CONTINUOUS
370
-3
390
F
  0
LAYER
  5
204
100
AcDbSymbolTableRecord
100
AcDbLayerTableRecord
  2
02___PRT_ALL_AXES
 70
0
 62
7
  6
CONTINUOUS
370
-3
390
F
  0
LAYER
  5
205
100
AcDbSymbolTableRecord
100
AcDbLayerTableRecord
  2
03_ALL_CURVES
 70
0
 62
7
  6
CONTINUOUS
370
-3
390
F
  0
LAYER
  5
206
100
AcDbSymbolTableRecord
100
AcDbLayerTableRecord
  2
03__ASM_ALL_CURVES
 70
0
 62
7
  6
CONTINUOUS
370
-3
390
F
  0
LAYER
  5
207
100
AcDbSymbolTableRecord
100
AcDbLayerTableRecord
  2
03___PRT_ALL_CURVES
 70
0
 62
7
  6
CONTINUOUS
370
-3
390
F
  0
LAYER
  5
208
100
AcDbSymbolTableRecord
100
AcDbLayerTableRecord
  2
04_ALL_DTM_PNT
 70
0
 62
7
  6
CONTINUOUS
370
-3
390
F
  0
LAYER
  5
209
100
AcDbSymbolTableRecord
100
AcDbLayerTableRecord
  2
04__ASM_ALL_DTM_PNT
 70
0
 62
7
  6
CONTINUOUS
370
-3
390
F
  0
LAYER
  5
20A
100
AcDbSymbolTableRecord
100
AcDbLayerTableRecord
  2
04___PRT_ALL_DTM_PNT
 70
0
 62
7
  6
CONTINUOUS
370
-3
390
F
  0
LAYER
  5
20B
100
AcDbSymbolTableRecord
100
AcDbLayerTableRecord
  2
05_ALL_DTM_CSYS
 70
0
 62
7
  6
CONTINUOUS
370
-3
390
F
  0
LAYER
  5
20C
100
AcDbSymbolTableRecord
100
AcDbLayerTableRecord
  2
05__ASM_ALL_DTM_CSYS
 70
0
 62
7
  6
CONTINUOUS
370
-3
390
F
  0
LAYER
  5
20D
100
AcDbSymbolTableRecord
100
AcDbLayerTableRecord
  2
05__ASM_DEF_DTM_CSYS
 70
0
 62
7
  6
CONTINUOUS
370
-3
390
F
  0
LAYER
  5
20E
100
AcDbSymbolTableRecord
100
AcDbLayerTableRecord
  2
05___PRT_ALL_DTM_CSYS
 70
0
 62
7
  6
CONTINUOUS
370
-3
390
F
  0
LAYER
  5
20F
100
AcDbSymbolTableRecord
100
AcDbLayerTableRecord
  2
05___PRT_DEF_DTM_CSYS
 70
0
 62
7
  6
CONTINUOUS
370
-3
390
F
  0
LAYER
  5
210
100
AcDbSymbolTableRecord
100
AcDbLayerTableRecord
  2
06_ALL_SURFS
 70
0
 62
7
  6
CONTINUOUS
370
-3
390
F
  0
LAYER
  5
211
100
AcDbSymbolTableRecord
100
AcDbLayerTableRecord
  2
06__ASM_ALL_SURFS
 70
0
 62
7
  6
CONTINUOUS
370
-3
390
F
  0
LAYER
  5
212
100
AcDbSymbolTableRecord
100
AcDbLayerTableRecord
  2
06___PRT_ALL_SURFS
 70
0
 62
7
  6
CONTINUOUS
370
-3
390
F
  0
LAYER
  5
213
100
AcDbSymbolTableRecord
100
AcDbLayerTableRecord
  2
07__ASM_ALL_SKELETONS
 70
0
 62
7
  6
CONTINUOUS
370
-3
390
F
  0
ENDTAB
  0
TABLE
  2
STYLE
  5
3
100
AcDbSymbolTable
 70
1
  0
STYLE
  5
11
100
AcDbSymbolTableRecord
100
AcDbTextStyleTableRecord
  2
STANDARD
 70
0
 40
0.0
 41
0.8
 50
0.0
 71
0
 42
0.2
  3
txt
  4

  0
STYLE
  5
214
100
AcDbSymbolTableRecord
100
AcDbTextStyleTableRecord
  2
TEXTSTYLE_1
 70
0
 40
0.0
 41
0.8
 50
0.0
 71
0
 42
0.2
  3
gdt
  4

  0
ENDTAB
  0
TABLE
  2
VIEW
  5
6
100
AcDbSymbolTable
 70
0
  0
ENDTAB
  0
TABLE
  2
UCS
  5
7
100
AcDbSymbolTable
 70
0
  0
ENDTAB
  0
TABLE
  2
APPID
  5
9
100
AcDbSymbolTable
 70
1
  0
APPID
  5
215
100
AcDbSymbolTableRecord
100
AcDbRegAppTableRecord
  2
ACAD
 70
0
  0
ENDTAB
  0
TABLE
  2
BLOCK_RECORD
  5
1
100
AcDbSymbolTable
 70
0
  0
BLOCK_RECORD
  5
216
100
AcDbSymbolTableRecord
100
AcDbBlockTableRecord
  2
*Model_Space
  0
BLOCK_RECORD
  5
217
100
AcDbSymbolTableRecord
100
AcDbBlockTableRecord
  2
*Paper_Space
  0
ENDTAB
  0
TABLE
  2
DIMSTYLE
  5
A
100
AcDbSymbolTable
 70
1
100
AcDbDimStyleTable
 71
0
  0
DIMSTYLE
105
218
100
AcDbSymbolTableRecord
100
AcDbDimStyleTableRecord
  2
STANDARD
 70
0
  3

  4

 40
1.0
 41
0.1875
 42
0.0625
 43
0.38
 44
0.125
 45
0.0
 46
0.0
 47
0.0001
 48
0.0001
140
0.15625
141
0.09
142
0.0
143
25.4
144
1.0
145
0.0
146
1.0
147
0.09
 71
0.0
 72
0.0
 73
1
 74
1
 75
0
 76
0
 77
0
 78
4
 79
1
170
0
171
3
172
0
173
0
174
0
175
0
176
0
177
0
178
0
270
2
179
4
271
4
272
4
273
2
274
2
275
0
280
0
281
0
282
0
283
1
284
4
285
0
286
0
287
3
288
0
340
11
278
46
  0
ENDTAB
  0
ENDSEC
  0
SECTION
  2
BLOCKS
  0
BLOCK
  5
20
100
AcDbEntity
  8
0
100
AcDbBlockBegin
  2
*Model_Space
 70
0
 10
0.0
 20
0.0
 30
0.0
  3
*Model_Space
  1

  0
ENDBLK
  5
21
100
AcDbEntity
  8
0
100
AcDbBlockEnd
  0
BLOCK
  5
1C
100
AcDbEntity
  8
0
100
AcDbBlockBegin
  2
*Paper_Space
 70
0
 10
0.0
 20
0.0
 30
0.0
  3
*Paper_Space
  1

  0
ENDBLK
  5
1D
100
AcDbEntity
  8
0
100
AcDbBlockEnd
  0
ENDSEC
  0
SECTION
  2
ENTITIES
  0
MTEXT
  5
219
100
AcDbEntity
  8
0
100
AcDbMText
 62
7
  6
CONTINUOUS
  7
STANDARD
 71
1
 72
1
 10
15.9560215477
 20
0.9479130325
 30
0.0
 11
1.0
 21
0.0
 31
0.0
 44
0.9
  1
SCALE: 1:1.000
 40
0.3
 41
3.36
  0
LINE
  5
21A
100
AcDbEntity
  8
0
100
AcDbLine
 62
7
  6
CONTINUOUS
 10
0.0
 20
0.0
 11
0.0
 21
17.0
  0
LINE
  5
21B
100
AcDbEntity
  8
0
100
AcDbLine
 62
7
  6
CONTINUOUS
 10
0.0
 20
0.0
 11
22.0
 21
0.0
  0
LINE
  5
21C
100
AcDbEntity
  8
0
100
AcDbLine
 62
7
  6
CONTINUOUS
 10
0.0
 20
17.0
 11
22.0
 21
17.0
  0
LINE
  5
21D
100
AcDbEntity
  8
0
100
AcDbLine
 62
7
  6
CONTINUOUS
 10
22.0
 20
0.0
 11
22.0
 21
17.0
  0
LINE
  5
21E
100
AcDbEntity
  8
0
100
AcDbLine
 62
7
  6
CONTINUOUS
 10
5.2553672762
 20
5.6586199077
 11
5.2553672762
 21
5.6150351574
  0
LINE
  5
21F
100
AcDbEntity
  8
0
100
AcDbLine
 62
7
  6
CONTINUOUS
 10
5.3161168447
 20
5.3751494316
 11
5.2587746935
 21
5.5891532529
  0
LINE
  5
220
100
AcDbEntity
  8
0
100
AcDbLine
 62
7
  6
CONTINUOUS
 10
5.3402649903
 20
5.3566199077
 11
6.920469562
 21
5.3566199077
  0
LINE
  5
221
100
AcDbEntity
  8
0
100
AcDbLine
 62
7
  6
CONTINUOUS
 10
5.3110585283
 20
5.4656199077
 11
6.949676024
 21
5.4656199077
  0
LINE
  5
222
100
AcDbEntity
  8
0
100
AcDbLine
 62
7
  6
CONTINUOUS
 10
6.9803672762
 20
5.6836199077
 11
5.2803672762
 21
5.6836199077
  0
LINE
  5
223
100
AcDbEntity
  8
0
100
AcDbLine
 62
7
  6
CONTINUOUS
 10
7.0053672762
 20
5.6150351574
 11
7.0053672762
 21
5.6586199077
  0
LINE
  5
224
100
AcDbEntity
  8
0
100
AcDbLine
 62
7
  6
CONTINUOUS
 10
6.9446177077
 20
5.3751494316
 11
7.0019598588
 21
5.5891532529
  0
LINE
  5
225
100
AcDbEntity
  8
0
100
AcDbLine
 62
7
  6
CONTINUOUS
 10
6.9458720839
 20
10.6000477814
 11
5.1958720839
 21
10.6000477814
  0
LINE
  5
226
100
AcDbEntity
  8
0
100
AcDbLine
 62
7
  6
CONTINUOUS
 10
5.1958720839
 20
10.6000477814
 11
5.1958720839
 21
14.6000477814
  0
LINE
  5
227
100
AcDbEntity
  8
0
100
AcDbLine
 62
7
  6
CONTINUOUS
 10
6.9458720839
 20
10.6000477814
 11
6.9458720839
 21
14.6000477814
  0
LINE
  5
228
100
AcDbEntity
  8
0
100
AcDbLine
 62
7
  6
CONTINUOUS
 10
5.1958720839
 20
14.6000477814
 11
6.9458720839
 21
14.6000477814
  0
LINE
  5
229
100
AcDbEntity
  8
0
100
AcDbLine
 62
7
  6
CONTINUOUS
 10
13.5603552569
 20
5.4061247154
 11
13.5603552569
 21
5.6241247154
  0
LINE
  5
22A
100
AcDbEntity
  8
0
100
AcDbLine
 62
7
  6
CONTINUOUS
 10
13.6776488961
 20
5.3850046316
 11
13.6930616178
 21
5.3182447991
  0
LINE
  5
22B
100
AcDbEntity
  8
0
100
AcDbLine
 62
7
  6
CONTINUOUS
 10
13.9276488961
 20
5.3182447991
 11
13.9430616178
 21
5.3850046316
  0
LINE
  5
22C
100
AcDbEntity
  8
0
100
AcDbLine
 62
7
  6
CONTINUOUS
 10
14.1776488961
 20
5.3850046316
 11
14.1930616178
 21
5.3182447991
  0
LINE
  5
22D
100
AcDbEntity
  8
0
100
AcDbLine
 62
7
  6
CONTINUOUS
 10
14.4276488961
 20
5.3182447991
 11
14.4430616178
 21
5.3850046316
  0
LINE
  5
22E
100
AcDbEntity
  8
0
100
AcDbLine
 62
7
  6
CONTINUOUS
 10
14.6776488961
 20
5.3850046316
 11
14.6930616178
 21
5.3182447991
  0
LINE
  5
22F
100
AcDbEntity
  8
0
100
AcDbLine
 62
7
  6
CONTINUOUS
 10
14.9276488961
 20
5.3182447991
 11
14.9430616178
 21
5.3850046316
  0
LINE
  5
230
100
AcDbEntity
  8
0
100
AcDbLine
 62
7
  6
CONTINUOUS
 10
15.1776488961
 20
5.3850046316
 11
15.1930616178
 21
5.3182447991
  0
LINE
  5
231
100
AcDbEntity
  8
0
100
AcDbLine
 62
7
  6
CONTINUOUS
 10
13.7196132021
 20
5.2971247154
 11
13.9010973118
 21
5.2971247154
  0
LINE
  5
232
100
AcDbEntity
  8
0
100
AcDbLine
 62
7
  6
CONTINUOUS
 10
14.2196132021
 20
5.2971247154
 11
14.4010973118
 21
5.2971247154
  0
LINE
  5
233
100
AcDbEntity
  8
0
100
AcDbLine
 62
7
  6
CONTINUOUS
 10
14.7196132021
 20
5.2971247154
 11
14.9010973118
 21
5.2971247154
  0
LINE
  5
234
100
AcDbEntity
  8
0
100
AcDbLine
 62
7
  6
CONTINUOUS
 10
15.2196132021
 20
5.2971247154
 11
15.4010973118
 21
5.2971247154
  0
LINE
  5
235
100
AcDbEntity
  8
0
100
AcDbLine
 62
7
  6
CONTINUOUS
 10
15.7196132021
 20
5.2971247154
 11
15.9010973118
 21
5.2971247154
  0
LINE
  5
236
100
AcDbEntity
  8
0
100
AcDbLine
 62
7
  6
CONTINUOUS
 10
16.2196132021
 20
5.2971247154
 11
16.4010973118
 21
5.2971247154
  0
LINE
  5
237
100
AcDbEntity
  8
0
100
AcDbLine
 62
7
  6
CONTINUOUS
 10
16.7196132021
 20
5.2971247154
 11
16.9010973118
 21
5.2971247154
  0
LINE
  5
238
100
AcDbEntity
  8
0
100
AcDbLine
 62
7
  6
CONTINUOUS
 10
17.2196132021
 20
5.2971247154
 11
17.4010973118
 21
5.2971247154
  0
LINE
  5
239
100
AcDbEntity
  8
0
100
AcDbLine
 62
7
  6
CONTINUOUS
 10
15.4276488961
 20
5.3182447991
 11
15.4430616178
 21
5.3850046316
  0
LINE
  5
23A
100
AcDbEntity
  8
0
100
AcDbLine
 62
7
  6
CONTINUOUS
 10
13.5603552569
 20
5.4061247154
 11
13.6510973118
 21
5.4061247154
  0
LINE
  5
23B
100
AcDbEntity
  8
0
100
AcDbLine
 62
7
  6
CONTINUOUS
 10
13.9696132021
 20
5.4061247154
 11
14.1510973118
 21
5.4061247154
  0
LINE
  5
23C
100
AcDbEntity
  8
0
100
AcDbLine
 62
7
  6
CONTINUOUS
 10
14.4696132021
 20
5.4061247154
 11
14.6510973118
 21
5.4061247154
  0
LINE
  5
23D
100
AcDbEntity
  8
0
100
AcDbLine
 62
7
  6
CONTINUOUS
 10
14.9696132021
 20
5.4061247154
 11
15.1510973118
 21
5.4061247154
  0
LINE
  5
23E
100
AcDbEntity
  8
0
100
AcDbLine
 62
7
  6
CONTINUOUS
 10
15.4696132021
 20
5.4061247154
 11
15.6510973118
 21
5.4061247154
  0
LINE
  5
23F
100
AcDbEntity
  8
0
100
AcDbLine
 62
7
  6
CONTINUOUS
 10
15.9696132021
 20
5.4061247154
 11
16.1510973118
 21
5.4061247154
  0
LINE
  5
240
100
AcDbEntity
  8
0
100
AcDbLine
 62
7
  6
CONTINUOUS
 10
16.4696132021
 20
5.4061247154
 11
16.6510973118
 21
5.4061247154
  0
LINE
  5
241
100
AcDbEntity
  8
0
100
AcDbLine
 62
7
  6
CONTINUOUS
 10
16.9696132021
 20
5.4061247154
 11
17.1510973118
 21
5.4061247154
  0
LINE
  5
242
100
AcDbEntity
  8
0
100
AcDbLine
 62
7
  6
CONTINUOUS
 10
17.4696132021
 20
5.4061247154
 11
17.5603552569
 21
5.4061247154
  0
LINE
  5
243
100
AcDbEntity
  8
0
100
AcDbLine
 62
7
  6
CONTINUOUS
 10
15.6776488961
 20
5.3850046316
 11
15.6930616178
 21
5.3182447991
  0
LINE
  5
244
100
AcDbEntity
  8
0
100
AcDbLine
 62
7
  6
CONTINUOUS
 10
13.5603552569
 20
5.6241247154
 11
17.5603552569
 21
5.6241247154
  0
LINE
  5
245
100
AcDbEntity
  8
0
100
AcDbLine
 62
7
  6
CONTINUOUS
 10
15.9276488961
 20
5.3182447991
 11
15.9430616178
 21
5.3850046316
  0
LINE
  5
246
100
AcDbEntity
  8
0
100
AcDbLine
 62
7
  6
CONTINUOUS
 10
16.1776488961
 20
5.3850046316
 11
16.1930616178
 21
5.3182447991
  0
LINE
  5
247
100
AcDbEntity
  8
0
100
AcDbLine
 62
7
  6
CONTINUOUS
 10
16.4276488961
 20
5.3182447991
 11
16.4430616178
 21
5.3850046316
  0
LINE
  5
248
100
AcDbEntity
  8
0
100
AcDbLine
 62
7
  6
CONTINUOUS
 10
16.6776488961
 20
5.3850046316
 11
16.6930616178
 21
5.3182447991
  0
LINE
  5
249
100
AcDbEntity
  8
0
100
AcDbLine
 62
7
  6
CONTINUOUS
 10
16.9276488961
 20
5.3182447991
 11
16.9430616178
 21
5.3850046316
  0
LINE
  5
24A
100
AcDbEntity
  8
0
100
AcDbLine
 62
7
  6
CONTINUOUS
 10
17.1776488961
 20
5.3850046316
 11
17.1930616178
 21
5.3182447991
  0
LINE
  5
24B
100
AcDbEntity
  8
0
100
AcDbLine
 62
7
  6
CONTINUOUS
 10
17.5603552569
 20
5.4061247154
 11
17.5603552569
 21
5.6241247154
  0
LINE
  5
24C
100
AcDbEntity
  8
0
100
AcDbLine
 62
7
  6
CONTINUOUS
 10
17.4276488961
 20
5.3182447991
 11
17.4430616178
 21
5.3850046316
  0
LINE
  5
24D
100
AcDbEntity
  8
0
100
AcDbLine
 62
7
  6
CONTINUOUS
 10
14.1939110709
 20
10.9531852459
 11
14.2518563183
 21
10.8879138239
  0
LINE
  5
24E
100
AcDbEntity
  8
0
100
AcDbLine
 62
7
  6
CONTINUOUS
 10
14.1695823936
 20
10.996366411
 11
14.1828775672
 21
10.9692736958
  0
LINE
  5
24F
100
AcDbEntity
  8
0
100
AcDbLine
 62
7
  6
CONTINUOUS
 10
15.8258098423
 20
10.9230804509
 11
15.8298775015
 21
10.9234118555
  0
LINE
  5
250
100
AcDbEntity
  8
0
100
AcDbLine
 62
7
  6
CONTINUOUS
 10
14.2797505139
 20
10.8763956871
 11
15.7890171733
 21
10.8763956871
  0
LINE
  5
251
100
AcDbEntity
  8
0
100
AcDbLine
 62
7
  6
CONTINUOUS
 10
15.8171818826
 20
10.9230801062
 11
15.8258161811
 21
10.9230801062
  0
LINE
  5
252
100
AcDbEntity
  8
0
100
AcDbLine
 62
7
  6
CONTINUOUS
 10
15.7507865616
 20
11.0119066602
 11
14.1849828718
 21
11.0119066602
  0
LINE
  5
253
100
AcDbEntity
  8
0
100
AcDbLine
 62
7
  6
CONTINUOUS
 10
15.946843004
 20
11.3147439057
 11
15.9509106632
 21
11.3150753103
  0
LINE
  5
254
100
AcDbEntity
  8
0
100
AcDbLine
 62
7
  6
CONTINUOUS
 10
15.9382150443
 20
11.314743561
 11
15.9468493429
 21
11.314743561
  0
LINE
  5
255
100
AcDbEntity
  8
0
100
AcDbLine
 62
7
  6
CONTINUOUS
 10
16.0678761658
 20
11.7064073605
 11
16.0719438249
 21
11.7067387651
  0
LINE
  5
256
100
AcDbEntity
  8
0
100
AcDbLine
 62
7
  6
CONTINUOUS
 10
14.1687233973
 20
11.0037475953
 11
15.136988691
 21
14.1370552338
  0
LWPOLYLINE
  5
257
100
AcDbEntity
  8
0
100
AcDbPolyline
 62
7
  6
CONTINUOUS
 90
5
 70
0
 10
16.6771096334
 20
13.6650560392
 10
16.6829529995
 20
13.6667629124
 10
16.6879262801
 20
13.6696086274
 10
16.6919189385
 20
13.6732608448
 10
16.6949484329
 20
13.677491731
  0
LINE
  5
258
100
AcDbEntity
  8
0
100
AcDbLine
 62
7
  6
CONTINUOUS
 10
16.059248206
 20
11.7064070158
 11
16.0678825046
 21
11.7064070158
  0
LWPOLYLINE
  5
259
100
AcDbEntity
  8
0
100
AcDbPolyline
 62
7
  6
CONTINUOUS
 90
5
 70
0
 10
16.5560764717
 20
13.2733925844
 10
16.5619198378
 20
13.2750994576
 10
16.5668931184
 20
13.2779451726
 10
16.5708857768
 20
13.28159739
 10
16.5739152712
 20
13.2858282762
  0
LINE
  5
25A
100
AcDbEntity
  8
0
100
AcDbLine
 62
7
  6
CONTINUOUS
 10
16.1889093275
 20
12.0980708153
 11
16.1929769866
 21
12.09840222
  0
LINE
  5
25B
100
AcDbEntity
  8
0
100
AcDbLine
 62
7
  6
CONTINUOUS
 10
16.1802813677
 20
12.0980704706
 11
16.1889156663
 21
12.0980704706
  0
LINE
  5
25C
100
AcDbEntity
  8
0
100
AcDbLine
 62
7
  6
CONTINUOUS
 10
15.7947343067
 20
10.9692736958
 11
15.7814391331
 21
10.996366411
  0
LWPOLYLINE
  5
25D
100
AcDbEntity
  8
0
100
AcDbPolyline
 62
7
  6
CONTINUOUS
 90
5
 70
0
 10
16.43504331
 20
12.8817291296
 10
16.4408866761
 20
12.8834360027
 10
16.4458599567
 20
12.8862817178
 10
16.4498526151
 20
12.8899339352
 10
16.4528821095
 20
12.8941648214
  0
LINE
  5
25E
100
AcDbEntity
  8
0
100
AcDbLine
 62
7
  6
CONTINUOUS
 10
16.3099424892
 20
12.4897342701
 11
16.3140101483
 21
12.4900656748
  0
LINE
  5
25F
100
AcDbEntity
  8
0
100
AcDbLine
 62
7
  6
CONTINUOUS
 10
16.3013145294
 20
12.4897339255
 11
16.309948828
 21
12.4897339255
  0
LINE
  5
260
100
AcDbEntity
  8
0
100
AcDbLine
 62
7
  6
CONTINUOUS
 10
15.8056068078
 20
10.8879138239
 11
15.7994909319
 21
10.9531852459
  0
LWPOLYLINE
  5
261
100
AcDbEntity
  8
0
100
AcDbPolyline
 62
7
  6
CONTINUOUS
 90
5
 70
0
 10
16.3140101483
 20
12.4900656748
 10
16.3198535144
 20
12.4917725479
 10
16.324826795
 20
12.494618263
 10
16.3288194534
 20
12.4982704804
 10
16.3318489478
 20
12.5025013666
  0
LINE
  5
262
100
AcDbEntity
  8
0
100
AcDbLine
 62
7
  6
CONTINUOUS
 10
16.4309756509
 20
12.881397725
 11
16.43504331
 21
12.8817291296
  0
LINE
  5
263
100
AcDbEntity
  8
0
100
AcDbLine
 62
7
  6
CONTINUOUS
 10
15.8956509456
 20
11.0939676744
 11
15.8954934656
 21
11.1475394526
  0
LINE
  5
264
100
AcDbEntity
  8
0
100
AcDbLine
 62
7
  6
CONTINUOUS
 10
16.4223476911
 20
12.8813973803
 11
16.4309819897
 21
12.8813973803
  0
LINE
  5
265
100
AcDbEntity
  8
0
100
AcDbLine
 62
7
  6
CONTINUOUS
 10
16.0166841073
 20
11.4856311292
 11
16.0165266273
 21
11.5392029074
  0
LINE
  5
266
100
AcDbEntity
  8
0
100
AcDbLine
 62
7
  6
CONTINUOUS
 10
15.895493511
 20
11.1475566873
 11
15.8955232707
 21
11.1504508427
  0
LINE
  5
267
100
AcDbEntity
  8
0
100
AcDbLine
 62
7
  6
CONTINUOUS
 10
16.0165266727
 20
11.5392201421
 11
16.0165564324
 21
11.5421142976
  0
LINE
  5
268
100
AcDbEntity
  8
0
100
AcDbLine
 62
7
  6
CONTINUOUS
 10
15.8954606316
 20
11.0903764697
 11
15.8956509525
 21
11.0939685473
  0
LWPOLYLINE
  5
269
100
AcDbEntity
  8
0
100
AcDbPolyline
 62
7
  6
CONTINUOUS
 90
5
 70
0
 10
15.8955232707
 20
11.1504508427
 10
15.8962369025
 20
11.1622823794
 10
15.8979440239
 20
11.1761008296
 10
15.9004544656
 20
11.1899023128
 10
15.9033529529
 20
11.2017717406
  0
LINE
  5
26A
100
AcDbEntity
  8
0
100
AcDbLine
 62
7
  6
CONTINUOUS
 10
15.8052736283
 20
10.8845556809
 11
15.8056068078
 21
10.8879138239
  0
LINE
  5
26B
100
AcDbEntity
  8
0
100
AcDbLine
 62
7
  6
CONTINUOUS
 10
16.6774808429
 20
13.7055427971
 11
16.6780429514
 21
13.7067126851
  0
LINE
  5
26C
100
AcDbEntity
  8
0
100
AcDbLine
 62
7
  6
CONTINUOUS
 10
16.137717269
 20
11.8772945841
 11
16.137559789
 21
11.9308663622
  0
LINE
  5
26D
100
AcDbEntity
  8
0
100
AcDbLine
 62
7
  6
CONTINUOUS
 10
16.1375598344
 20
11.9308835969
 11
16.1375895941
 21
11.9337777524
  0
LINE
  5
26E
100
AcDbEntity
  8
0
100
AcDbLine
 62
7
  6
CONTINUOUS
 10
16.0164937933
 20
11.4820399245
 11
16.0166841142
 21
11.4856320021
  0
LINE
  5
26F
100
AcDbEntity
  8
0
100
AcDbLine
 62
7
  6
CONTINUOUS
 10
16.137526955
 20
11.8737033793
 11
16.1377172759
 21
11.8772954569
  0
LWPOLYLINE
  5
270
100
AcDbEntity
  8
0
100
AcDbPolyline
 62
7
  6
CONTINUOUS
 90
5
 70
0
 10
16.0165564324
 20
11.5421142976
 10
16.0172700642
 20
11.5539458342
 10
16.0189771856
 20
11.5677642844
 10
16.0214876273
 20
11.5815657676
 10
16.0243861146
 20
11.5934351954
  0
LWPOLYLINE
  5
271
100
AcDbEntity
  8
0
100
AcDbPolyline
 62
7
  6
CONTINUOUS
 90
5
 70
0
 10
16.1375895941
 20
11.9337777524
 10
16.1383032259
 20
11.945609289
 10
16.1400103473
 20
11.9594277392
 10
16.142520789
 20
11.9732292225
 10
16.1454192763
 20
11.9850986503
  0
LINE
  5
272
100
AcDbEntity
  8
0
100
AcDbLine
 62
7
  6
CONTINUOUS
 10
16.6761289247
 20
13.7021996901
 11
16.6774808429
 21
13.7055427971
  0
LINE
  5
273
100
AcDbEntity
  8
0
100
AcDbLine
 62
7
  6
CONTINUOUS
 10
16.555095763
 20
13.3105362353
 11
16.5564476812
 21
13.3138793423
  0
LWPOLYLINE
  5
274
100
AcDbEntity
  8
0
100
AcDbPolyline
 62
7
  6
CONTINUOUS
 90
3
 70
0
 10
16.6949484329
 20
13.677491731
 10
16.696923515
 20
13.6817535161
 10
16.6974083586
 20
13.6831943526
  0
LWPOLYLINE
  5
275
100
AcDbEntity
  8
0
100
AcDbPolyline
 62
7
  6
CONTINUOUS
 90
3
 70
0
 10
16.5739152712
 20
13.2858282762
 10
16.5758903533
 20
13.2900900613
 10
16.5763751969
 20
13.2915308977
  0
LINE
  5
276
100
AcDbEntity
  8
0
100
AcDbLine
 62
7
  6
CONTINUOUS
 10
16.5564476812
 20
13.3138793423
 11
16.5570097897
 21
13.3150492303
  0
LINE
  5
277
100
AcDbEntity
  8
0
100
AcDbLine
 62
7
  6
CONTINUOUS
 10
16.4354145195
 20
12.9222158875
 11
16.435976628
 21
12.9233857755
  0
LWPOLYLINE
  5
278
100
AcDbEntity
  8
0
100
AcDbPolyline
 62
7
  6
CONTINUOUS
 90
5
 70
0
 10
16.1929769866
 20
12.09840222
 10
16.1988203527
 20
12.1001090931
 10
16.2037936333
 20
12.1029548082
 10
16.2077862917
 20
12.1066070256
 10
16.2108157861
 20
12.1108379118
  0
LINE
  5
279
100
AcDbEntity
  8
0
100
AcDbLine
 62
7
  6
CONTINUOUS
 10
16.5520088126
 20
13.2730611798
 11
16.5560764717
 21
13.2733925844
  0
LINE
  5
27A
100
AcDbEntity
  8
0
100
AcDbLine
 62
7
  6
CONTINUOUS
 10
16.2587504307
 20
12.2689580389
 11
16.2585929507
 21
12.322529817
  0
LINE
  5
27B
100
AcDbEntity
  8
0
100
AcDbLine
 62
7
  6
CONTINUOUS
 10
16.2585929961
 20
12.3225470517
 11
16.2586227558
 21
12.3254412072
  0
LINE
  5
27C
100
AcDbEntity
  8
0
100
AcDbLine
 62
7
  6
CONTINUOUS
 10
16.2585601167
 20
12.2653668341
 11
16.2587504376
 21
12.2689589117
  0
LWPOLYLINE
  5
27D
100
AcDbEntity
  8
0
100
AcDbPolyline
 62
7
  6
CONTINUOUS
 90
5
 70
0
 10
16.2586227558
 20
12.3254412072
 10
16.2593363876
 20
12.3372727438
 10
16.261043509
 20
12.351091194
 10
16.2635539507
 20
12.3648926773
 10
16.266452438
 20
12.3767621051
  0
LWPOLYLINE
  5
27E
100
AcDbEntity
  8
0
100
AcDbPolyline
 62
7
  6
CONTINUOUS
 90
3
 70
0
 10
15.894106584
 20
11.0837091535
 10
15.8948753156
 20
11.0866817136
 10
15.8954606316
 20
11.0903764697
  0
LWPOLYLINE
  5
27F
100
AcDbEntity
  8
0
100
AcDbPolyline
 62
7
  6
CONTINUOUS
 90
3
 70
0
 10
16.0151397457
 20
11.4753726083
 10
16.0159084773
 20
11.4783451684
 10
16.0164937933
 20
11.4820399245
  0
LWPOLYLINE
  5
280
100
AcDbEntity
  8
0
100
AcDbPolyline
 62
7
  6
CONTINUOUS
 90
3
 70
0
 10
16.1361729074
 20
11.8670360631
 10
16.1369416391
 20
11.8700086232
 10
16.137526955
 20
11.8737033793
  0
LWPOLYLINE
  5
281
100
AcDbEntity
  8
0
100
AcDbPolyline
 62
7
  6
CONTINUOUS
 90
3
 70
0
 10
16.2572060691
 20
12.2586995179
 10
16.2579748008
 20
12.2616720781
 10
16.2585601167
 20
12.2653668341
  0
LWPOLYLINE
  5
282
100
AcDbEntity
  8
0
100
AcDbPolyline
 62
7
  6
CONTINUOUS
 90
3
 70
0
 10
16.3782392308
 20
12.6503629727
 10
16.3790079625
 20
12.6533355329
 10
16.3795932784
 20
12.6570302889
  0
LINE
  5
283
100
AcDbEntity
  8
0
100
AcDbLine
 62
7
  6
CONTINUOUS
 10
15.9033529529
 20
11.2017717406
 11
15.9043393702
 21
11.2051231218
  0
LINE
  5
284
100
AcDbEntity
  8
0
100
AcDbLine
 62
7
  6
CONTINUOUS
 10
16.0243861146
 20
11.5934351954
 11
16.0253725319
 21
11.5967865766
  0
LINE
  5
285
100
AcDbEntity
  8
0
100
AcDbLine
 62
7
  6
CONTINUOUS
 10
16.1454192763
 20
11.9850986503
 11
16.1464056936
 21
11.9884500314
  0
LINE
  5
286
100
AcDbEntity
  8
0
100
AcDbLine
 62
7
  6
CONTINUOUS
 10
16.266452438
 20
12.3767621051
 11
16.2674388553
 21
12.3801134863
  0
LINE
  5
287
100
AcDbEntity
  8
0
100
AcDbLine
 62
7
  6
CONTINUOUS
 10
16.3874855997
 20
12.7684255599
 11
16.388472017
 21
12.7717769411
  0
LINE
  5
288
100
AcDbEntity
  8
0
100
AcDbLine
 62
7
  6
CONTINUOUS
 10
16.5085187614
 20
13.1600890147
 11
16.5095051787
 21
13.1634403959
  0
LINE
  5
289
100
AcDbEntity
  8
0
100
AcDbLine
 62
7
  6
CONTINUOUS
 10
16.6295519231
 20
13.5517524695
 11
16.6305383404
 21
13.5551038507
  0
LINE
  5
28A
100
AcDbEntity
  8
0
100
AcDbLine
 62
7
  6
CONTINUOUS
 10
16.7505850848
 20
13.9434159243
 11
16.7515715021
 21
13.9467673055
  0
LINE
  5
28B
100
AcDbEntity
  8
0
100
AcDbLine
 62
7
  6
CONTINUOUS
 10
15.8062529735
 20
10.8877141435
 11
15.8272422422
 21
10.9556354417
  0
LINE
  5
28C
100
AcDbEntity
  8
0
100
AcDbLine
 62
7
  6
CONTINUOUS
 10
15.9043442138
 20
11.2051375134
 11
15.9482754039
 21
11.3472988965
  0
LINE
  5
28D
100
AcDbEntity
  8
0
100
AcDbLine
 62
7
  6
CONTINUOUS
 10
16.0253773755
 20
11.5968009682
 11
16.0693085656
 21
11.7389623513
  0
LINE
  5
28E
100
AcDbEntity
  8
0
100
AcDbLine
 62
7
  6
CONTINUOUS
 10
16.1464105372
 20
11.9884644231
 11
16.1903417273
 21
12.1306258061
  0
LINE
  5
28F
100
AcDbEntity
  8
0
100
AcDbLine
 62
7
  6
CONTINUOUS
 10
16.2674436989
 20
12.3801278779
 11
16.311374889
 21
12.5222892609
  0
LINE
  5
290
100
AcDbEntity
  8
0
100
AcDbLine
 62
7
  6
CONTINUOUS
 10
16.3884768606
 20
12.7717913327
 11
16.4324080507
 21
12.9139527157
  0
LINE
  5
291
100
AcDbEntity
  8
0
100
AcDbLine
 62
7
  6
CONTINUOUS
 10
16.5095100223
 20
13.1634547875
 11
16.5534412124
 21
13.3056161705
  0
LINE
  5
292
100
AcDbEntity
  8
0
100
AcDbLine
 62
7
  6
CONTINUOUS
 10
16.630543184
 20
13.5551182423
 11
16.6744743741
 21
13.6972796254
  0
LINE
  5
293
100
AcDbEntity
  8
0
100
AcDbLine
 62
7
  6
CONTINUOUS
 10
16.7515763457
 20
13.9467816971
 11
16.7735419413
 21
14.0178623905
  0
LINE
  5
294
100
AcDbEntity
  8
0
100
AcDbLine
 62
7
  6
CONTINUOUS
 10
15.8501762635
 20
10.9415502995
 11
15.8941074645
 21
11.0837117178
  0
LINE
  5
295
100
AcDbEntity
  8
0
100
AcDbLine
 62
7
  6
CONTINUOUS
 10
15.9712094252
 20
11.3332137543
 11
16.0151406262
 21
11.4753751726
  0
LINE
  5
296
100
AcDbEntity
  8
0
100
AcDbLine
 62
7
  6
CONTINUOUS
 10
16.0922425869
 20
11.7248772091
 11
16.1361737879
 21
11.8670386274
  0
LINE
  5
297
100
AcDbEntity
  8
0
100
AcDbLine
 62
7
  6
CONTINUOUS
 10
16.2132757487
 20
12.1165406639
 11
16.2572069496
 21
12.2587020823
  0
LINE
  5
298
100
AcDbEntity
  8
0
100
AcDbLine
 62
7
  6
CONTINUOUS
 10
16.3343089104
 20
12.5082041187
 11
16.3782401113
 21
12.6503655371
  0
LINE
  5
299
100
AcDbEntity
  8
0
100
AcDbLine
 62
7
  6
CONTINUOUS
 10
16.4553420721
 20
12.8998675736
 11
16.499273273
 21
13.0420289919
  0
LINE
  5
29A
100
AcDbEntity
  8
0
100
AcDbLine
 62
7
  6
CONTINUOUS
 10
16.5763752338
 20
13.2915310284
 11
16.6203064347
 21
13.4336924467
  0
LINE
  5
29B
100
AcDbEntity
  8
0
100
AcDbLine
 62
7
  6
CONTINUOUS
 10
16.6974083955
 20
13.6831944832
 11
16.7413395964
 21
13.8253559015
  0
LINE
  5
29C
100
AcDbEntity
  8
0
100
AcDbLine
 62
7
  6
CONTINUOUS
 10
16.67447458
 20
13.6972810526
 11
16.6761289247
 21
13.7021996901
  0
LINE
  5
29D
100
AcDbEntity
  8
0
100
AcDbLine
 62
7
  6
CONTINUOUS
 10
16.5534414183
 20
13.3056175978
 11
16.555095763
 21
13.3105362353
  0
LINE
  5
29E
100
AcDbEntity
  8
0
100
AcDbLine
 62
7
  6
CONTINUOUS
 10
16.4324082566
 20
12.913954143
 11
16.4340626013
 21
12.9188727805
  0
LINE
  5
29F
100
AcDbEntity
  8
0
100
AcDbLine
 62
7
  6
CONTINUOUS
 10
16.3113750949
 20
12.5222906882
 11
16.3130294396
 21
12.5272093256
  0
LINE
  5
2A0
100
AcDbEntity
  8
0
100
AcDbLine
 62
7
  6
CONTINUOUS
 10
16.1903419332
 20
12.1306272333
 11
16.1919962779
 21
12.1355458708
  0
LINE
  5
2A1
100
AcDbEntity
  8
0
100
AcDbLine
 62
7
  6
CONTINUOUS
 10
16.0693087715
 20
11.7389637785
 11
16.0709631162
 21
11.743882416
  0
LINE
  5
2A2
100
AcDbEntity
  8
0
100
AcDbLine
 62
7
  6
CONTINUOUS
 10
15.9482756098
 20
11.3473003237
 11
15.9499299545
 21
11.3522189612
  0
LINE
  5
2A3
100
AcDbEntity
  8
0
100
AcDbLine
 62
7
  6
CONTINUOUS
 10
15.8272424481
 20
10.9556368689
 11
15.8288967928
 21
10.9605555064
  0
LINE
  5
2A4
100
AcDbEntity
  8
0
100
AcDbLine
 62
7
  6
CONTINUOUS
 10
16.4340626013
 20
12.9188727805
 11
16.4354145195
 21
12.9222158875
  0
LINE
  5
2A5
100
AcDbEntity
  8
0
100
AcDbLine
 62
7
  6
CONTINUOUS
 10
16.3130294396
 20
12.5272093256
 11
16.3143813578
 21
12.5305524327
  0
LINE
  5
2A6
100
AcDbEntity
  8
0
100
AcDbLine
 62
7
  6
CONTINUOUS
 10
16.1919962779
 20
12.1355458708
 11
16.1933481961
 21
12.1388889778
  0
LINE
  5
2A7
100
AcDbEntity
  8
0
100
AcDbLine
 62
7
  6
CONTINUOUS
 10
16.0709631162
 20
11.743882416
 11
16.0723150344
 21
11.747225523
  0
LWPOLYLINE
  5
2A8
100
AcDbEntity
  8
0
100
AcDbPolyline
 62
7
  6
CONTINUOUS
 90
3
 70
0
 10
16.4528821095
 20
12.8941648214
 10
16.4548571916
 20
12.8984266065
 10
16.4553420352
 20
12.8998674429
  0
LWPOLYLINE
  5
2A9
100
AcDbEntity
  8
0
100
AcDbPolyline
 62
7
  6
CONTINUOUS
 90
3
 70
0
 10
16.3318489478
 20
12.5025013666
 10
16.3338240299
 20
12.5067631517
 10
16.3343088735
 20
12.5082039881
  0
LWPOLYLINE
  5
2AA
100
AcDbEntity
  8
0
100
AcDbPolyline
 62
7
  6
CONTINUOUS
 90
3
 70
0
 10
16.2108157861
 20
12.1108379118
 10
16.2127908682
 20
12.1150996969
 10
16.2132757118
 20
12.1165405333
  0
LINE
  5
2AB
100
AcDbEntity
  8
0
100
AcDbLine
 62
7
  6
CONTINUOUS
 10
16.3143813578
 20
12.5305524327
 11
16.3149434663
 21
12.5317223207
  0
LINE
  5
2AC
100
AcDbEntity
  8
0
100
AcDbLine
 62
7
  6
CONTINUOUS
 10
16.1933481961
 20
12.1388889778
 11
16.1939103046
 21
12.1400588659
  0
LINE
  5
2AD
100
AcDbEntity
  8
0
100
AcDbLine
 62
7
  6
CONTINUOUS
 10
16.5433808528
 20
13.2730608351
 11
16.5520151514
 21
13.2730608351
  0
LINE
  5
2AE
100
AcDbEntity
  8
0
100
AcDbLine
 62
7
  6
CONTINUOUS
 10
16.3797835924
 20
12.6606214937
 11
16.3796261124
 21
12.7141932719
  0
LINE
  5
2AF
100
AcDbEntity
  8
0
100
AcDbLine
 62
7
  6
CONTINUOUS
 10
16.3796261578
 20
12.7142105066
 11
16.3796559175
 21
12.717104662
  0
LINE
  5
2B0
100
AcDbEntity
  8
0
100
AcDbLine
 62
7
  6
CONTINUOUS
 10
16.3795932784
 20
12.6570302889
 11
16.3797835993
 21
12.6606223665
  0
LWPOLYLINE
  5
2B1
100
AcDbEntity
  8
0
100
AcDbPolyline
 62
7
  6
CONTINUOUS
 90
5
 70
0
 10
16.3796559175
 20
12.717104662
 10
16.3803695493
 20
12.7289361986
 10
16.3820766707
 20
12.7427546488
 10
16.3845871124
 20
12.7565561321
 10
16.3874855997
 20
12.7684255599
  0
LWPOLYLINE
  5
2B2
100
AcDbEntity
  8
0
100
AcDbPolyline
 62
7
  6
CONTINUOUS
 90
5
 70
0
 10
16.5006890792
 20
13.1087681168
 10
16.501402711
 20
13.1205996534
 10
16.5031098324
 20
13.1344181037
 10
16.5056202741
 20
13.1482195869
 10
16.5085187614
 20
13.1600890147
  0
LWPOLYLINE
  5
2B3
100
AcDbEntity
  8
0
100
AcDbPolyline
 62
7
  6
CONTINUOUS
 90
3
 70
0
 10
16.4992723925
 20
13.0420264276
 10
16.5000411242
 20
13.0449989877
 10
16.5006264401
 20
13.0486937438
  0
LWPOLYLINE
  5
2B4
100
AcDbEntity
  8
0
100
AcDbPolyline
 62
7
  6
CONTINUOUS
 90
3
 70
0
 10
16.6203055542
 20
13.4336898824
 10
16.6210742859
 20
13.4366624425
 10
16.6216596019
 20
13.4403571986
  0
LWPOLYLINE
  5
2B5
100
AcDbEntity
  8
0
100
AcDbPolyline
 62
7
  6
CONTINUOUS
 90
3
 70
0
 10
16.7413387159
 20
13.8253533372
 10
16.7421074476
 20
13.8283258973
 10
16.7426927636
 20
13.8320206534
  0
LINE
  5
2B6
100
AcDbEntity
  8
0
100
AcDbLine
 62
7
  6
CONTINUOUS
 10
15.9499299545
 20
11.3522189612
 11
15.9512818727
 21
11.3555620682
  0
LINE
  5
2B7
100
AcDbEntity
  8
0
100
AcDbLine
 62
7
  6
CONTINUOUS
 10
15.8288967928
 20
10.9605555064
 11
15.830248711
 21
10.9638986134
  0
LWPOLYLINE
  5
2B8
100
AcDbEntity
  8
0
100
AcDbPolyline
 62
7
  6
CONTINUOUS
 90
3
 70
0
 10
16.0897826244
 20
11.719174457
 10
16.0917577065
 20
11.723436242
 10
16.0922425501
 20
11.7248770785
  0
LWPOLYLINE
  5
2B9
100
AcDbEntity
  8
0
100
AcDbPolyline
 62
7
  6
CONTINUOUS
 90
3
 70
0
 10
15.9687494627
 20
11.3275110021
 10
15.9707245448
 20
11.3317727872
 10
15.9712093884
 20
11.3332136237
  0
LINE
  5
2BA
100
AcDbEntity
  8
0
100
AcDbLine
 62
7
  6
CONTINUOUS
 10
16.0723150344
 20
11.747225523
 11
16.0728771429
 21
11.748395411
  0
LINE
  5
2BB
100
AcDbEntity
  8
0
100
AcDbLine
 62
7
  6
CONTINUOUS
 10
15.9512818727
 20
11.3555620682
 11
15.9518439812
 21
11.3567319562
  0
LINE
  5
2BC
100
AcDbEntity
  8
0
100
AcDbLine
 62
7
  6
CONTINUOUS
 10
15.830248711
 20
10.9638986134
 11
15.8308108195
 21
10.9650685014
  0
LWPOLYLINE
  5
2BD
100
AcDbEntity
  8
0
100
AcDbPolyline
 62
7
  6
CONTINUOUS
 90
5
 70
0
 10
16.0719438249
 20
11.7067387651
 10
16.077787191
 20
11.7084456383
 10
16.0827604716
 20
11.7112913533
 10
16.08675313
 20
11.7149435708
 10
16.0897826244
 20
11.719174457
  0
LINE
  5
2BE
100
AcDbEntity
  8
0
100
AcDbLine
 62
7
  6
CONTINUOUS
 10
16.5008167541
 20
13.0522849485
 11
16.5006592741
 21
13.1058567267
  0
LINE
  5
2BF
100
AcDbEntity
  8
0
100
AcDbLine
 62
7
  6
CONTINUOUS
 10
16.5006593195
 20
13.1058739614
 11
16.5006890792
 21
13.1087681168
  0
LINE
  5
2C0
100
AcDbEntity
  8
0
100
AcDbLine
 62
7
  6
CONTINUOUS
 10
16.5006264401
 20
13.0486937438
 11
16.500816761
 21
13.0522858213
  0
LINE
  5
2C1
100
AcDbEntity
  8
0
100
AcDbLine
 62
7
  6
CONTINUOUS
 10
16.6216596019
 20
13.4403571986
 11
16.6218499227
 21
13.4439492762
  0
LWPOLYLINE
  5
2C2
100
AcDbEntity
  8
0
100
AcDbPolyline
 62
7
  6
CONTINUOUS
 90
5
 70
0
 10
16.6217222409
 20
13.5004315716
 10
16.6224358727
 20
13.5122631082
 10
16.6241429941
 20
13.5260815585
 10
16.6266534358
 20
13.5398830417
 10
16.6295519231
 20
13.5517524695
  0
LWPOLYLINE
  5
2C3
100
AcDbEntity
  8
0
100
AcDbPolyline
 62
7
  6
CONTINUOUS
 90
3
 70
0
 10
15.847716301
 20
10.9358475473
 10
15.8496913831
 20
10.9401093324
 10
15.8501762267
 20
10.9415501689
  0
LINE
  5
2C4
100
AcDbEntity
  8
0
100
AcDbLine
 62
7
  6
CONTINUOUS
 10
16.6730419743
 20
13.6647246346
 11
16.6771096334
 21
13.6650560392
  0
LINE
  5
2C5
100
AcDbEntity
  8
0
100
AcDbLine
 62
7
  6
CONTINUOUS
 10
16.6218499158
 20
13.4439484033
 11
16.6216924358
 21
13.4975201815
  0
LINE
  5
2C6
100
AcDbEntity
  8
0
100
AcDbLine
 62
7
  6
CONTINUOUS
 10
16.6216924812
 20
13.4975374162
 11
16.6217222409
 21
13.5004315716
  0
LINE
  5
2C7
100
AcDbEntity
  8
0
100
AcDbLine
 62
7
  6
CONTINUOUS
 10
16.7427256429
 20
13.889200871
 11
16.7427554026
 21
13.8920950264
  0
LINE
  5
2C8
100
AcDbEntity
  8
0
100
AcDbLine
 62
7
  6
CONTINUOUS
 10
16.7426927636
 20
13.8320206534
 11
16.7428830844
 21
13.835612731
  0
LWPOLYLINE
  5
2C9
100
AcDbEntity
  8
0
100
AcDbPolyline
 62
7
  6
CONTINUOUS
 90
5
 70
0
 10
16.7427554026
 20
13.8920950264
 10
16.7434690344
 20
13.9039265631
 10
16.7451761558
 20
13.9177450133
 10
16.7476865975
 20
13.9315464965
 10
16.7505850848
 20
13.9434159243
  0
LINE
  5
2CA
100
AcDbEntity
  8
0
100
AcDbLine
 62
7
  6
CONTINUOUS
 10
16.7738721014
 20
14.0212214624
 11
16.7735389219
 21
14.0178633194
  0
LINE
  5
2CB
100
AcDbEntity
  8
0
100
AcDbLine
 62
7
  6
CONTINUOUS
 10
16.6644140145
 20
13.6647242899
 11
16.6730483131
 21
13.6647242899
  0
LINE
  5
2CC
100
AcDbEntity
  8
0
100
AcDbLine
 62
7
  6
CONTINUOUS
 10
16.7428830775
 20
13.8356118581
 11
16.7427255975
 21
13.8891836363
  0
LWPOLYLINE
  5
2CD
100
AcDbEntity
  8
0
100
AcDbPolyline
 62
7
  6
CONTINUOUS
 90
5
 70
0
 10
15.9509106632
 20
11.3150753103
 10
15.9567540293
 20
11.3167821835
 10
15.9617273099
 20
11.3196278985
 10
15.9657199683
 20
11.3232801159
 10
15.9687494627
 20
11.3275110021
  0
LINE
  5
2CE
100
AcDbEntity
  8
0
100
AcDbLine
 62
7
  6
CONTINUOUS
 10
16.7738721014
 20
14.0212214624
 11
16.7677562255
 21
14.0864928844
  0
LWPOLYLINE
  5
2CF
100
AcDbEntity
  8
0
100
AcDbPolyline
 62
7
  6
CONTINUOUS
 90
5
 70
0
 10
15.8298775015
 20
10.9234118555
 10
15.8357208676
 20
10.9251187287
 10
15.8406941482
 20
10.9279644437
 10
15.8446868066
 20
10.9316166611
 10
15.847716301
 20
10.9358475473
  0
LINE
  5
2D0
100
AcDbEntity
  8
0
100
AcDbLine
 62
7
  6
CONTINUOUS
 10
16.7190518552
 20
14.1452142987
 11
15.1532481654
 21
14.1452142987
  0
LINE
  5
2D1
100
AcDbEntity
  8
0
100
AcDbLine
 62
7
  6
CONTINUOUS
 10
16.7629996003
 20
14.1025813343
 11
16.7497044267
 21
14.1296740495
  0
ARC
  5
2D2
100
AcDbEntity
  8
0
100
AcDbCircle
 62
7
  6
CONTINUOUS
 10
6.9053672762
 20
5.6150351574
 40
0.1
100
AcDbArc
 50
345.0
 51
360.0
  0
ARC
  5
2D3
100
AcDbEntity
  8
0
100
AcDbCircle
 62
7
  6
CONTINUOUS
 10
5.3553672762
 20
5.6150351574
 40
0.1
100
AcDbArc
 50
180.0
 51
195.0
  0
ARC
  5
2D4
100
AcDbEntity
  8
0
100
AcDbCircle
 62
7
  6
CONTINUOUS
 10
6.9803672762
 20
5.6586199077
 40
0.025
100
AcDbArc
 50
0.0
 51
90.0
  0
ARC
  5
2D5
100
AcDbEntity
  8
0
100
AcDbCircle
 62
7
  6
CONTINUOUS
 10
6.949676024
 20
5.4906199077
 40
0.025
100
AcDbArc
 50
270.0
 51
345.0
  0
ARC
  5
2D6
100
AcDbEntity
  8
0
100
AcDbCircle
 62
7
  6
CONTINUOUS
 10
5.3110585283
 20
5.4906199077
 40
0.025
100
AcDbArc
 50
195.0
 51
270.0
  0
ARC
  5
2D7
100
AcDbEntity
  8
0
100
AcDbCircle
 62
7
  6
CONTINUOUS
 10
5.2803672762
 20
5.6586199077
 40
0.025
100
AcDbArc
 50
90.0
 51
180.0
  0
ARC
  5
2D8
100
AcDbEntity
  8
0
100
AcDbCircle
 62
7
  6
CONTINUOUS
 10
6.920469562
 20
5.3816199077
 40
0.025
100
AcDbArc
 50
270.0
 51
345.0
  0
ARC
  5
2D9
100
AcDbEntity
  8
0
100
AcDbCircle
 62
7
  6
CONTINUOUS
 10
5.3402649935
 20
5.3816198959
 40
0.025
100
AcDbArc
 50
194.9999720688
 51
269.9999927708
  0
ARC
  5
2DA
100
AcDbEntity
  8
0
100
AcDbCircle
 62
7
  6
CONTINUOUS
 10
13.7196132021
 20
5.3243747154
 40
0.02725
100
AcDbArc
 50
193.0
 51
270.0
  0
ARC
  5
2DB
100
AcDbEntity
  8
0
100
AcDbCircle
 62
7
  6
CONTINUOUS
 10
13.9010973118
 20
5.3243747154
 40
0.02725
100
AcDbArc
 50
270.0
 51
347.0
  0
ARC
  5
2DC
100
AcDbEntity
  8
0
100
AcDbCircle
 62
7
  6
CONTINUOUS
 10
14.2196132021
 20
5.3243747154
 40
0.02725
100
AcDbArc
 50
193.0
 51
270.0
  0
ARC
  5
2DD
100
AcDbEntity
  8
0
100
AcDbCircle
 62
7
  6
CONTINUOUS
 10
14.4010973118
 20
5.3243747154
 40
0.02725
100
AcDbArc
 50
270.0
 51
347.0
  0
ARC
  5
2DE
100
AcDbEntity
  8
0
100
AcDbCircle
 62
7
  6
CONTINUOUS
 10
14.7196132021
 20
5.3243747154
 40
0.02725
100
AcDbArc
 50
193.0
 51
270.0
  0
ARC
  5
2DF
100
AcDbEntity
  8
0
100
AcDbCircle
 62
7
  6
CONTINUOUS
 10
14.9010973118
 20
5.3243747154
 40
0.02725
100
AcDbArc
 50
270.0
 51
347.0
  0
ARC
  5
2E0
100
AcDbEntity
  8
0
100
AcDbCircle
 62
7
  6
CONTINUOUS
 10
15.2196132021
 20
5.3243747154
 40
0.02725
100
AcDbArc
 50
193.0
 51
270.0
  0
ARC
  5
2E1
100
AcDbEntity
  8
0
100
AcDbCircle
 62
7
  6
CONTINUOUS
 10
15.4010973118
 20
5.3243747154
 40
0.02725
100
AcDbArc
 50
270.0
 51
347.0
  0
ARC
  5
2E2
100
AcDbEntity
  8
0
100
AcDbCircle
 62
7
  6
CONTINUOUS
 10
13.6510973118
 20
5.3788747154
 40
0.02725
100
AcDbArc
 50
13.0
 51
90.0
  0
ARC
  5
2E3
100
AcDbEntity
  8
0
100
AcDbCircle
 62
7
  6
CONTINUOUS
 10
13.9696132021
 20
5.3788747154
 40
0.02725
100
AcDbArc
 50
90.0
 51
167.0
  0
ARC
  5
2E4
100
AcDbEntity
  8
0
100
AcDbCircle
 62
7
  6
CONTINUOUS
 10
14.1510973118
 20
5.3788747154
 40
0.02725
100
AcDbArc
 50
13.0
 51
90.0
  0
ARC
  5
2E5
100
AcDbEntity
  8
0
100
AcDbCircle
 62
7
  6
CONTINUOUS
 10
14.4696132021
 20
5.3788747154
 40
0.02725
100
AcDbArc
 50
90.0
 51
167.0
  0
ARC
  5
2E6
100
AcDbEntity
  8
0
100
AcDbCircle
 62
7
  6
CONTINUOUS
 10
14.6510973118
 20
5.3788747154
 40
0.02725
100
AcDbArc
 50
13.0
 51
90.0
  0
ARC
  5
2E7
100
AcDbEntity
  8
0
100
AcDbCircle
 62
7
  6
CONTINUOUS
 10
14.9696132021
 20
5.3788747154
 40
0.02725
100
AcDbArc
 50
90.0
 51
167.0
  0
ARC
  5
2E8
100
AcDbEntity
  8
0
100
AcDbCircle
 62
7
  6
CONTINUOUS
 10
15.1510973118
 20
5.3788747154
 40
0.02725
100
AcDbArc
 50
13.0
 51
90.0
  0
ARC
  5
2E9
100
AcDbEntity
  8
0
100
AcDbCircle
 62
7
  6
CONTINUOUS
 10
15.4696132021
 20
5.3788747154
 40
0.02725
100
AcDbArc
 50
90.0
 51
167.0
  0
ARC
  5
2EA
100
AcDbEntity
  8
0
100
AcDbCircle
 62
7
  6
CONTINUOUS
 10
17.4010973118
 20
5.3243747154
 40
0.02725
100
AcDbArc
 50
270.0
 51
347.0
  0
ARC
  5
2EB
100
AcDbEntity
  8
0
100
AcDbCircle
 62
7
  6
CONTINUOUS
 10
17.2196132021
 20
5.3243747154
 40
0.02725
100
AcDbArc
 50
193.0
 51
270.0
  0
ARC
  5
2EC
100
AcDbEntity
  8
0
100
AcDbCircle
 62
7
  6
CONTINUOUS
 10
16.9010973118
 20
5.3243747154
 40
0.02725
100
AcDbArc
 50
270.0
 51
347.0
  0
ARC
  5
2ED
100
AcDbEntity
  8
0
100
AcDbCircle
 62
7
  6
CONTINUOUS
 10
16.7196132021
 20
5.3243747154
 40
0.02725
100
AcDbArc
 50
193.0
 51
270.0
  0
ARC
  5
2EE
100
AcDbEntity
  8
0
100
AcDbCircle
 62
7
  6
CONTINUOUS
 10
16.4010973118
 20
5.3243747154
 40
0.02725
100
AcDbArc
 50
270.0
 51
347.0
  0
ARC
  5
2EF
100
AcDbEntity
  8
0
100
AcDbCircle
 62
7
  6
CONTINUOUS
 10
16.2196132021
 20
5.3243747154
 40
0.02725
100
AcDbArc
 50
193.0
 51
270.0
  0
ARC
  5
2F0
100
AcDbEntity
  8
0
100
AcDbCircle
 62
7
  6
CONTINUOUS
 10
15.9010973118
 20
5.3243747154
 40
0.02725
100
AcDbArc
 50
270.0
 51
347.0
  0
ARC
  5
2F1
100
AcDbEntity
  8
0
100
AcDbCircle
 62
7
  6
CONTINUOUS
 10
15.7196132021
 20
5.3243747154
 40
0.02725
100
AcDbArc
 50
193.0
 51
270.0
  0
ARC
  5
2F2
100
AcDbEntity
  8
0
100
AcDbCircle
 62
7
  6
CONTINUOUS
 10
17.4696132021
 20
5.3788747154
 40
0.02725
100
AcDbArc
 50
90.0
 51
167.0
  0
ARC
  5
2F3
100
AcDbEntity
  8
0
100
AcDbCircle
 62
7
  6
CONTINUOUS
 10
17.1510973118
 20
5.3788747154
 40
0.02725
100
AcDbArc
 50
13.0
 51
90.0
  0
ARC
  5
2F4
100
AcDbEntity
  8
0
100
AcDbCircle
 62
7
  6
CONTINUOUS
 10
16.9696132021
 20
5.3788747154
 40
0.02725
100
AcDbArc
 50
90.0
 51
167.0
  0
ARC
  5
2F5
100
AcDbEntity
  8
0
100
AcDbCircle
 62
7
  6
CONTINUOUS
 10
16.6510973118
 20
5.3788747154
 40
0.02725
100
AcDbArc
 50
13.0
 51
90.0
  0
ARC
  5
2F6
100
AcDbEntity
  8
0
100
AcDbCircle
 62
7
  6
CONTINUOUS
 10
16.4696132021
 20
5.3788747154
 40
0.02725
100
AcDbArc
 50
90.0
 51
167.0
  0
ARC
  5
2F7
100
AcDbEntity
  8
0
100
AcDbCircle
 62
7
  6
CONTINUOUS
 10
16.1510973118
 20
5.3788747154
 40
0.02725
100
AcDbArc
 50
13.0
 51
90.0
  0
ARC
  5
2F8
100
AcDbEntity
  8
0
100
AcDbCircle
 62
7
  6
CONTINUOUS
 10
15.9696132021
 20
5.3788747154
 40
0.02725
100
AcDbArc
 50
90.0
 51
167.0
  0
ARC
  5
2F9
100
AcDbEntity
  8
0
100
AcDbCircle
 62
7
  6
CONTINUOUS
 10
15.6510973118
 20
5.3788747154
 40
0.02725
100
AcDbArc
 50
13.0
 51
90.0
  0
SPLINE
  5
2FA
100
AcDbEntity
  8
0
100
AcDbSpline
 62
7
  6
CONTINUOUS
 70
0
 71
3
 72
15
 73
11
 74
0
 42
0.0000001
 43
0.0000001
 44
0.0000000001
 40
0.0
 40
0.0
 40
0.0
 40
0.0
 40
0.1295687433
 40
0.2645760193
 40
0.4012660523
 40
0.5362716654
 40
0.6662156585
 40
0.7881007489
 40
0.8998141352
 40
1.0
 40
1.0
 40
1.0
 40
1.0
 10
16.7190518552
 20
14.1452142987
 30
0.0
 10
16.7206001164
 20
14.1452142987
 30
0.0
 10
16.723764072
 20
14.144999066
 30
0.0
 10
16.7284865889
 20
14.1441151797
 30
0.0
 10
16.7331428929
 20
14.1426877259
 30
0.0
 10
16.7375547536
 20
14.1407724054
 30
0.0
 10
16.74156094
 20
14.138443726
 30
0.0
 10
16.7450130237
 20
14.1357823974
 30
0.0
 10
16.747778871
 20
14.1328863457
 30
0.0
 10
16.7491770288
 20
14.1307487736
 30
0.0
 10
16.7497044267
 20
14.1296740495
 30
0.0
  0
SPLINE
  5
2FB
100
AcDbEntity
  8
0
100
AcDbSpline
 62
7
  6
CONTINUOUS
 70
0
 71
3
 72
15
 73
11
 74
0
 42
0.0000001
 43
0.0000001
 44
0.0000000001
 40
0.0
 40
0.0
 40
0.0
 40
0.0
 40
0.0996458766
 40
0.2028718572
 40
0.3125941559
 40
0.4308568269
 40
0.5588146215
 40
0.6968308122
 40
0.844398212
 40
1.0
 40
1.0
 40
1.0
 40
1.0
 10
15.1369886725
 20
14.1370552428
 30
0.0
 10
15.1371787877
 20
14.1376704828
 30
0.0
 10
15.137717429
 20
14.138881424
 30
0.0
 10
15.1389484184
 20
14.1405023669
 30
0.0
 10
15.1405718032
 20
14.1419175345
 30
0.0
 10
15.1425559626
 20
14.1431015954
 30
0.0
 10
15.1448635021
 20
14.1440402274
 30
0.0
 10
15.1474551188
 20
14.1447189494
 30
0.0
 10
15.1502819987
 20
14.1451266139
 30
0.0
 10
15.1522426159
 20
14.1452142987
 30
0.0
 10
15.1532481654
 20
14.1452142987
 30
0.0
  0
SPLINE
  5
2FC
100
AcDbEntity
  8
0
100
AcDbSpline
 62
7
  6
CONTINUOUS
 70
0
 71
3
 72
11
 73
7
 74
0
 42
0.0000001
 43
0.0000001
 44
0.0000000001
 40
0.0
 40
0.0
 40
0.0
 40
0.0
 40
0.233693925
 40
0.4747276226
 40
0.7289543745
 40
1.0
 40
1.0
 40
1.0
 40
1.0
 10
14.1687233789
 20
11.0037476043
 30
0.0
 10
14.1685485243
 20
11.0031817499
 30
0.0
 10
14.1683182134
 20
11.0019896029
 30
0.0
 10
14.1683605098
 20
11.0001303252
 30
0.0
 10
14.168778315
 20
10.9982231486
 30
0.0
 10
14.169279778
 20
10.9969830768
 30
0.0
 10
14.1695823936
 20
10.996366411
 30
0.0
  0
SPLINE
  5
2FD
100
AcDbEntity
  8
0
100
AcDbSpline
 62
7
  6
CONTINUOUS
 70
0
 71
3
 72
9
 73
5
 74
0
 42
0.0000001
 43
0.0000001
 44
0.0000000001
 40
0.0
 40
0.0
 40
0.0
 40
0.0
 40
0.5176005221
 40
1.0
 40
1.0
 40
1.0
 40
1.0
 10
16.7629996003
 20
14.1025813343
 30
0.0
 10
16.764280043
 20
14.0999720663
 30
0.0
 10
16.766381789
 20
14.0947341315
 30
0.0
 10
16.7675035159
 20
14.0891899167
 30
0.0
 10
16.7677562255
 20
14.0864928844
 30
0.0
  0
SPLINE
  5
2FE
100
AcDbEntity
  8
0
100
AcDbSpline
 62
7
  6
CONTINUOUS
 70
0
 71
3
 72
14
 73
10
 74
0
 42
0.0000001
 43
0.0000001
 44
0.0000000001
 40
0.0
 40
0.0
 40
0.0
 40
0.0
 40
0.1556295647
 40
0.3032650679
 40
0.5688238093
 40
0.6871315791
 40
0.7968672533
 40
0.9001625059
 40
1.0
 40
1.0
 40
1.0
 40
1.0
 10
15.7890171733
 20
10.8763956871
 30
0.0
 10
15.7900223254
 20
10.8763956871
 30
0.0
 10
15.7919833146
 20
10.8764835027
 30
0.0
 10
15.7956211658
 20
10.8770081903
 30
0.0
 10
15.7989417645
 20
10.878052275
 30
0.0
 10
15.8016919975
 20
10.8796909068
 30
0.0
 10
15.8033158415
 20
10.8811052558
 30
0.0
 10
15.8045472731
 20
10.8827266777
 30
0.0
 10
15.8050855821
 20
10.8839388935
 30
0.0
 10
15.8052754502
 20
10.8845551184
 30
0.0
  0
SPLINE
  5
2FF
100
AcDbEntity
  8
0
100
AcDbSpline
 62
7
  6
CONTINUOUS
 70
0
 71
3
 72
15
 73
11
 74
0
 42
0.0000001
 43
0.0000001
 44
0.0000000001
 40
0.0
 40
0.0
 40
0.0
 40
0.0
 40
0.1102071887
 40
0.228722582
 40
0.3536319739
 40
0.4829519736
 40
0.6145656338
 40
0.7462245497
 40
0.8755867235
 40
1.0
 40
1.0
 40
1.0
 40
1.0
 10
14.2518563183
 20
10.8879138239
 30
0.0
 10
14.2526116527
 20
10.8870629906
 30
0.0
 10
14.2543142782
 20
10.8854148687
 30
0.0
 10
14.257231645
 20
10.8832079164
 30
0.0
 10
14.2605427185
 20
10.881233135
 30
0.0
 10
14.2641544809
 20
10.8795388275
 30
0.0
 10
14.2679759143
 20
10.8781710247
 30
0.0
 10
14.2719080011
 20
10.8771619827
 30
0.0
 10
14.2758447797
 20
10.8765447009
 30
0.0
 10
14.2784661178
 20
10.8763956871
 30
0.0
 10
14.2797505139
 20
10.8763956871
 30
0.0
  0
SPLINE
  5
300
100
AcDbEntity
  8
0
100
AcDbSpline
 62
7
  6
CONTINUOUS
 70
0
 71
3
 72
9
 73
5
 74
0
 42
0.0000001
 43
0.0000001
 44
0.0000000001
 40
0.0
 40
0.0
 40
0.0
 40
0.0
 40
0.481356815
 40
1.0
 40
1.0
 40
1.0
 40
1.0
 10
14.1828775672
 20
10.9692736958
 30
0.0
 10
14.1842596513
 20
10.9664573043
 30
0.0
 10
14.1876066766
 20
10.9608339576
 30
0.0
 10
14.191666956
 20
10.9557130903
 30
0.0
 10
14.1939110709
 20
10.9531852459
 30
0.0
  0
SPLINE
  5
301
100
AcDbEntity
  8
0
100
AcDbSpline
 62
7
  6
CONTINUOUS
 70
0
 71
3
 72
9
 73
5
 74
0
 42
0.0000001
 43
0.0000001
 44
0.0000000001
 40
0.0
 40
0.0
 40
0.0
 40
0.0
 40
0.4823994779
 40
1.0
 40
1.0
 40
1.0
 40
1.0
 10
15.7994909319
 20
10.9531852459
 30
0.0
 10
15.7992382223
 20
10.9558822782
 30
0.0
 10
15.7981164953
 20
10.961426493
 30
0.0
 10
15.7960147494
 20
10.9666644278
 30
0.0
 10
15.7947343067
 20
10.9692736958
 30
0.0
  0
SPLINE
  5
302
100
AcDbEntity
  8
0
100
AcDbSpline
 62
7
  6
CONTINUOUS
 70
0
 71
3
 72
15
 73
11
 74
0
 42
0.0000001
 43
0.0000001
 44
0.0000000001
 40
0.0
 40
0.0
 40
0.0
 40
0.0
 40
0.1001858648
 40
0.2118992511
 40
0.3337843415
 40
0.4637283346
 40
0.5987339477
 40
0.7354239807
 40
0.8704312567
 40
1.0
 40
1.0
 40
1.0
 40
1.0
 10
15.7814391331
 20
10.996366411
 30
0.0
 10
15.7809117351
 20
10.997441135
 30
0.0
 10
15.7795135774
 20
10.9995787072
 30
0.0
 10
15.7767477301
 20
11.0024747589
 30
0.0
 10
15.7732956464
 20
11.0051360875
 30
0.0
 10
15.76928946
 20
11.0074647669
 30
0.0
 10
15.7648775993
 20
11.0093800874
 30
0.0
 10
15.7602212952
 20
11.0108075412
 30
0.0
 10
15.7554987783
 20
11.0116914274
 30
0.0
 10
15.7523348228
 20
11.0119066602
 30
0.0
 10
15.7507865616
 20
11.0119066602
 30
0.0
  0
SPLINE
  5
303
100
AcDbEntity
  8
0
100
AcDbSpline
 62
7
  6
CONTINUOUS
 70
0
 71
3
 72
15
 73
11
 74
0
 42
0.0000001
 43
0.0000001
 44
0.0000000001
 40
0.0
 40
0.0
 40
0.0
 40
0.0
 40
0.155601788
 40
0.3031691878
 40
0.4411853785
 40
0.5691431731
 40
0.6874058441
 40
0.7971281428
 40
0.9003541234
 40
1.0
 40
1.0
 40
1.0
 40
1.0
 10
14.1849828718
 20
11.0119066602
 30
0.0
 10
14.1839773223
 20
11.0119066602
 30
0.0
 10
14.1820167051
 20
11.0118189753
 30
0.0
 10
14.1791898252
 20
11.0114113108
 30
0.0
 10
14.1765982085
 20
11.0107325889
 30
0.0
 10
14.174290669
 20
11.0097939569
 30
0.0
 10
14.1723065095
 20
11.008609896
 30
0.0
 10
14.1706831248
 20
11.0071947284
 30
0.0
 10
14.1694521354
 20
11.0055737855
 30
0.0
 10
14.1689134941
 20
11.0043628443
 30
0.0
 10
14.1687233789
 20
11.0037476043
 30
0.0
  0
ENDSEC
  0
SECTION
  2
OBJECTS
  0
DICTIONARY
  5
C
100
AcDbDictionary
280
0
281
1
  3
ACAD_GROUP
350
D
  3
ACAD_MLINESTYLE
350
17
  3
ACAD_LAYOUT
350
1A
  3
ACAD_PLOTSETTINGS
350
19
  3
ACAD_PLOTSTYLENAME
350
E
  0
DICTIONARY
  5
D
102
{ACAD_REACTORS
330
C
102
}
100
AcDbDictionary
280
0
281
1
  0
ACDBDICTIONARYWDFLT
  5
E
102
{ACAD_REACTORS
330
C
102
}
100
AcDbDictionary
281
1
  3
Normal
350
F
100
AcDbDictionaryWithDefault
340
F
  0
DICTIONARY
  5
17
102
{ACAD_REACTORS
330
C
102
}
100
AcDbDictionary
280
0
281
1
  3
Standard
350
18
  0
DICTIONARY
  5
19
102
{ACAD_REACTORS
330
C
102
}
100
AcDbDictionary
281
1
  0
DICTIONARY
  5
1A
102
{ACAD_REACTORS
330
C
102
}
100
AcDbDictionary
281
1
  3
Model
350
304
  3
Layout1
350
305
  0
ACDBPLACEHOLDER
  5
F
102
{ACAD_REACTORS
330
E
102
}
  0
MLINESTYLE
  5
18
102
{ACAD_REACTORS
330
17
102
}
100
AcDbMlineStyle
  2
STANDARD
 70
0
  3

 62
256
 51
90.0
 52
90.0
 71
2
 49
0.5
 62
256
  6
BYLAYER
 49
-0.5
 62
256
  6
BYLAYER
  0
LAYOUT
  5
304
102
{ACAD_REACTORS
330
1A
102
}
100
AcDbPlotSettings
  1

  2
none_device
  4
ANSI_C_(22.00_x_17.00_Inches)
  6

 40
0.0
 41
0.0
 42
0.0
 43
0.0
 44
558.8
 45
431.8
 46
0.0
 47
0.0
 48
0.0
 49
0.0
140
0.0
141
0.0
142
1.0
143
1.0
 70
1024
 72
0
 73
0
 74
0
  7

 75
0
147
1.0
148
0.0
149
0.0
100
AcDbLayout
  1
Model
 70
0
 71
0
 10
0.0
 20
0.0
 11
22.0
 21
17.0
 12
0.0
 22
0.0
 32
0.0
 14
0.0
 24
0.0
 34
0.0
 15
0.0
 25
0.0
 35
0.0
146
0.0
 13
0.0
 23
0.0
 33
0.0
 16
1.0
 26
0.0
 36
0.0
 17
0.0
 27
1.0
 37
0.0
 76
0
330
216
345
0
346
0
  0
LAYOUT
  5
305
102
{ACAD_REACTORS
330
1A
102
}
100
AcDbPlotSettings
  1

  2
none_device
  4
ANSI_C_(22.00_x_17.00_Inches)
  6

 40
0.0
 41
0.0
 42
0.0
 43
0.0
 44
558.8
 45
431.8
 46
0.0
 47
0.0
 48
0.0
 49
0.0
140
0.0
141
0.0
142
1.0
143
1.0
 70
0
 72
0
 73
0
 74
0
  7

 75
0
147
1.0
148
0.0
149
0.0
100
AcDbLayout
  1
Layout1
 70
0
 71
1
 10
0.0
 20
0.0
 11
22.0
 21
17.0
 12
0.0
 22
0.0
 32
0.0
 14
0.0
 24
0.0
 34
0.0
 15
0.0
 25
0.0
 35
0.0
146
0.0
 13
0.0
 23
0.0
 33
0.0
 16
1.0
 26
0.0
 36
0.0
 17
0.0
 27
1.0
 37
0.0
 76
0
330
217
345
0
346
0
  0
ENDSEC
  0
EOF