999
DXF file: _cgs_temp_output.dxf
999
Pro/ENGINEER 2016360 by Parametric Technology Corporation
  0
SECTION
  2
HEADER
  9
$ACADVER
  1
AC1021
  9
$DWGCODEPAGE
  3
ANSI_1252
  9
$EXTMAX
 10
22.0
 20
17.0
 30
0.0
  9
$EXTMIN
 10
0.0
 20
0.0
 30
0.0
  9
$LIMMIN
 10
0.0
 20
0.0
  9
$LIMMAX
 10
22.0
 20
17.0
  9
$VIEWCTR
 10
11.0
 20
8.5
  9
$VIEWSIZE
 40
17.0
  9
$CLAYER
  8
0
  9
$LTSCALE
 40
1.21
  9
$CELTYPE
  6
BYLAYER
  9
$DIMSCALE
 40
1.0
  9
$DIMASZ
 40
0.1875
  9
$DIMEXO
 40
0.0625
  9
$DIMDLI
 40
0.836
  9
$DIMEXE
 40
0.125
  9
$DIMCEN
 40
0.198
  9
$DIMLFAC
 40
1.0
  9
$DIMBLK
  1
_CLOSED
  9
$DIMALT
 70
0
  9
$DIMALTF
 40
25.4
  9
$DIMTXT
 40
0.15625
  9
$DIMTOL
 70
0
  9
$DIMLIM
 70
0
  9
$DIMTFAC
 40
1.0
  9
$DIMGAP
 40
0.09
  9
$DIMDSEP
 70
46
  9
$AUNITS
 70
0
  9
$PDMODE
 70
3
  9
$PDSIZE
 40
0.3125
  9
$HANDSEED
  5
306
  9
$TILEMODE
 70
1
  9
$MEASUREMENT
 70
0
  9
$INSUNITS
 70
1
  0
ENDSEC
  0
SECTION
  2
CLASSES
  0
CLASS
  1
ACDBDICTIONARYWDFLT
  2
AcDbDictionaryWithDefault
  3
AutoCAD 2000
 90
0
 91
1
280
0
281
0
  0
CLASS
  1
ACDBPLACEHOLDER
  2
AcDbPlaceHolder
  3
AutoCAD 2000
 90
0
 91
1
280
0
281
0
  0
CLASS
  1
LAYOUT
  2
AcDbLayout
  3
AutoCAD 2000
 90
0
 91
0
280
0
281
0
  0
ENDSEC
  0
SECTION
  2
TABLES
  0
TABLE
  2
VPORT
  5
8
100
AcDbSymbolTable
 70
2
  0
VPORT
  5
1F4
100
AcDbSymbolTableRecord
100
AcDbViewportTableRecord
  2
*ACTIVE
 70
0
 10
0.0
 20
0.0
 11
1.0
 21
1.0
 12
11.0
 22
8.5
 13
0.0
 23
0.0
 14
1.0
 24
1.0
 15
0.0
 25
0.0
 16
0.0
 26
0.0
 36
1.0
 17
0.0
 27
0.0
 37
0.0
 40
17.0
 41
1.2941176471
 42
50.0
 43
0.0
 44
0.0
 50
0.0
 51
0.0
 71
0
 72
100
 73
1
 74
1
 75
0
 76
0
 77
0
 78
0
  0
ENDTAB
  0
TABLE
  2
LTYPE
  5
5
100
AcDbSymbolTable
 70
6
  0
LTYPE
  5
14
100
AcDbSymbolTableRecord
100
AcDbLinetypeTableRecord
  2
BYBLOCK
 70
0
  3

 72
65
 73
0
 40
0.0
  0
LTYPE
  5
15
100
AcDbSymbolTableRecord
100
AcDbLinetypeTableRecord
  2
BYLAYER
 70
0
  3

 72
65
 73
0
 40
0.0
  0
LTYPE
  5
16
100
AcDbSymbolTableRecord
100
AcDbLinetypeTableRecord
  2
CONTINUOUS
 70
64
  3
Solid line
 72
65
 73
0
 40
0.0
  0
LTYPE
  5
1F5
100
AcDbSymbolTableRecord
100
AcDbLinetypeTableRecord
  2
CENTER
 70
64
  3
____ _ ____ _ ____ _ ____ _ ____ _ ____ _ ____
 72
65
 73
4
 40
0.6
 49
0.375
 74
0
 49
-0.075
 74
0
 49
0.075
 74
0
 49
-0.075
 74
0
  0
LTYPE
  5
1F6
100
AcDbSymbolTableRecord
100
AcDbLinetypeTableRecord
  2
HIDDEN
 70
64
  3
- - - - - - - - - - - - - - - - - - - -
 72
65
 73
2
 40
0.2
 49
0.1
 74
0
 49
-0.1
 74
0
  0
LTYPE
  5
1F7
100
AcDbSymbolTableRecord
100
AcDbLinetypeTableRecord
  2
PHANTOM
 70
64
  3
_____ _ _ _____ _ _ _____ _ _ _____
 72
65
 73
6
 40
0.8
 49
0.45
 74
0
 49
-0.05
 74
0
 49
0.1
 74
0
 49
-0.05
 74
0
 49
0.1
 74
0
 49
-0.05
 74
0
  0
LTYPE
  5
1F8
100
AcDbSymbolTableRecord
100
AcDbLinetypeTableRecord
  2
DOT
 70
64
  3
. . . . . . . . . . . . . . . . . . . .
 72
65
 73
2
 40
0.2
 49
0.1
 74
0
 49
-0.1
 74
0
  0
LTYPE
  5
1F9
100
AcDbSymbolTableRecord
100
AcDbLinetypeTableRecord
  2
DASHED
 70
64
  3
- - - - - - - - - - - - - - - - - - - -
 72
65
 73
2
 40
0.2
 49
0.1
 74
0
 49
-0.1
 74
0
  0
ENDTAB
  0
TABLE
  2
LAYER
  5
2
100
AcDbSymbolTable
 70
36
  0
LAYER
  5
10
100
AcDbSymbolTableRecord
100
AcDbLayerTableRecord
  2
0
 70
0
 62
7
  6
CONTINUOUS
370
-3
390
F
  0
LAYER
  5
1FA
100
AcDbSymbolTableRecord
100
AcDbLayerTableRecord
  2
DEFAULT_1
 70
0
 62
7
  6
CENTER
370
-3
390
F
  0
LAYER
  5
1FB
100
AcDbSymbolTableRecord
100
AcDbLayerTableRecord
  2
DEFAULT_2
 70
0
 62
8
  6
HIDDEN
370
-3
390
F
  0
LAYER
  5
1FC
100
AcDbSymbolTableRecord
100
AcDbLayerTableRecord
  2
DEFAULT_3
 70
0
 62
7
  6
PHANTOM
370
-3
390
F
  0
LAYER
  5
1FD
100
AcDbSymbolTableRecord
100
AcDbLayerTableRecord
  2
01_ALL_DTM_PLN
 70
0
 62
7
  6
CONTINUOUS
370
-3
390
F
  0
LAYER
  5
1FE
100
AcDbSymbolTableRecord
100
AcDbLayerTableRecord
  2
01__ASM_ALL_DTM_PLN
 70
0
 62
7
  6
CONTINUOUS
370
-3
390
F
  0
LAYER
  5
1FF
100
AcDbSymbolTableRecord
100
AcDbLayerTableRecord
  2
01__ASM_DEF_DTM_PLN
 70
0
 62
7
  6
CONTINUOUS
370
-3
390
F
  0
LAYER
  5
200
100
AcDbSymbolTableRecord
100
AcDbLayerTableRecord
  2
01___PRT_ALL_DTM_PLN
 70
0
 62
7
  6
CONTINUOUS
370
-3
390
F
  0
LAYER
  5
201
100
AcDbSymbolTableRecord
100
AcDbLayerTableRecord
  2
01___PRT_DEF_DTM_PLN
 70
0
 62
7
  6
CONTINUOUS
370
-3
390
F
  0
LAYER
  5
202
100
AcDbSymbolTableRecord
100
AcDbLayerTableRecord
  2
02_ALL_AXES
 70
0
 62
7
  6
CONTINUOUS
370
-3
390
F
  0
LAYER
  5
203
100
AcDbSymbolTableRecord
100
AcDbLayerTableRecord
  2
02__ASM_ALL_AXES
 70
0
 62
7
  6
CONTINUOUS
370
-3
390
F
  0
LAYER
  5
204
100
AcDbSymbolTableRecord
100
AcDbLayerTableRecord
  2
02___PRT_ALL_AXES
 70
0
 62
7
  6
CONTINUOUS
370
-3
390
F
  0
LAYER
  5
205
100
AcDbSymbolTableRecord
100
AcDbLayerTableRecord
  2
03_ALL_CURVES
 70
0
 62
7
  6
CONTINUOUS
370
-3
390
F
  0
LAYER
  5
206
100
AcDbSymbolTableRecord
100
AcDbLayerTableRecord
  2
03__ASM_ALL_CURVES
 70
0
 62
7
  6
CONTINUOUS
370
-3
390
F
  0
LAYER
  5
207
100
AcDbSymbolTableRecord
100
AcDbLayerTableRecord
  2
03___PRT_ALL_CURVES
 70
0
 62
7
  6
CONTINUOUS
370
-3
390
F
  0
LAYER
  5
208
100
AcDbSymbolTableRecord
100
AcDbLayerTableRecord
  2
04_ALL_DTM_PNT
 70
0
 62
7
  6
CONTINUOUS
370
-3
390
F
  0
LAYER
  5
209
100
AcDbSymbolTableRecord
100
AcDbLayerTableRecord
  2
04__ASM_ALL_DTM_PNT
 70
0
 62
7
  6
CONTINUOUS
370
-3
390
F
  0
LAYER
  5
20A
100
AcDbSymbolTableRecord
100
AcDbLayerTableRecord
  2
04___PRT_ALL_DTM_PNT
 70
0
 62
7
  6
CONTINUOUS
370
-3
390
F
  0
LAYER
  5
20B
100
AcDbSymbolTableRecord
100
AcDbLayerTableRecord
  2
05_ALL_DTM_CSYS
 70
0
 62
7
  6
CONTINUOUS
370
-3
390
F
  0
LAYER
  5
20C
100
AcDbSymbolTableRecord
100
AcDbLayerTableRecord
  2
05__ASM_ALL_DTM_CSYS
 70
0
 62
7
  6
CONTINUOUS
370
-3
390
F
  0
LAYER
  5
20D
100
AcDbSymbolTableRecord
100
AcDbLayerTableRecord
  2
05__ASM_DEF_DTM_CSYS
 70
0
 62
7
  6
CONTINUOUS
370
-3
390
F
  0
LAYER
  5
20E
100
AcDbSymbolTableRecord
100
AcDbLayerTableRecord
  2
05___PRT_ALL_DTM_CSYS
 70
0
 62
7
  6
CONTINUOUS
370
-3
390
F
  0
LAYER
  5
20F
100
AcDbSymbolTableRecord
100
AcDbLayerTableRecord
  2
05___PRT_DEF_DTM_CSYS
 70
0
 62
7
  6
CONTINUOUS
370
-3
390
F
  0
LAYER
  5
210
100
AcDbSymbolTableRecord
100
AcDbLayerTableRecord
  2
06_ALL_SURFS
 70
0
 62
7
  6
CONTINUOUS
370
-3
390
F
  0
LAYER
  5
211
100
AcDbSymbolTableRecord
100
AcDbLayerTableRecord
  2
06__ASM_ALL_SURFS
 70
0
 62
7
  6
CONTINUOUS
370
-3
390
F
  0
LAYER
  5
212
100
AcDbSymbolTableRecord
100
AcDbLayerTableRecord
  2
06___PRT_ALL_SURFS
 70
0
 62
7
  6
CONTINUOUS
370
-3
390
F
  0
LAYER
  5
213
100
AcDbSymbolTableRecord
100
AcDbLayerTableRecord
  2
07__ASM_ALL_SKELETONS
 70
0
 62
7
  6
CONTINUOUS
370
-3
390
F
  0
ENDTAB
  0
TABLE
  2
STYLE
  5
3
100
AcDbSymbolTable
 70
1
  0
STYLE
  5
11
100
AcDbSymbolTableRecord
100
AcDbTextStyleTableRecord
  2
STANDARD
 70
0
 40
0.0
 41
0.8
 50
0.0
 71
0
 42
0.2
  3
txt
  4

  0
STYLE
  5
214
100
AcDbSymbolTableRecord
100
AcDbTextStyleTableRecord
  2
TEXTSTYLE_1
 70
0
 40
0.0
 41
0.8
 50
0.0
 71
0
 42
0.2
  3
gdt
  4

  0
ENDTAB
  0
TABLE
  2
VIEW
  5
6
100
AcDbSymbolTable
 70
0
  0
ENDTAB
  0
TABLE
  2
UCS
  5
7
100
AcDbSymbolTable
 70
0
  0
ENDTAB
  0
TABLE
  2
APPID
  5
9
100
AcDbSymbolTable
 70
1
  0
APPID
  5
215
100
AcDbSymbolTableRecord
100
AcDbRegAppTableRecord
  2
ACAD
 70
0
  0
ENDTAB
  0
TABLE
  2
BLOCK_RECORD
  5
1
100
AcDbSymbolTable
 70
0
  0
BLOCK_RECORD
  5
216
100
AcDbSymbolTableRecord
100
AcDbBlockTableRecord
  2
*Model_Space
  0
BLOCK_RECORD
  5
217
100
AcDbSymbolTableRecord
100
AcDbBlockTableRecord
  2
*Paper_Space
  0
ENDTAB
  0
TABLE
  2
DIMSTYLE
  5
A
100
AcDbSymbolTable
 70
1
100
AcDbDimStyleTable
 71
0
  0
DIMSTYLE
105
218
100
AcDbSymbolTableRecord
100
AcDbDimStyleTableRecord
  2
STANDARD
 70
0
  3

  4

 40
1.0
 41
0.1875
 42
0.0625
 43
0.38
 44
0.125
 45
0.0
 46
0.0
 47
0.0001
 48
0.0001
140
0.15625
141
0.09
142
0.0
143
25.4
144
1.0
145
0.0
146
1.0
147
0.09
 71
0.0
 72
0.0
 73
1
 74
1
 75
0
 76
0
 77
0
 78
4
 79
1
170
0
171
3
172
0
173
0
174
0
175
0
176
0
177
0
178
0
270
2
179
4
271
4
272
4
273
2
274
2
275
0
280
0
281
0
282
0
283
1
284
4
285
0
286
0
287
3
288
0
340
11
278
46
  0
ENDTAB
  0
ENDSEC
  0
SECTION
  2
BLOCKS
  0
BLOCK
  5
20
100
AcDbEntity
  8
0
100
AcDbBlockBegin
  2
*Model_Space
 70
0
 10
0.0
 20
0.0
 30
0.0
  3
*Model_Space
  1

  0
ENDBLK
  5
21
100
AcDbEntity
  8
0
100
AcDbBlockEnd
  0
BLOCK
  5
1C
100
AcDbEntity
  8
0
100
AcDbBlockBegin
  2
*Paper_Space
 70
0
 10
0.0
 20
0.0
 30
0.0
  3
*Paper_Space
  1

  0
ENDBLK
  5
1D
100
AcDbEntity
  8
0
100
AcDbBlockEnd
  0
ENDSEC
  0
SECTION
  2
ENTITIES
  0
MTEXT
  5
219
100
AcDbEntity
  8
0
100
AcDbMText
 62
7
  6
CONTINUOUS
  7
STANDARD
 71
1
 72
1
 10
15.9560215477
 20
0.9479130325
 30
0.0
 11
1.0
 21
0.0
 31
0.0
 44
0.9
  1
SCALE: 1:1.000
 40
0.3
 41
3.36
  0
LINE
  5
21A
100
AcDbEntity
  8
0
100
AcDbLine
 62
7
  6
CONTINUOUS
 10
0.0
 20
0.0
 11
0.0
 21
17.0
  0
LINE
  5
21B
100
AcDbEntity
  8
0
100
AcDbLine
 62
7
  6
CONTINUOUS
 10
0.0
 20
0.0
 11
22.0
 21
0.0
  0
LINE
  5
21C
100
AcDbEntity
  8
0
100
AcDbLine
 62
7
  6
CONTINUOUS
 10
0.0
 20
17.0
 11
22.0
 21
17.0
  0
LINE
  5
21D
100
AcDbEntity
  8
0
100
AcDbLine
 62
7
  6
CONTINUOUS
 10
22.0
 20
0.0
 11
22.0
 21
17.0
  0
LINE
  5
21E
100
AcDbEntity
  8
0
100
AcDbLine
 62
7
  6
CONTINUOUS
 10
5.2241172762
 20
5.7486198977
 11
5.2241172762
 21
5.6582634585
  0
LINE
  5
21F
100
AcDbEntity
  8
0
100
AcDbLine
 62
7
  6
CONTINUOUS
 10
5.3074315521
 20
5.2859961213
 11
5.2266802697
 21
5.6357683531
  0
LINE
  5
220
100
AcDbEntity
  8
0
100
AcDbLine
 62
7
  6
CONTINUOUS
 10
5.3317908038
 20
5.2666198977
 11
6.9289437486
 21
5.2666198977
  0
LINE
  5
221
100
AcDbEntity
  8
0
100
AcDbLine
 62
7
  6
CONTINUOUS
 10
5.2927740795
 20
5.4356198977
 11
6.9679604729
 21
5.4356198977
  0
LINE
  5
222
100
AcDbEntity
  8
0
100
AcDbLine
 62
7
  6
CONTINUOUS
 10
7.0116172762
 20
5.7736198977
 11
5.2491172762
 21
5.7736198977
  0
LINE
  5
223
100
AcDbEntity
  8
0
100
AcDbLine
 62
7
  6
CONTINUOUS
 10
7.0366172762
 20
5.6582634585
 11
7.0366172762
 21
5.7486198977
  0
LINE
  5
224
100
AcDbEntity
  8
0
100
AcDbLine
 62
7
  6
CONTINUOUS
 10
6.9533030002
 20
5.2859961213
 11
7.0340542826
 21
5.6357683531
  0
LINE
  5
225
100
AcDbEntity
  8
0
100
AcDbLine
 62
7
  6
CONTINUOUS
 10
6.9771220839
 20
10.6000477814
 11
5.1646220839
 21
10.6000477814
  0
LINE
  5
226
100
AcDbEntity
  8
0
100
AcDbLine
 62
7
  6
CONTINUOUS
 10
5.1646220839
 20
10.6000477814
 11
5.1646220839
 21
14.6000477814
  0
LINE
  5
227
100
AcDbEntity
  8
0
100
AcDbLine
 62
7
  6
CONTINUOUS
 10
6.9771220839
 20
10.6000477814
 11
6.9771220839
 21
14.6000477814
  0
LINE
  5
228
100
AcDbEntity
  8
0
100
AcDbLine
 62
7
  6
CONTINUOUS
 10
5.1646220839
 20
14.6000477814
 11
6.9771220839
 21
14.6000477814
  0
LINE
  5
229
100
AcDbEntity
  8
0
100
AcDbLine
 62
7
  6
CONTINUOUS
 10
13.5603552569
 20
5.3761247054
 11
13.5603552569
 21
5.7141247054
  0
LINE
  5
22A
100
AcDbEntity
  8
0
100
AcDbLine
 62
7
  6
CONTINUOUS
 10
13.6734068625
 20
5.3433788874
 11
13.6973036513
 21
5.2398705233
  0
LINE
  5
22B
100
AcDbEntity
  8
0
100
AcDbLine
 62
7
  6
CONTINUOUS
 10
13.9234068625
 20
5.2398705233
 11
13.9473036513
 21
5.3433788874
  0
LINE
  5
22C
100
AcDbEntity
  8
0
100
AcDbLine
 62
7
  6
CONTINUOUS
 10
14.1734068625
 20
5.3433788874
 11
14.1973036513
 21
5.2398705233
  0
LINE
  5
22D
100
AcDbEntity
  8
0
100
AcDbLine
 62
7
  6
CONTINUOUS
 10
14.4234068625
 20
5.2398705233
 11
14.4473036513
 21
5.3433788874
  0
LINE
  5
22E
100
AcDbEntity
  8
0
100
AcDbLine
 62
7
  6
CONTINUOUS
 10
14.6734068625
 20
5.3433788874
 11
14.6973036513
 21
5.2398705233
  0
LINE
  5
22F
100
AcDbEntity
  8
0
100
AcDbLine
 62
7
  6
CONTINUOUS
 10
14.9234068625
 20
5.2398705233
 11
14.9473036513
 21
5.3433788874
  0
LINE
  5
230
100
AcDbEntity
  8
0
100
AcDbLine
 62
7
  6
CONTINUOUS
 10
15.1734068625
 20
5.3433788874
 11
15.1973036513
 21
5.2398705233
  0
LINE
  5
231
100
AcDbEntity
  8
0
100
AcDbLine
 62
7
  6
CONTINUOUS
 10
13.7384707866
 20
5.2071247054
 11
13.8822397273
 21
5.2071247054
  0
LINE
  5
232
100
AcDbEntity
  8
0
100
AcDbLine
 62
7
  6
CONTINUOUS
 10
14.2384707866
 20
5.2071247054
 11
14.3822397273
 21
5.2071247054
  0
LINE
  5
233
100
AcDbEntity
  8
0
100
AcDbLine
 62
7
  6
CONTINUOUS
 10
14.7384707866
 20
5.2071247054
 11
14.8822397273
 21
5.2071247054
  0
LINE
  5
234
100
AcDbEntity
  8
0
100
AcDbLine
 62
7
  6
CONTINUOUS
 10
15.2384707866
 20
5.2071247054
 11
15.3822397273
 21
5.2071247054
  0
LINE
  5
235
100
AcDbEntity
  8
0
100
AcDbLine
 62
7
  6
CONTINUOUS
 10
15.7384707866
 20
5.2071247054
 11
15.8822397273
 21
5.2071247054
  0
LINE
  5
236
100
AcDbEntity
  8
0
100
AcDbLine
 62
7
  6
CONTINUOUS
 10
16.2384707866
 20
5.2071247054
 11
16.3822397273
 21
5.2071247054
  0
LINE
  5
237
100
AcDbEntity
  8
0
100
AcDbLine
 62
7
  6
CONTINUOUS
 10
16.7384707866
 20
5.2071247054
 11
16.8822397273
 21
5.2071247054
  0
LINE
  5
238
100
AcDbEntity
  8
0
100
AcDbLine
 62
7
  6
CONTINUOUS
 10
17.2384707866
 20
5.2071247054
 11
17.3822397273
 21
5.2071247054
  0
LINE
  5
239
100
AcDbEntity
  8
0
100
AcDbLine
 62
7
  6
CONTINUOUS
 10
15.4234068625
 20
5.2398705233
 11
15.4473036513
 21
5.3433788874
  0
LINE
  5
23A
100
AcDbEntity
  8
0
100
AcDbLine
 62
7
  6
CONTINUOUS
 10
13.5603552569
 20
5.3761247054
 11
13.6322397273
 21
5.3761247054
  0
LINE
  5
23B
100
AcDbEntity
  8
0
100
AcDbLine
 62
7
  6
CONTINUOUS
 10
13.9884707866
 20
5.3761247054
 11
14.1322397273
 21
5.3761247054
  0
LINE
  5
23C
100
AcDbEntity
  8
0
100
AcDbLine
 62
7
  6
CONTINUOUS
 10
14.4884707866
 20
5.3761247054
 11
14.6322397273
 21
5.3761247054
  0
LINE
  5
23D
100
AcDbEntity
  8
0
100
AcDbLine
 62
7
  6
CONTINUOUS
 10
14.9884707866
 20
5.3761247054
 11
15.1322397273
 21
5.3761247054
  0
LINE
  5
23E
100
AcDbEntity
  8
0
100
AcDbLine
 62
7
  6
CONTINUOUS
 10
15.4884707866
 20
5.3761247054
 11
15.6322397273
 21
5.3761247054
  0
LINE
  5
23F
100
AcDbEntity
  8
0
100
AcDbLine
 62
7
  6
CONTINUOUS
 10
15.9884707866
 20
5.3761247054
 11
16.1322397273
 21
5.3761247054
  0
LINE
  5
240
100
AcDbEntity
  8
0
100
AcDbLine
 62
7
  6
CONTINUOUS
 10
16.4884707866
 20
5.3761247054
 11
16.6322397273
 21
5.3761247054
  0
LINE
  5
241
100
AcDbEntity
  8
0
100
AcDbLine
 62
7
  6
CONTINUOUS
 10
16.9884707866
 20
5.3761247054
 11
17.1322397273
 21
5.3761247054
  0
LINE
  5
242
100
AcDbEntity
  8
0
100
AcDbLine
 62
7
  6
CONTINUOUS
 10
17.4884707866
 20
5.3761247054
 11
17.5603552569
 21
5.3761247054
  0
LINE
  5
243
100
AcDbEntity
  8
0
100
AcDbLine
 62
7
  6
CONTINUOUS
 10
15.6734068625
 20
5.3433788874
 11
15.6973036513
 21
5.2398705233
  0
LINE
  5
244
100
AcDbEntity
  8
0
100
AcDbLine
 62
7
  6
CONTINUOUS
 10
13.5603552569
 20
5.7141247054
 11
17.5603552569
 21
5.7141247054
  0
LINE
  5
245
100
AcDbEntity
  8
0
100
AcDbLine
 62
7
  6
CONTINUOUS
 10
15.9234068625
 20
5.2398705233
 11
15.9473036513
 21
5.3433788874
  0
LINE
  5
246
100
AcDbEntity
  8
0
100
AcDbLine
 62
7
  6
CONTINUOUS
 10
16.1734068625
 20
5.3433788874
 11
16.1973036513
 21
5.2398705233
  0
LINE
  5
247
100
AcDbEntity
  8
0
100
AcDbLine
 62
7
  6
CONTINUOUS
 10
16.4234068625
 20
5.2398705233
 11
16.4473036513
 21
5.3433788874
  0
LINE
  5
248
100
AcDbEntity
  8
0
100
AcDbLine
 62
7
  6
CONTINUOUS
 10
16.6734068625
 20
5.3433788874
 11
16.6973036513
 21
5.2398705233
  0
LINE
  5
249
100
AcDbEntity
  8
0
100
AcDbLine
 62
7
  6
CONTINUOUS
 10
16.9234068625
 20
5.2398705233
 11
16.9473036513
 21
5.3433788874
  0
LINE
  5
24A
100
AcDbEntity
  8
0
100
AcDbLine
 62
7
  6
CONTINUOUS
 10
17.1734068625
 20
5.3433788874
 11
17.1973036513
 21
5.2398705233
  0
LINE
  5
24B
100
AcDbEntity
  8
0
100
AcDbLine
 62
7
  6
CONTINUOUS
 10
17.5603552569
 20
5.3761247054
 11
17.5603552569
 21
5.7141247054
  0
LINE
  5
24C
100
AcDbEntity
  8
0
100
AcDbLine
 62
7
  6
CONTINUOUS
 10
17.4234068625
 20
5.2398705233
 11
17.4473036513
 21
5.3433788874
  0
LINE
  5
24D
100
AcDbEntity
  8
0
100
AcDbLine
 62
7
  6
CONTINUOUS
 10
14.1652847973
 20
10.963513364
 11
14.25886797
 21
10.8511435428
  0
LINE
  5
24E
100
AcDbEntity
  8
0
100
AcDbLine
 62
7
  6
CONTINUOUS
 10
14.1284996782
 20
11.0336630091
 11
14.156062175
 21
10.9774965458
  0
LWPOLYLINE
  5
24F
100
AcDbEntity
  8
0
100
AcDbPolyline
 62
7
  6
CONTINUOUS
 90
5
 70
0
 10
15.8773940466
 20
10.8575827323
 10
15.8873056934
 20
10.8595507345
 10
15.8950771545
 20
10.8644741049
 10
15.9001814809
 20
10.8705494902
 10
15.9035662846
 20
10.8772217267
  0
LINE
  5
250
100
AcDbEntity
  8
0
100
AcDbLine
 62
7
  6
CONTINUOUS
 10
14.2872148859
 20
10.839099089
 11
15.8301637306
 21
10.839099089
  0
LINE
  5
251
100
AcDbEntity
  8
0
100
AcDbLine
 62
7
  6
CONTINUOUS
 10
15.849613735
 20
10.8575827129
 11
15.8773946156
 21
10.8575827129
  0
LINE
  5
252
100
AcDbEntity
  8
0
100
AcDbLine
 62
7
  6
CONTINUOUS
 10
15.7672701583
 20
11.0492032583
 11
14.1439001563
 21
11.0492032583
  0
LWPOLYLINE
  5
253
100
AcDbEntity
  8
0
100
AcDbPolyline
 62
7
  6
CONTINUOUS
 90
5
 70
0
 10
15.9984272083
 20
11.2492461871
 10
16.0083388551
 20
11.2512141893
 10
16.0161103162
 20
11.2561375597
 10
16.0212146426
 20
11.262212945
 10
16.0245994463
 20
11.2688851815
  0
LINE
  5
254
100
AcDbEntity
  8
0
100
AcDbLine
 62
7
  6
CONTINUOUS
 10
15.9706468967
 20
11.2492461677
 11
15.9984277773
 21
11.2492461677
  0
LINE
  5
255
100
AcDbEntity
  8
0
100
AcDbLine
 62
7
  6
CONTINUOUS
 10
14.1276406819
 20
11.0410441934
 11
15.0959059755
 21
14.1743518319
  0
LWPOLYLINE
  5
256
100
AcDbEntity
  8
0
100
AcDbPolyline
 62
7
  6
CONTINUOUS
 90
5
 70
0
 10
16.11946037
 20
11.6409096419
 10
16.1293720168
 20
11.6428776441
 10
16.1371434779
 20
11.6478010146
 10
16.1422478043
 20
11.6538763998
 10
16.145632608
 20
11.6605486363
  0
LINE
  5
257
100
AcDbEntity
  8
0
100
AcDbLine
 62
7
  6
CONTINUOUS
 10
16.0916800584
 20
11.6409096225
 11
16.119460939
 21
11.6409096225
  0
LWPOLYLINE
  5
258
100
AcDbEntity
  8
0
100
AcDbPolyline
 62
7
  6
CONTINUOUS
 90
5
 70
0
 10
16.2404935317
 20
12.0325730967
 10
16.2504051785
 20
12.0345410989
 10
16.2581766396
 20
12.0394644694
 10
16.263280966
 20
12.0455398546
 10
16.2666657697
 20
12.0522120911
  0
LINE
  5
259
100
AcDbEntity
  8
0
100
AcDbLine
 62
7
  6
CONTINUOUS
 10
16.2127132201
 20
12.0325730774
 11
16.2404941007
 21
12.0325730774
  0
LINE
  5
25A
100
AcDbEntity
  8
0
100
AcDbLine
 62
7
  6
CONTINUOUS
 10
15.8254852266
 20
10.9774965458
 11
15.7979227298
 21
11.0336630091
  0
LWPOLYLINE
  5
25B
100
AcDbEntity
  8
0
100
AcDbPolyline
 62
7
  6
CONTINUOUS
 90
5
 70
0
 10
16.3615266934
 20
12.4242365515
 10
16.3714383402
 20
12.4262045537
 10
16.3792098013
 20
12.4311279242
 10
16.3843141277
 20
12.4372033095
 10
16.3876989314
 20
12.4438755459
  0
LINE
  5
25C
100
AcDbEntity
  8
0
100
AcDbLine
 62
7
  6
CONTINUOUS
 10
16.3337463818
 20
12.4242365322
 11
16.3615272624
 21
12.4242365322
  0
LWPOLYLINE
  5
25D
100
AcDbEntity
  8
0
100
AcDbPolyline
 62
7
  6
CONTINUOUS
 90
5
 70
0
 10
16.4825598551
 20
12.8159000063
 10
16.4924715019
 20
12.8178680085
 10
16.500242963
 20
12.822791379
 10
16.5053472894
 20
12.8288667643
 10
16.5087320931
 20
12.8355390007
  0
LINE
  5
25E
100
AcDbEntity
  8
0
100
AcDbLine
 62
7
  6
CONTINUOUS
 10
15.8466895276
 20
10.8511435428
 11
15.8299865022
 21
10.963513364
  0
LINE
  5
25F
100
AcDbEntity
  8
0
100
AcDbLine
 62
7
  6
CONTINUOUS
 10
16.4547795435
 20
12.815899987
 11
16.4825604241
 21
12.815899987
  0
LINE
  5
260
100
AcDbEntity
  8
0
100
AcDbLine
 62
7
  6
CONTINUOUS
 10
15.9438778237
 20
11.0243411187
 11
15.9400984469
 21
11.1074019469
  0
LWPOLYLINE
  5
261
100
AcDbEntity
  8
0
100
AcDbPolyline
 62
7
  6
CONTINUOUS
 90
6
 70
0
 10
15.9400968565
 20
11.1074260724
 10
15.9399606475
 20
11.1132339323
 10
15.9404698728
 20
11.1279589854
 10
15.9421576969
 20
11.1447335672
 10
15.9448934187
 20
11.1615718013
 10
15.9482886915
 20
11.1764480303
  0
LINE
  5
262
100
AcDbEntity
  8
0
100
AcDbLine
 62
7
  6
CONTINUOUS
 10
16.0649109854
 20
11.4160045736
 11
16.0611316086
 21
11.4990654017
  0
LWPOLYLINE
  5
263
100
AcDbEntity
  8
0
100
AcDbPolyline
 62
7
  6
CONTINUOUS
 90
6
 70
0
 10
16.0611300182
 20
11.4990895272
 10
16.0609938092
 20
11.5048973871
 10
16.0615030345
 20
11.5196224402
 10
16.0631908586
 20
11.5363970221
 10
16.0659265804
 20
11.5532352561
 10
16.0693218532
 20
11.5681114851
  0
LINE
  5
264
100
AcDbEntity
  8
0
100
AcDbLine
 62
7
  6
CONTINUOUS
 10
15.9439225182
 20
11.019353739
 11
15.943875
 21
11.0243994905
  0
LINE
  5
265
100
AcDbEntity
  8
0
100
AcDbLine
 62
7
  6
CONTINUOUS
 10
16.0649556799
 20
11.4110171939
 11
16.0649081617
 21
11.4160629453
  0
LINE
  5
266
100
AcDbEntity
  8
0
100
AcDbLine
 62
7
  6
CONTINUOUS
 10
15.8464214633
 20
10.8472586901
 11
15.8466895276
 21
10.8511435428
  0
LINE
  5
267
100
AcDbEntity
  8
0
100
AcDbLine
 62
7
  6
CONTINUOUS
 10
15.9431077964
 20
11.0091955687
 11
15.9439225182
 21
11.019353739
  0
LINE
  5
268
100
AcDbEntity
  8
0
100
AcDbLine
 62
7
  6
CONTINUOUS
 10
16.7159662685
 20
13.6578691744
 11
16.7165550954
 21
13.6588890049
  0
LWPOLYLINE
  5
269
100
AcDbEntity
  8
0
100
AcDbPolyline
 62
7
  6
CONTINUOUS
 90
5
 70
0
 10
16.6035930168
 20
13.2075634612
 10
16.6135046636
 20
13.2095314634
 10
16.6212761248
 20
13.2144548338
 10
16.6263804511
 20
13.2205302191
 10
16.6297652548
 20
13.2272024556
  0
LINE
  5
26A
100
AcDbEntity
  8
0
100
AcDbLine
 62
7
  6
CONTINUOUS
 10
16.1859441471
 20
11.8076680284
 11
16.1821647703
 21
11.8907288565
  0
LWPOLYLINE
  5
26B
100
AcDbEntity
  8
0
100
AcDbPolyline
 62
7
  6
CONTINUOUS
 90
6
 70
0
 10
16.1821631799
 20
11.890752982
 10
16.1820269709
 20
11.8965608419
 10
16.1825361962
 20
11.911285895
 10
16.1842240203
 20
11.9280604769
 10
16.1869597421
 20
11.9448987109
 10
16.1903550149
 20
11.9597749399
  0
LINE
  5
26C
100
AcDbEntity
  8
0
100
AcDbLine
 62
7
  6
CONTINUOUS
 10
16.1859888416
 20
11.8026806487
 11
16.1859413234
 21
11.8077264001
  0
LINE
  5
26D
100
AcDbEntity
  8
0
100
AcDbLine
 62
7
  6
CONTINUOUS
 10
16.0641409581
 20
11.4008590235
 11
16.0649556799
 21
11.4110171939
  0
LINE
  5
26E
100
AcDbEntity
  8
0
100
AcDbLine
 62
7
  6
CONTINUOUS
 10
16.5949331068
 20
13.2662057196
 11
16.5955219337
 21
13.2672255501
  0
LINE
  5
26F
100
AcDbEntity
  8
0
100
AcDbLine
 62
7
  6
CONTINUOUS
 10
16.4738999451
 20
12.8745422648
 11
16.474488772
 21
12.8755620952
  0
LINE
  5
270
100
AcDbEntity
  8
0
100
AcDbLine
 62
7
  6
CONTINUOUS
 10
16.5758127052
 20
13.2075634418
 11
16.6035935858
 21
13.2075634418
  0
LINE
  5
271
100
AcDbEntity
  8
0
100
AcDbLine
 62
7
  6
CONTINUOUS
 10
16.3069773088
 20
12.1993314832
 11
16.303197932
 21
12.2823923113
  0
LWPOLYLINE
  5
272
100
AcDbEntity
  8
0
100
AcDbPolyline
 62
7
  6
CONTINUOUS
 90
6
 70
0
 10
16.3031963416
 20
12.2824164368
 10
16.3030601326
 20
12.2882242967
 10
16.3035693579
 20
12.3029493498
 10
16.305257182
 20
12.3197239317
 10
16.3079929038
 20
12.3365621657
 10
16.3113881766
 20
12.3514383948
  0
LINE
  5
273
100
AcDbEntity
  8
0
100
AcDbLine
 62
7
  6
CONTINUOUS
 10
16.3070220033
 20
12.1943441035
 11
16.3069744851
 21
12.1993898549
  0
LINE
  5
274
100
AcDbEntity
  8
0
100
AcDbLine
 62
7
  6
CONTINUOUS
 10
16.1851741198
 20
11.7925224783
 11
16.1859888416
 21
11.8026806487
  0
LINE
  5
275
100
AcDbEntity
  8
0
100
AcDbLine
 62
7
  6
CONTINUOUS
 10
16.3062072815
 20
12.1841859331
 11
16.3070220033
 21
12.1943441035
  0
LINE
  5
276
100
AcDbEntity
  8
0
100
AcDbLine
 62
7
  6
CONTINUOUS
 10
15.9412369482
 20
10.9990346795
 11
15.9431077964
 21
11.0091955687
  0
LINE
  5
277
100
AcDbEntity
  8
0
100
AcDbLine
 62
7
  6
CONTINUOUS
 10
16.0622701099
 20
11.3906981343
 11
16.0641409581
 21
11.4008590235
  0
LINE
  5
278
100
AcDbEntity
  8
0
100
AcDbLine
 62
7
  6
CONTINUOUS
 10
16.1833032716
 20
11.7823615892
 11
16.1851741198
 21
11.7925224783
  0
LINE
  5
279
100
AcDbEntity
  8
0
100
AcDbLine
 62
7
  6
CONTINUOUS
 10
15.9399419743
 20
10.9943022807
 11
15.9412369482
 21
10.9990346795
  0
LINE
  5
27A
100
AcDbEntity
  8
0
100
AcDbLine
 62
7
  6
CONTINUOUS
 10
16.060975136
 20
11.3859657355
 11
16.0622701099
 21
11.3906981343
  0
LINE
  5
27B
100
AcDbEntity
  8
0
100
AcDbLine
 62
7
  6
CONTINUOUS
 10
15.9482886915
 20
11.1764480303
 11
15.9500498578
 21
11.1825985321
  0
LINE
  5
27C
100
AcDbEntity
  8
0
100
AcDbLine
 62
7
  6
CONTINUOUS
 10
16.0693218532
 20
11.5681114851
 11
16.0710830195
 21
11.5742619869
  0
LINE
  5
27D
100
AcDbEntity
  8
0
100
AcDbLine
 62
7
  6
CONTINUOUS
 10
16.1903550149
 20
11.9597749399
 11
16.1921161812
 21
11.9659254417
  0
LINE
  5
27E
100
AcDbEntity
  8
0
100
AcDbLine
 62
7
  6
CONTINUOUS
 10
16.3113881766
 20
12.3514383948
 11
16.3131493429
 21
12.3575888966
  0
LINE
  5
27F
100
AcDbEntity
  8
0
100
AcDbLine
 62
7
  6
CONTINUOUS
 10
16.4324213383
 20
12.7431018496
 11
16.4341825046
 21
12.7492523514
  0
LINE
  5
280
100
AcDbEntity
  8
0
100
AcDbLine
 62
7
  6
CONTINUOUS
 10
16.5534545
 20
13.1347653044
 11
16.5552156663
 21
13.1409158062
  0
LINE
  5
281
100
AcDbEntity
  8
0
100
AcDbLine
 62
7
  6
CONTINUOUS
 10
15.8475424324
 20
10.8508799753
 11
15.8638240153
 21
10.9035671967
  0
LINE
  5
282
100
AcDbEntity
  8
0
100
AcDbLine
 62
7
  6
CONTINUOUS
 10
15.9500555572
 20
11.1826125687
 11
15.984857177
 21
11.2952306516
  0
LINE
  5
283
100
AcDbEntity
  8
0
100
AcDbLine
 62
7
  6
CONTINUOUS
 10
16.0710887189
 20
11.5742760235
 11
16.1058903387
 21
11.6868941064
  0
LINE
  5
284
100
AcDbEntity
  8
0
100
AcDbLine
 62
7
  6
CONTINUOUS
 10
16.1921218806
 20
11.9659394784
 11
16.2269235004
 21
12.0785575612
  0
LINE
  5
285
100
AcDbEntity
  8
0
100
AcDbLine
 62
7
  6
CONTINUOUS
 10
16.3131550424
 20
12.3576029332
 11
16.3479566621
 21
12.470221016
  0
LINE
  5
286
100
AcDbEntity
  8
0
100
AcDbLine
 62
7
  6
CONTINUOUS
 10
16.4341882041
 20
12.749266388
 11
16.4689898238
 21
12.8618844708
  0
LINE
  5
287
100
AcDbEntity
  8
0
100
AcDbLine
 62
7
  6
CONTINUOUS
 10
16.5552213658
 20
13.1409298428
 11
16.5900229855
 21
13.2535479256
  0
LINE
  5
288
100
AcDbEntity
  8
0
100
AcDbLine
 62
7
  6
CONTINUOUS
 10
16.6762545275
 20
13.5325932976
 11
16.7110561472
 21
13.6452113804
  0
LINE
  5
289
100
AcDbEntity
  8
0
100
AcDbLine
 62
7
  6
CONTINUOUS
 10
16.7972876892
 20
13.9242567524
 11
16.8146884986
 21
13.9805657924
  0
LINE
  5
28A
100
AcDbEntity
  8
0
100
AcDbLine
 62
7
  6
CONTINUOUS
 10
16.7110563514
 20
13.6452143123
 11
16.7117110542
 21
13.6472726297
  0
LINE
  5
28B
100
AcDbEntity
  8
0
100
AcDbLine
 62
7
  6
CONTINUOUS
 10
16.5900231897
 20
13.2535508574
 11
16.5906778925
 21
13.2556091749
  0
LINE
  5
28C
100
AcDbEntity
  8
0
100
AcDbLine
 62
7
  6
CONTINUOUS
 10
16.468990028
 20
12.8618874026
 11
16.4696447308
 21
12.8639457201
  0
LINE
  5
28D
100
AcDbEntity
  8
0
100
AcDbLine
 62
7
  6
CONTINUOUS
 10
16.3479568663
 20
12.4702239478
 11
16.3486115691
 21
12.4722822653
  0
LINE
  5
28E
100
AcDbEntity
  8
0
100
AcDbLine
 62
7
  6
CONTINUOUS
 10
16.2269237046
 20
12.078560493
 11
16.2275784074
 21
12.0806188105
  0
LINE
  5
28F
100
AcDbEntity
  8
0
100
AcDbLine
 62
7
  6
CONTINUOUS
 10
16.1058905429
 20
11.6868970382
 11
16.1065452457
 21
11.6889553557
  0
LINE
  5
290
100
AcDbEntity
  8
0
100
AcDbLine
 62
7
  6
CONTINUOUS
 10
15.9848573812
 20
11.2952335834
 11
15.985512084
 21
11.2972919009
  0
LINE
  5
291
100
AcDbEntity
  8
0
100
AcDbLine
 62
7
  6
CONTINUOUS
 10
15.8638242195
 20
10.9035701286
 11
15.8644789223
 21
10.905628446
  0
LINE
  5
292
100
AcDbEntity
  8
0
100
AcDbLine
 62
7
  6
CONTINUOUS
 10
16.7507984165
 20
13.6188659104
 11
16.7523897392
 21
13.6233837688
  0
LINE
  5
293
100
AcDbEntity
  8
0
100
AcDbLine
 62
7
  6
CONTINUOUS
 10
16.6297652548
 20
13.2272024556
 11
16.6313565775
 21
13.231720314
  0
LINE
  5
294
100
AcDbEntity
  8
0
100
AcDbLine
 62
7
  6
CONTINUOUS
 10
16.5087320931
 20
12.8355390007
 11
16.5103234158
 21
12.8400568592
  0
LWPOLYLINE
  5
295
100
AcDbEntity
  8
0
100
AcDbPolyline
 62
7
  6
CONTINUOUS
 90
3
 70
0
 10
16.7117110542
 20
13.6472726297
 10
16.7140938407
 20
13.6538172266
 10
16.7159662685
 20
13.6578691744
  0
LWPOLYLINE
  5
296
100
AcDbEntity
  8
0
100
AcDbPolyline
 62
7
  6
CONTINUOUS
 90
3
 70
0
 10
16.5906778925
 20
13.2556091749
 10
16.593060679
 20
13.2621537718
 10
16.5949331068
 20
13.2662057196
  0
LWPOLYLINE
  5
297
100
AcDbEntity
  8
0
100
AcDbPolyline
 62
7
  6
CONTINUOUS
 90
3
 70
0
 10
16.4696447308
 20
12.8639457201
 10
16.4720275172
 20
12.870490317
 10
16.4738999451
 20
12.8745422648
  0
LWPOLYLINE
  5
298
100
AcDbEntity
  8
0
100
AcDbPolyline
 62
7
  6
CONTINUOUS
 90
3
 70
0
 10
16.3486115691
 20
12.4722822653
 10
16.3509943555
 20
12.4788268622
 10
16.3528667834
 20
12.48287881
  0
LWPOLYLINE
  5
299
100
AcDbEntity
  8
0
100
AcDbPolyline
 62
7
  6
CONTINUOUS
 90
3
 70
0
 10
16.2275784074
 20
12.0806188105
 10
16.2299611938
 20
12.0871634074
 10
16.2318336217
 20
12.0912153552
  0
LINE
  5
29A
100
AcDbEntity
  8
0
100
AcDbLine
 62
7
  6
CONTINUOUS
 10
16.3528667834
 20
12.48287881
 11
16.3534556103
 21
12.4838986404
  0
LINE
  5
29B
100
AcDbEntity
  8
0
100
AcDbLine
 62
7
  6
CONTINUOUS
 10
16.2318336217
 20
12.0912153552
 11
16.2324224486
 21
12.0922351856
  0
LWPOLYLINE
  5
29C
100
AcDbEntity
  8
0
100
AcDbPolyline
 62
7
  6
CONTINUOUS
 90
5
 70
0
 10
16.7246261785
 20
13.599226916
 10
16.7345378253
 20
13.6011949182
 10
16.7423092865
 20
13.6061182886
 10
16.7474136128
 20
13.6121936739
 10
16.7507984165
 20
13.6188659104
  0
LINE
  5
29D
100
AcDbEntity
  8
0
100
AcDbLine
 62
7
  6
CONTINUOUS
 10
16.4280104705
 20
12.590994938
 11
16.4242310938
 21
12.6740557661
  0
LWPOLYLINE
  5
29E
100
AcDbEntity
  8
0
100
AcDbPolyline
 62
7
  6
CONTINUOUS
 90
6
 70
0
 10
16.4242295033
 20
12.6740798916
 10
16.4240932944
 20
12.6798877515
 10
16.4246025196
 20
12.6946128046
 10
16.4262903437
 20
12.7113873865
 10
16.4290260655
 20
12.7282256205
 10
16.4324213383
 20
12.7431018496
  0
LINE
  5
29F
100
AcDbEntity
  8
0
100
AcDbLine
 62
7
  6
CONTINUOUS
 10
16.4280551651
 20
12.5860075583
 11
16.4280076468
 21
12.5910533097
  0
LINE
  5
2A0
100
AcDbEntity
  8
0
100
AcDbLine
 62
7
  6
CONTINUOUS
 10
16.4272404432
 20
12.5758493879
 11
16.4280551651
 21
12.5860075583
  0
LINE
  5
2A1
100
AcDbEntity
  8
0
100
AcDbLine
 62
7
  6
CONTINUOUS
 10
16.3043364333
 20
12.174025044
 11
16.3062072815
 21
12.1841859331
  0
LINE
  5
2A2
100
AcDbEntity
  8
0
100
AcDbLine
 62
7
  6
CONTINUOUS
 10
16.425369595
 20
12.5656884988
 11
16.4272404432
 21
12.5758493879
  0
LINE
  5
2A3
100
AcDbEntity
  8
0
100
AcDbLine
 62
7
  6
CONTINUOUS
 10
16.5464027567
 20
12.9573519536
 11
16.5482736049
 21
12.9675128427
  0
LINE
  5
2A4
100
AcDbEntity
  8
0
100
AcDbLine
 62
7
  6
CONTINUOUS
 10
16.1820082978
 20
11.7776291903
 11
16.1833032716
 21
11.7823615892
  0
LINE
  5
2A5
100
AcDbEntity
  8
0
100
AcDbLine
 62
7
  6
CONTINUOUS
 10
16.3030414595
 20
12.1692926451
 11
16.3043364333
 21
12.174025044
  0
LINE
  5
2A6
100
AcDbEntity
  8
0
100
AcDbLine
 62
7
  6
CONTINUOUS
 10
16.4240746212
 20
12.5609560999
 11
16.425369595
 21
12.5656884988
  0
LINE
  5
2A7
100
AcDbEntity
  8
0
100
AcDbLine
 62
7
  6
CONTINUOUS
 10
16.5451077829
 20
12.9526195547
 11
16.5464027567
 21
12.9573519536
  0
LINE
  5
2A8
100
AcDbEntity
  8
0
100
AcDbLine
 62
7
  6
CONTINUOUS
 10
16.6661409446
 20
13.3442830096
 11
16.6674359184
 21
13.3490154084
  0
LINE
  5
2A9
100
AcDbEntity
  8
0
100
AcDbLine
 62
7
  6
CONTINUOUS
 10
16.7871741063
 20
13.7359464644
 11
16.7884690801
 21
13.7406788632
  0
LINE
  5
2AA
100
AcDbEntity
  8
0
100
AcDbLine
 62
7
  6
CONTINUOUS
 10
16.6744876617
 20
13.5264287592
 11
16.676248828
 21
13.532579261
  0
LINE
  5
2AB
100
AcDbEntity
  8
0
100
AcDbLine
 62
7
  6
CONTINUOUS
 10
16.7955208235
 20
13.918092214
 11
16.7972819897
 21
13.9242427158
  0
LINE
  5
2AC
100
AcDbEntity
  8
0
100
AcDbLine
 62
7
  6
CONTINUOUS
 10
15.905154269
 20
10.8817287567
 11
15.9399558879
 21
10.9943468369
  0
LINE
  5
2AD
100
AcDbEntity
  8
0
100
AcDbLine
 62
7
  6
CONTINUOUS
 10
16.0261874307
 20
11.2733922115
 11
16.0609890496
 21
11.3860102917
  0
LINE
  5
2AE
100
AcDbEntity
  8
0
100
AcDbLine
 62
7
  6
CONTINUOUS
 10
16.1472205924
 20
11.6650556663
 11
16.1820222113
 21
11.7776737465
  0
LINE
  5
2AF
100
AcDbEntity
  8
0
100
AcDbLine
 62
7
  6
CONTINUOUS
 10
16.2682537541
 20
12.0567191211
 11
16.303055373
 21
12.1693372013
  0
LINE
  5
2B0
100
AcDbEntity
  8
0
100
AcDbLine
 62
7
  6
CONTINUOUS
 10
16.3892869158
 20
12.4483825759
 11
16.4240885348
 21
12.5610006561
  0
LINE
  5
2B1
100
AcDbEntity
  8
0
100
AcDbLine
 62
7
  6
CONTINUOUS
 10
16.5103200775
 20
12.8400460307
 11
16.5451216965
 21
12.952664111
  0
LINE
  5
2B2
100
AcDbEntity
  8
0
100
AcDbLine
 62
7
  6
CONTINUOUS
 10
16.6313532392
 20
13.2317094856
 11
16.6661548582
 21
13.3443275658
  0
LINE
  5
2B3
100
AcDbEntity
  8
0
100
AcDbLine
 62
7
  6
CONTINUOUS
 10
16.7523864009
 20
13.6233729404
 11
16.7871880199
 21
13.7359910206
  0
LINE
  5
2B4
100
AcDbEntity
  8
0
100
AcDbLine
 62
7
  6
CONTINUOUS
 10
16.3876989314
 20
12.4438755459
 11
16.3892902541
 21
12.4483934043
  0
LINE
  5
2B5
100
AcDbEntity
  8
0
100
AcDbLine
 62
7
  6
CONTINUOUS
 10
16.2666657697
 20
12.0522120911
 11
16.2682570924
 21
12.0567299495
  0
LINE
  5
2B6
100
AcDbEntity
  8
0
100
AcDbLine
 62
7
  6
CONTINUOUS
 10
16.145632608
 20
11.6605486363
 11
16.1472239307
 21
11.6650664947
  0
LINE
  5
2B7
100
AcDbEntity
  8
0
100
AcDbLine
 62
7
  6
CONTINUOUS
 10
16.0245994463
 20
11.2688851815
 11
16.026190769
 21
11.2734030399
  0
LINE
  5
2B8
100
AcDbEntity
  8
0
100
AcDbLine
 62
7
  6
CONTINUOUS
 10
15.9035662846
 20
10.8772217267
 11
15.9051576073
 21
10.8817395851
  0
LWPOLYLINE
  5
2B9
100
AcDbEntity
  8
0
100
AcDbPolyline
 62
7
  6
CONTINUOUS
 90
3
 70
0
 10
16.1065452457
 20
11.6889553557
 10
16.1089280321
 20
11.6954999526
 10
16.11080046
 20
11.6995519004
  0
LWPOLYLINE
  5
2BA
100
AcDbEntity
  8
0
100
AcDbPolyline
 62
7
  6
CONTINUOUS
 90
3
 70
0
 10
15.985512084
 20
11.2972919009
 10
15.9878948704
 20
11.3038364977
 10
15.9897672983
 20
11.3078884456
  0
LWPOLYLINE
  5
2BB
100
AcDbEntity
  8
0
100
AcDbPolyline
 62
7
  6
CONTINUOUS
 90
3
 70
0
 10
15.8644789223
 20
10.905628446
 10
15.8668617087
 20
10.9121730429
 10
15.8687341366
 20
10.9162249907
  0
LINE
  5
2BC
100
AcDbEntity
  8
0
100
AcDbLine
 62
7
  6
CONTINUOUS
 10
16.11080046
 20
11.6995519004
 11
16.1113892869
 21
11.7005717308
  0
LINE
  5
2BD
100
AcDbEntity
  8
0
100
AcDbLine
 62
7
  6
CONTINUOUS
 10
16.5490436322
 20
12.9826583928
 11
16.5452642555
 21
13.0657192209
  0
LWPOLYLINE
  5
2BE
100
AcDbEntity
  8
0
100
AcDbPolyline
 62
7
  6
CONTINUOUS
 90
6
 70
0
 10
16.545262665
 20
13.0657433464
 10
16.5451264561
 20
13.0715512063
 10
16.5456356813
 20
13.0862762594
 10
16.5473235054
 20
13.1030508413
 10
16.5500592272
 20
13.1198890753
 10
16.5534545
 20
13.1347653044
  0
LINE
  5
2BF
100
AcDbEntity
  8
0
100
AcDbLine
 62
7
  6
CONTINUOUS
 10
16.5490883268
 20
12.9776710131
 11
16.5490408085
 21
12.9827167645
  0
LINE
  5
2C0
100
AcDbEntity
  8
0
100
AcDbLine
 62
7
  6
CONTINUOUS
 10
16.5482736049
 20
12.9675128427
 11
16.5490883268
 21
12.9776710131
  0
LINE
  5
2C1
100
AcDbEntity
  8
0
100
AcDbLine
 62
7
  6
CONTINUOUS
 10
16.6693067666
 20
13.3591762975
 11
16.6701214885
 21
13.3693344679
  0
LINE
  5
2C2
100
AcDbEntity
  8
0
100
AcDbLine
 62
7
  6
CONTINUOUS
 10
16.6674359184
 20
13.3490154084
 11
16.6693067666
 21
13.3591762975
  0
LINE
  5
2C3
100
AcDbEntity
  8
0
100
AcDbLine
 62
7
  6
CONTINUOUS
 10
16.7884690801
 20
13.7406788632
 11
16.7903399283
 21
13.7508397524
  0
LINE
  5
2C4
100
AcDbEntity
  8
0
100
AcDbLine
 62
7
  6
CONTINUOUS
 10
15.9897672983
 20
11.3078884456
 11
15.9903561251
 21
11.308908276
  0
LINE
  5
2C5
100
AcDbEntity
  8
0
100
AcDbLine
 62
7
  6
CONTINUOUS
 10
15.8687341366
 20
10.9162249907
 11
15.8693229634
 21
10.9172448212
  0
LINE
  5
2C6
100
AcDbEntity
  8
0
100
AcDbLine
 62
7
  6
CONTINUOUS
 10
16.696845867
 20
13.5992268966
 11
16.7246267475
 21
13.5992268966
  0
LINE
  5
2C7
100
AcDbEntity
  8
0
100
AcDbLine
 62
7
  6
CONTINUOUS
 10
16.6700767939
 20
13.3743218476
 11
16.6662974172
 21
13.4573826758
  0
LWPOLYLINE
  5
2C8
100
AcDbEntity
  8
0
100
AcDbPolyline
 62
7
  6
CONTINUOUS
 90
6
 70
0
 10
16.6662958267
 20
13.4574068012
 10
16.6661596178
 20
13.4632146612
 10
16.666668843
 20
13.4779397143
 10
16.6683566671
 20
13.4947142961
 10
16.6710923889
 20
13.5115525302
 10
16.6744876617
 20
13.5264287592
  0
LINE
  5
2C9
100
AcDbEntity
  8
0
100
AcDbLine
 62
7
  6
CONTINUOUS
 10
16.6701214885
 20
13.3693344679
 11
16.6700739702
 21
13.3743802194
  0
LINE
  5
2CA
100
AcDbEntity
  8
0
100
AcDbLine
 62
7
  6
CONTINUOUS
 10
16.8149548213
 20
13.9844511813
 11
16.814686757
 21
13.9805663286
  0
LINE
  5
2CB
100
AcDbEntity
  8
0
100
AcDbLine
 62
7
  6
CONTINUOUS
 10
16.7903399283
 20
13.7508397524
 11
16.7911546502
 21
13.7609979227
  0
LINE
  5
2CC
100
AcDbEntity
  8
0
100
AcDbLine
 62
7
  6
CONTINUOUS
 10
16.7911099556
 20
13.7659853024
 11
16.7873305789
 21
13.8490461306
  0
LWPOLYLINE
  5
2CD
100
AcDbEntity
  8
0
100
AcDbPolyline
 62
7
  6
CONTINUOUS
 90
6
 70
0
 10
16.7873289884
 20
13.8490702561
 10
16.7871927795
 20
13.854878116
 10
16.7877020047
 20
13.8696031691
 10
16.7893898288
 20
13.8863777509
 10
16.7921255506
 20
13.903215985
 10
16.7955208235
 20
13.918092214
  0
LINE
  5
2CE
100
AcDbEntity
  8
0
100
AcDbLine
 62
7
  6
CONTINUOUS
 10
16.7911546502
 20
13.7609979227
 11
16.7911071319
 21
13.7660436742
  0
LINE
  5
2CF
100
AcDbEntity
  8
0
100
AcDbLine
 62
7
  6
CONTINUOUS
 10
16.8149548213
 20
13.9844511813
 11
16.7982517959
 21
14.0968210025
  0
LINE
  5
2D0
100
AcDbEntity
  8
0
100
AcDbLine
 62
7
  6
CONTINUOUS
 10
16.7355354519
 20
14.1825108968
 11
15.11216545
 21
14.1825108968
  0
LINE
  5
2D1
100
AcDbEntity
  8
0
100
AcDbLine
 62
7
  6
CONTINUOUS
 10
16.7937505203
 20
14.1108041843
 11
16.7661880234
 21
14.1669706476
  0
ARC
  5
2D2
100
AcDbEntity
  8
0
100
AcDbCircle
 62
7
  6
CONTINUOUS
 10
6.9366172762
 20
5.6582634585
 40
0.1
100
AcDbArc
 50
347.0
 51
360.0
  0
ARC
  5
2D3
100
AcDbEntity
  8
0
100
AcDbCircle
 62
7
  6
CONTINUOUS
 10
5.3241172762
 20
5.6582634585
 40
0.1
100
AcDbArc
 50
180.0
 51
193.0
  0
ARC
  5
2D4
100
AcDbEntity
  8
0
100
AcDbCircle
 62
7
  6
CONTINUOUS
 10
7.0116172762
 20
5.7486198977
 40
0.025
100
AcDbArc
 50
0.0
 51
90.0
  0
ARC
  5
2D5
100
AcDbEntity
  8
0
100
AcDbCircle
 62
7
  6
CONTINUOUS
 10
6.9679604729
 20
5.4606198977
 40
0.025
100
AcDbArc
 50
270.0
 51
347.0
  0
ARC
  5
2D6
100
AcDbEntity
  8
0
100
AcDbCircle
 62
7
  6
CONTINUOUS
 10
5.2927740795
 20
5.4606198977
 40
0.025
100
AcDbArc
 50
193.0
 51
270.0
  0
ARC
  5
2D7
100
AcDbEntity
  8
0
100
AcDbCircle
 62
7
  6
CONTINUOUS
 10
5.2491172762
 20
5.7486198977
 40
0.025
100
AcDbArc
 50
90.0
 51
180.0
  0
ARC
  5
2D8
100
AcDbEntity
  8
0
100
AcDbCircle
 62
7
  6
CONTINUOUS
 10
6.9289437486
 20
5.2916198977
 40
0.025
100
AcDbArc
 50
270.0
 51
347.0
  0
ARC
  5
2D9
100
AcDbEntity
  8
0
100
AcDbCircle
 62
7
  6
CONTINUOUS
 10
5.3317908038
 20
5.2916198974
 40
0.025
100
AcDbArc
 50
192.9999992784
 51
269.9999998377
  0
ARC
  5
2DA
100
AcDbEntity
  8
0
100
AcDbCircle
 62
7
  6
CONTINUOUS
 10
13.7384707866
 20
5.2493747054
 40
0.04225
100
AcDbArc
 50
193.0
 51
270.0
  0
ARC
  5
2DB
100
AcDbEntity
  8
0
100
AcDbCircle
 62
7
  6
CONTINUOUS
 10
13.8822397273
 20
5.2493747054
 40
0.04225
100
AcDbArc
 50
270.0
 51
347.0
  0
ARC
  5
2DC
100
AcDbEntity
  8
0
100
AcDbCircle
 62
7
  6
CONTINUOUS
 10
14.2384707866
 20
5.2493747054
 40
0.04225
100
AcDbArc
 50
193.0
 51
270.0
  0
ARC
  5
2DD
100
AcDbEntity
  8
0
100
AcDbCircle
 62
7
  6
CONTINUOUS
 10
14.3822397273
 20
5.2493747054
 40
0.04225
100
AcDbArc
 50
270.0
 51
347.0
  0
ARC
  5
2DE
100
AcDbEntity
  8
0
100
AcDbCircle
 62
7
  6
CONTINUOUS
 10
14.7384707866
 20
5.2493747054
 40
0.04225
100
AcDbArc
 50
193.0
 51
270.0
  0
ARC
  5
2DF
100
AcDbEntity
  8
0
100
AcDbCircle
 62
7
  6
CONTINUOUS
 10
14.8822397273
 20
5.2493747054
 40
0.04225
100
AcDbArc
 50
270.0
 51
347.0
  0
ARC
  5
2E0
100
AcDbEntity
  8
0
100
AcDbCircle
 62
7
  6
CONTINUOUS
 10
15.2384707866
 20
5.2493747054
 40
0.04225
100
AcDbArc
 50
193.0
 51
270.0
  0
ARC
  5
2E1
100
AcDbEntity
  8
0
100
AcDbCircle
 62
7
  6
CONTINUOUS
 10
15.3822397273
 20
5.2493747054
 40
0.04225
100
AcDbArc
 50
270.0
 51
347.0
  0
ARC
  5
2E2
100
AcDbEntity
  8
0
100
AcDbCircle
 62
7
  6
CONTINUOUS
 10
13.6322397273
 20
5.3338747054
 40
0.04225
100
AcDbArc
 50
13.0
 51
90.0
  0
ARC
  5
2E3
100
AcDbEntity
  8
0
100
AcDbCircle
 62
7
  6
CONTINUOUS
 10
13.9884707866
 20
5.3338747054
 40
0.04225
100
AcDbArc
 50
90.0
 51
167.0
  0
ARC
  5
2E4
100
AcDbEntity
  8
0
100
AcDbCircle
 62
7
  6
CONTINUOUS
 10
14.1322397273
 20
5.3338747054
 40
0.04225
100
AcDbArc
 50
13.0
 51
90.0
  0
ARC
  5
2E5
100
AcDbEntity
  8
0
100
AcDbCircle
 62
7
  6
CONTINUOUS
 10
14.4884707866
 20
5.3338747054
 40
0.04225
100
AcDbArc
 50
90.0
 51
167.0
  0
ARC
  5
2E6
100
AcDbEntity
  8
0
100
AcDbCircle
 62
7
  6
CONTINUOUS
 10
14.6322397273
 20
5.3338747054
 40
0.04225
100
AcDbArc
 50
13.0
 51
90.0
  0
ARC
  5
2E7
100
AcDbEntity
  8
0
100
AcDbCircle
 62
7
  6
CONTINUOUS
 10
14.9884707866
 20
5.3338747054
 40
0.04225
100
AcDbArc
 50
90.0
 51
167.0
  0
ARC
  5
2E8
100
AcDbEntity
  8
0
100
AcDbCircle
 62
7
  6
CONTINUOUS
 10
15.1322397273
 20
5.3338747054
 40
0.04225
100
AcDbArc
 50
13.0
 51
90.0
  0
ARC
  5
2E9
100
AcDbEntity
  8
0
100
AcDbCircle
 62
7
  6
CONTINUOUS
 10
15.4884707866
 20
5.3338747054
 40
0.04225
100
AcDbArc
 50
90.0
 51
167.0
  0
ARC
  5
2EA
100
AcDbEntity
  8
0
100
AcDbCircle
 62
7
  6
CONTINUOUS
 10
17.3822397273
 20
5.2493747054
 40
0.04225
100
AcDbArc
 50
270.0
 51
347.0
  0
ARC
  5
2EB
100
AcDbEntity
  8
0
100
AcDbCircle
 62
7
  6
CONTINUOUS
 10
17.2384707866
 20
5.2493747054
 40
0.04225
100
AcDbArc
 50
193.0
 51
270.0
  0
ARC
  5
2EC
100
AcDbEntity
  8
0
100
AcDbCircle
 62
7
  6
CONTINUOUS
 10
16.8822397273
 20
5.2493747054
 40
0.04225
100
AcDbArc
 50
270.0
 51
347.0
  0
ARC
  5
2ED
100
AcDbEntity
  8
0
100
AcDbCircle
 62
7
  6
CONTINUOUS
 10
16.7384707866
 20
5.2493747054
 40
0.04225
100
AcDbArc
 50
193.0
 51
270.0
  0
ARC
  5
2EE
100
AcDbEntity
  8
0
100
AcDbCircle
 62
7
  6
CONTINUOUS
 10
16.3822397273
 20
5.2493747054
 40
0.04225
100
AcDbArc
 50
270.0
 51
347.0
  0
ARC
  5
2EF
100
AcDbEntity
  8
0
100
AcDbCircle
 62
7
  6
CONTINUOUS
 10
16.2384707866
 20
5.2493747054
 40
0.04225
100
AcDbArc
 50
193.0
 51
270.0
  0
ARC
  5
2F0
100
AcDbEntity
  8
0
100
AcDbCircle
 62
7
  6
CONTINUOUS
 10
15.8822397273
 20
5.2493747054
 40
0.04225
100
AcDbArc
 50
270.0
 51
347.0
  0
ARC
  5
2F1
100
AcDbEntity
  8
0
100
AcDbCircle
 62
7
  6
CONTINUOUS
 10
15.7384707866
 20
5.2493747054
 40
0.04225
100
AcDbArc
 50
193.0
 51
270.0
  0
ARC
  5
2F2
100
AcDbEntity
  8
0
100
AcDbCircle
 62
7
  6
CONTINUOUS
 10
17.4884707866
 20
5.3338747054
 40
0.04225
100
AcDbArc
 50
90.0
 51
167.0
  0
ARC
  5
2F3
100
AcDbEntity
  8
0
100
AcDbCircle
 62
7
  6
CONTINUOUS
 10
17.1322397273
 20
5.3338747054
 40
0.04225
100
AcDbArc
 50
13.0
 51
90.0
  0
ARC
  5
2F4
100
AcDbEntity
  8
0
100
AcDbCircle
 62
7
  6
CONTINUOUS
 10
16.9884707866
 20
5.3338747054
 40
0.04225
100
AcDbArc
 50
90.0
 51
167.0
  0
ARC
  5
2F5
100
AcDbEntity
  8
0
100
AcDbCircle
 62
7
  6
CONTINUOUS
 10
16.6322397273
 20
5.3338747054
 40
0.04225
100
AcDbArc
 50
13.0
 51
90.0
  0
ARC
  5
2F6
100
AcDbEntity
  8
0
100
AcDbCircle
 62
7
  6
CONTINUOUS
 10
16.4884707866
 20
5.3338747054
 40
0.04225
100
AcDbArc
 50
90.0
 51
167.0
  0
ARC
  5
2F7
100
AcDbEntity
  8
0
100
AcDbCircle
 62
7
  6
CONTINUOUS
 10
16.1322397273
 20
5.3338747054
 40
0.04225
100
AcDbArc
 50
13.0
 51
90.0
  0
ARC
  5
2F8
100
AcDbEntity
  8
0
100
AcDbCircle
 62
7
  6
CONTINUOUS
 10
15.9884707866
 20
5.3338747054
 40
0.04225
100
AcDbArc
 50
90.0
 51
167.0
  0
ARC
  5
2F9
100
AcDbEntity
  8
0
100
AcDbCircle
 62
7
  6
CONTINUOUS
 10
15.6322397273
 20
5.3338747054
 40
0.04225
100
AcDbArc
 50
13.0
 51
90.0
  0
SPLINE
  5
2FA
100
AcDbEntity
  8
0
100
AcDbSpline
 62
7
  6
CONTINUOUS
 70
0
 71
3
 72
15
 73
11
 74
0
 42
0.0000001
 43
0.0000001
 44
0.0000000001
 40
0.0
 40
0.0
 40
0.0
 40
0.0
 40
0.1295688385
 40
0.2645761688
 40
0.4012660711
 40
0.536271651
 40
0.6662156218
 40
0.7881006016
 40
0.8998140376
 40
1.0
 40
1.0
 40
1.0
 40
1.0
 10
16.7355354519
 20
14.1825108968
 30
0.0
 10
16.7370837142
 20
14.1825108968
 30
0.0
 10
16.7402476714
 20
14.1822956623
 30
0.0
 10
16.7449701888
 20
14.1814117781
 30
0.0
 10
16.7496264914
 20
14.1799843236
 30
0.0
 10
16.7540383495
 20
14.1780690027
 30
0.0
 10
16.7580445347
 20
14.1757403256
 30
0.0
 10
16.7614966189
 20
14.1730789988
 30
0.0
 10
16.7642624642
 20
14.170182945
 30
0.0
 10
16.7656606249
 20
14.1680453727
 30
0.0
 10
16.7661880234
 20
14.1669706476
 30
0.0
  0
SPLINE
  5
2FB
100
AcDbEntity
  8
0
100
AcDbSpline
 62
7
  6
CONTINUOUS
 70
0
 71
3
 72
15
 73
11
 74
0
 42
0.0000001
 43
0.0000001
 44
0.0000000001
 40
0.0
 40
0.0
 40
0.0
 40
0.0
 40
0.0996458007
 40
0.2028717869
 40
0.3125940834
 40
0.4308566381
 40
0.5588142955
 40
0.696830554
 40
0.8443981211
 40
1.0
 40
1.0
 40
1.0
 40
1.0
 10
15.0959059559
 20
14.1743518412
 30
0.0
 10
15.0960960711
 20
14.1749670807
 30
0.0
 10
15.0966347132
 20
14.1761780211
 30
0.0
 10
15.0978657028
 20
14.177798963
 30
0.0
 10
15.0994890862
 20
14.1792141309
 30
0.0
 10
15.1014732432
 20
14.1803981926
 30
0.0
 10
15.1037807814
 20
14.1813368251
 30
0.0
 10
15.1063723992
 20
14.1820155454
 30
0.0
 10
15.109199281
 20
14.1824232111
 30
0.0
 10
15.1111598999
 20
14.1825108968
 30
0.0
 10
15.11216545
 20
14.1825108968
 30
0.0
  0
SPLINE
  5
2FC
100
AcDbEntity
  8
0
100
AcDbSpline
 62
7
  6
CONTINUOUS
 70
0
 71
3
 72
11
 73
7
 74
0
 42
0.0000001
 43
0.0000001
 44
0.0000000001
 40
0.0
 40
0.0
 40
0.0
 40
0.0
 40
0.23369368
 40
0.474727445
 40
0.7289543518
 40
1.0
 40
1.0
 40
1.0
 40
1.0
 10
14.1276406623
 20
11.0410442027
 30
0.0
 10
14.1274658077
 20
11.0404783489
 30
0.0
 10
14.1272354972
 20
11.0392862022
 30
0.0
 10
14.1272777957
 20
11.0374269247
 30
0.0
 10
14.1276956
 20
11.0355197475
 30
0.0
 10
14.1281970625
 20
11.0342796749
 30
0.0
 10
14.1284996782
 20
11.0336630091
 30
0.0
  0
SPLINE
  5
2FD
100
AcDbEntity
  8
0
100
AcDbSpline
 62
7
  6
CONTINUOUS
 70
0
 71
3
 72
9
 73
5
 74
0
 42
0.0000001
 43
0.0000001
 44
0.0000000001
 40
0.0
 40
0.0
 40
0.0
 40
0.0
 40
0.5155721205
 40
1.0
 40
1.0
 40
1.0
 40
1.0
 10
16.7937505203
 20
14.1108041843
 30
0.0
 10
16.7948660091
 20
14.108531057
 30
0.0
 10
16.7967450352
 20
14.1039735819
 30
0.0
 10
16.7979019983
 20
14.0991742702
 30
0.0
 10
16.7982517959
 20
14.0968210025
 30
0.0
  0
SPLINE
  5
2FE
100
AcDbEntity
  8
0
100
AcDbSpline
 62
7
  6
CONTINUOUS
 70
0
 71
3
 72
14
 73
10
 74
0
 42
0.0000001
 43
0.0000001
 44
0.0000000001
 40
0.0
 40
0.0
 40
0.0
 40
0.0
 40
0.1556088283
 40
0.3032509199
 40
0.5688448072
 40
0.6871584236
 40
0.7968876793
 40
0.900172128
 40
1.0
 40
1.0
 40
1.0
 40
1.0
 10
15.8301637306
 20
10.839099089
 30
0.0
 10
15.8311687472
 20
10.839099089
 30
0.0
 10
15.8331296387
 20
10.8391869895
 30
0.0
 10
15.8367676105
 20
10.8397117061
 30
0.0
 10
15.8400885244
 20
10.8407558272
 30
0.0
 10
15.8428389536
 20
10.8423945462
 30
0.0
 10
15.8444626848
 20
10.8438089754
 30
0.0
 10
15.8456936692
 20
10.8454303947
 30
0.0
 10
15.846232601
 20
10.846642221
 30
0.0
 10
15.8464222769
 20
10.847258439
 30
0.0
  0
SPLINE
  5
2FF
100
AcDbEntity
  8
0
100
AcDbSpline
 62
7
  6
CONTINUOUS
 70
0
 71
3
 72
15
 73
11
 74
0
 42
0.0000001
 43
0.0000001
 44
0.0000000001
 40
0.0
 40
0.0
 40
0.0
 40
0.0
 40
0.1089086426
 40
0.2266179423
 40
0.3512080629
 40
0.480631798
 40
0.6126732459
 40
0.7449579393
 40
0.8750047568
 40
1.0
 40
1.0
 40
1.0
 40
1.0
 10
14.25886797
 20
10.8511435428
 30
0.0
 10
14.2596035797
 20
10.8502602607
 30
0.0
 10
14.2612842272
 20
10.8485449641
 30
0.0
 10
14.2642015348
 20
10.8462448561
 30
0.0
 10
14.2675471079
 20
10.8441803332
 30
0.0
 10
14.2712217836
 20
10.8424044084
 30
0.0
 10
14.2751282372
 20
10.8409678652
 30
0.0
 10
14.2791598204
 20
10.8399063438
 30
0.0
 10
14.283202211
 20
10.8392564111
 30
0.0
 10
14.285895617
 20
10.839099089
 30
0.0
 10
14.2872148859
 20
10.839099089
 30
0.0
  0
SPLINE
  5
300
100
AcDbEntity
  8
0
100
AcDbSpline
 62
7
  6
CONTINUOUS
 70
0
 71
3
 72
9
 73
5
 74
0
 42
0.0000001
 43
0.0000001
 44
0.0000000001
 40
0.0
 40
0.0
 40
0.0
 40
0.0
 40
0.2380066489
 40
1.0
 40
1.0
 40
1.0
 40
1.0
 10
14.156062175
 20
10.9774965458
 30
0.0
 10
14.156648424
 20
10.976301896
 30
0.0
 10
14.1592844318
 20
10.9713676578
 30
0.0
 10
14.1625583226
 20
10.9667871735
 30
0.0
 10
14.1652847973
 20
10.963513364
 30
0.0
  0
SPLINE
  5
301
100
AcDbEntity
  8
0
100
AcDbSpline
 62
7
  6
CONTINUOUS
 70
0
 71
3
 72
15
 73
11
 74
0
 42
0.0000001
 43
0.0000001
 44
0.0000000001
 40
0.0
 40
0.0
 40
0.0
 40
0.0
 40
0.1001859624
 40
0.2118993984
 40
0.3337843782
 40
0.463728349
 40
0.5987339289
 40
0.7354238312
 40
0.8704311615
 40
1.0
 40
1.0
 40
1.0
 40
1.0
 10
15.7979227298
 20
11.0336630091
 30
0.0
 10
15.7973953313
 20
11.0347377342
 30
0.0
 10
15.7959971706
 20
11.0368753065
 30
0.0
 10
15.7932313252
 20
11.0397713603
 30
0.0
 10
15.7897792411
 20
11.0424326871
 30
0.0
 10
15.7857730558
 20
11.0447613642
 30
0.0
 10
15.7813611978
 20
11.0466766851
 30
0.0
 10
15.7767048952
 20
11.0481041396
 30
0.0
 10
15.7719823778
 20
11.0489880238
 30
0.0
 10
15.7688184206
 20
11.0492032583
 30
0.0
 10
15.7672701583
 20
11.0492032583
 30
0.0
  0
SPLINE
  5
302
100
AcDbEntity
  8
0
100
AcDbSpline
 62
7
  6
CONTINUOUS
 70
0
 71
3
 72
15
 73
11
 74
0
 42
0.0000001
 43
0.0000001
 44
0.0000000001
 40
0.0
 40
0.0
 40
0.0
 40
0.0
 40
0.1556018789
 40
0.303169446
 40
0.4411857045
 40
0.5691433619
 40
0.6874059166
 40
0.7971282131
 40
0.9003541993
 40
1.0
 40
1.0
 40
1.0
 40
1.0
 10
14.1439001563
 20
11.0492032583
 30
0.0
 10
14.1428946063
 20
11.0492032583
 30
0.0
 10
14.1409339873
 20
11.0491155726
 30
0.0
 10
14.1381071056
 20
11.0487079069
 30
0.0
 10
14.1355154878
 20
11.0480291866
 30
0.0
 10
14.1332079496
 20
11.0470905541
 30
0.0
 10
14.1312237926
 20
11.0459064924
 30
0.0
 10
14.1296004092
 20
11.0444913245
 30
0.0
 10
14.1283694196
 20
11.0428703826
 30
0.0
 10
14.1278307775
 20
11.0416594422
 30
0.0
 10
14.1276406623
 20
11.0410442027
 30
0.0
  0
SPLINE
  5
303
100
AcDbEntity
  8
0
100
AcDbSpline
 62
7
  6
CONTINUOUS
 70
0
 71
3
 72
9
 73
5
 74
0
 42
0.0000001
 43
0.0000001
 44
0.0000000001
 40
0.0
 40
0.0
 40
0.0
 40
0.0
 40
0.4844278795
 40
1.0
 40
1.0
 40
1.0
 40
1.0
 10
15.8299865022
 20
10.963513364
 30
0.0
 10
15.8296367047
 20
10.9658666317
 30
0.0
 10
15.8284797415
 20
10.9706659434
 30
0.0
 10
15.8266007155
 20
10.9752234185
 30
0.0
 10
15.8254852266
 20
10.9774965458
 30
0.0
  0
ENDSEC
  0
SECTION
  2
OBJECTS
  0
DICTIONARY
  5
C
100
AcDbDictionary
280
0
281
1
  3
ACAD_GROUP
350
D
  3
ACAD_MLINESTYLE
350
17
  3
ACAD_LAYOUT
350
1A
  3
ACAD_PLOTSETTINGS
350
19
  3
ACAD_PLOTSTYLENAME
350
E
  0
DICTIONARY
  5
D
102
{ACAD_REACTORS
330
C
102
}
100
AcDbDictionary
280
0
281
1
  0
ACDBDICTIONARYWDFLT
  5
E
102
{ACAD_REACTORS
330
C
102
}
100
AcDbDictionary
281
1
  3
Normal
350
F
100
AcDbDictionaryWithDefault
340
F
  0
DICTIONARY
  5
17
102
{ACAD_REACTORS
330
C
102
}
100
AcDbDictionary
280
0
281
1
  3
Standard
350
18
  0
DICTIONARY
  5
19
102
{ACAD_REACTORS
330
C
102
}
100
AcDbDictionary
281
1
  0
DICTIONARY
  5
1A
102
{ACAD_REACTORS
330
C
102
}
100
AcDbDictionary
281
1
  3
Model
350
304
  3
Layout1
350
305
  0
ACDBPLACEHOLDER
  5
F
102
{ACAD_REACTORS
330
E
102
}
  0
MLINESTYLE
  5
18
102
{ACAD_REACTORS
330
17
102
}
100
AcDbMlineStyle
  2
STANDARD
 70
0
  3

 62
256
 51
90.0
 52
90.0
 71
2
 49
0.5
 62
256
  6
BYLAYER
 49
-0.5
 62
256
  6
BYLAYER
  0
LAYOUT
  5
304
102
{ACAD_REACTORS
330
1A
102
}
100
AcDbPlotSettings
  1

  2
none_device
  4
ANSI_C_(22.00_x_17.00_Inches)
  6

 40
0.0
 41
0.0
 42
0.0
 43
0.0
 44
558.8
 45
431.8
 46
0.0
 47
0.0
 48
0.0
 49
0.0
140
0.0
141
0.0
142
1.0
143
1.0
 70
1024
 72
0
 73
0
 74
0
  7

 75
0
147
1.0
148
0.0
149
0.0
100
AcDbLayout
  1
Model
 70
0
 71
0
 10
0.0
 20
0.0
 11
22.0
 21
17.0
 12
0.0
 22
0.0
 32
0.0
 14
0.0
 24
0.0
 34
0.0
 15
0.0
 25
0.0
 35
0.0
146
0.0
 13
0.0
 23
0.0
 33
0.0
 16
1.0
 26
0.0
 36
0.0
 17
0.0
 27
1.0
 37
0.0
 76
0
330
216
345
0
346
0
  0
LAYOUT
  5
305
102
{ACAD_REACTORS
330
1A
102
}
100
AcDbPlotSettings
  1

  2
none_device
  4
ANSI_C_(22.00_x_17.00_Inches)
  6

 40
0.0
 41
0.0
 42
0.0
 43
0.0
 44
558.8
 45
431.8
 46
0.0
 47
0.0
 48
0.0
 49
0.0
140
0.0
141
0.0
142
1.0
143
1.0
 70
0
 72
0
 73
0
 74
0
  7

 75
0
147
1.0
148
0.0
149
0.0
100
AcDbLayout
  1
Layout1
 70
0
 71
1
 10
0.0
 20
0.0
 11
22.0
 21
17.0
 12
0.0
 22
0.0
 32
0.0
 14
0.0
 24
0.0
 34
0.0
 15
0.0
 25
0.0
 35
0.0
146
0.0
 13
0.0
 23
0.0
 33
0.0
 16
1.0
 26
0.0
 36
0.0
 17
0.0
 27
1.0
 37
0.0
 76
0
330
217
345
0
346
0
  0
ENDSEC
  0
EOF