999
DXF file: _cgs_temp_output.dxf
999
Pro/ENGINEER 2016360 by Parametric Technology Corporation
  0
SECTION
  2
HEADER
  9
$ACADVER
  1
AC1021
  9
$DWGCODEPAGE
  3
ANSI_1252
  9
$EXTMAX
 10
22.0
 20
17.0
 30
0.0
  9
$EXTMIN
 10
0.0
 20
0.0
 30
0.0
  9
$LIMMIN
 10
0.0
 20
0.0
  9
$LIMMAX
 10
22.0
 20
17.0
  9
$VIEWCTR
 10
11.0
 20
8.5
  9
$VIEWSIZE
 40
17.0
  9
$CLAYER
  8
0
  9
$LTSCALE
 40
1.21
  9
$CELTYPE
  6
BYLAYER
  9
$DIMSCALE
 40
1.0
  9
$DIMASZ
 40
0.1875
  9
$DIMEXO
 40
0.0625
  9
$DIMDLI
 40
0.836
  9
$DIMEXE
 40
0.125
  9
$DIMCEN
 40
0.198
  9
$DIMLFAC
 40
1.0
  9
$DIMBLK
  1
_CLOSED
  9
$DIMALT
 70
0
  9
$DIMALTF
 40
25.4
  9
$DIMTXT
 40
0.15625
  9
$DIMTOL
 70
0
  9
$DIMLIM
 70
0
  9
$DIMTFAC
 40
1.0
  9
$DIMGAP
 40
0.09
  9
$DIMDSEP
 70
46
  9
$AUNITS
 70
0
  9
$PDMODE
 70
3
  9
$PDSIZE
 40
0.3125
  9
$HANDSEED
  5
316
  9
$TILEMODE
 70
1
  9
$MEASUREMENT
 70
0
  9
$INSUNITS
 70
1
  0
ENDSEC
  0
SECTION
  2
CLASSES
  0
CLASS
  1
ACDBDICTIONARYWDFLT
  2
AcDbDictionaryWithDefault
  3
AutoCAD 2000
 90
0
 91
1
280
0
281
0
  0
CLASS
  1
ACDBPLACEHOLDER
  2
AcDbPlaceHolder
  3
AutoCAD 2000
 90
0
 91
1
280
0
281
0
  0
CLASS
  1
LAYOUT
  2
AcDbLayout
  3
AutoCAD 2000
 90
0
 91
0
280
0
281
0
  0
ENDSEC
  0
SECTION
  2
TABLES
  0
TABLE
  2
VPORT
  5
8
100
AcDbSymbolTable
 70
2
  0
VPORT
  5
1F4
100
AcDbSymbolTableRecord
100
AcDbViewportTableRecord
  2
*ACTIVE
 70
0
 10
0.0
 20
0.0
 11
1.0
 21
1.0
 12
11.0
 22
8.5
 13
0.0
 23
0.0
 14
1.0
 24
1.0
 15
0.0
 25
0.0
 16
0.0
 26
0.0
 36
1.0
 17
0.0
 27
0.0
 37
0.0
 40
17.0
 41
1.2941176471
 42
50.0
 43
0.0
 44
0.0
 50
0.0
 51
0.0
 71
0
 72
100
 73
1
 74
1
 75
0
 76
0
 77
0
 78
0
  0
ENDTAB
  0
TABLE
  2
LTYPE
  5
5
100
AcDbSymbolTable
 70
6
  0
LTYPE
  5
14
100
AcDbSymbolTableRecord
100
AcDbLinetypeTableRecord
  2
BYBLOCK
 70
0
  3

 72
65
 73
0
 40
0.0
  0
LTYPE
  5
15
100
AcDbSymbolTableRecord
100
AcDbLinetypeTableRecord
  2
BYLAYER
 70
0
  3

 72
65
 73
0
 40
0.0
  0
LTYPE
  5
16
100
AcDbSymbolTableRecord
100
AcDbLinetypeTableRecord
  2
CONTINUOUS
 70
64
  3
Solid line
 72
65
 73
0
 40
0.0
  0
LTYPE
  5
1F5
100
AcDbSymbolTableRecord
100
AcDbLinetypeTableRecord
  2
CENTER
 70
64
  3
____ _ ____ _ ____ _ ____ _ ____ _ ____ _ ____
 72
65
 73
4
 40
0.6
 49
0.375
 74
0
 49
-0.075
 74
0
 49
0.075
 74
0
 49
-0.075
 74
0
  0
LTYPE
  5
1F6
100
AcDbSymbolTableRecord
100
AcDbLinetypeTableRecord
  2
HIDDEN
 70
64
  3
- - - - - - - - - - - - - - - - - - - -
 72
65
 73
2
 40
0.2
 49
0.1
 74
0
 49
-0.1
 74
0
  0
LTYPE
  5
1F7
100
AcDbSymbolTableRecord
100
AcDbLinetypeTableRecord
  2
PHANTOM
 70
64
  3
_____ _ _ _____ _ _ _____ _ _ _____
 72
65
 73
6
 40
0.8
 49
0.45
 74
0
 49
-0.05
 74
0
 49
0.1
 74
0
 49
-0.05
 74
0
 49
0.1
 74
0
 49
-0.05
 74
0
  0
LTYPE
  5
1F8
100
AcDbSymbolTableRecord
100
AcDbLinetypeTableRecord
  2
DOT
 70
64
  3
. . . . . . . . . . . . . . . . . . . .
 72
65
 73
2
 40
0.2
 49
0.1
 74
0
 49
-0.1
 74
0
  0
LTYPE
  5
1F9
100
AcDbSymbolTableRecord
100
AcDbLinetypeTableRecord
  2
DASHED
 70
64
  3
- - - - - - - - - - - - - - - - - - - -
 72
65
 73
2
 40
0.2
 49
0.1
 74
0
 49
-0.1
 74
0
  0
ENDTAB
  0
TABLE
  2
LAYER
  5
2
100
AcDbSymbolTable
 70
36
  0
LAYER
  5
10
100
AcDbSymbolTableRecord
100
AcDbLayerTableRecord
  2
0
 70
0
 62
7
  6
CONTINUOUS
370
-3
390
F
  0
LAYER
  5
1FA
100
AcDbSymbolTableRecord
100
AcDbLayerTableRecord
  2
DEFAULT_1
 70
0
 62
7
  6
CENTER
370
-3
390
F
  0
LAYER
  5
1FB
100
AcDbSymbolTableRecord
100
AcDbLayerTableRecord
  2
DEFAULT_2
 70
0
 62
8
  6
HIDDEN
370
-3
390
F
  0
LAYER
  5
1FC
100
AcDbSymbolTableRecord
100
AcDbLayerTableRecord
  2
DEFAULT_3
 70
0
 62
7
  6
PHANTOM
370
-3
390
F
  0
LAYER
  5
1FD
100
AcDbSymbolTableRecord
100
AcDbLayerTableRecord
  2
01_ALL_DTM_PLN
 70
0
 62
7
  6
CONTINUOUS
370
-3
390
F
  0
LAYER
  5
1FE
100
AcDbSymbolTableRecord
100
AcDbLayerTableRecord
  2
01__ASM_ALL_DTM_PLN
 70
0
 62
7
  6
CONTINUOUS
370
-3
390
F
  0
LAYER
  5
1FF
100
AcDbSymbolTableRecord
100
AcDbLayerTableRecord
  2
01__ASM_DEF_DTM_PLN
 70
0
 62
7
  6
CONTINUOUS
370
-3
390
F
  0
LAYER
  5
200
100
AcDbSymbolTableRecord
100
AcDbLayerTableRecord
  2
01___PRT_ALL_DTM_PLN
 70
0
 62
7
  6
CONTINUOUS
370
-3
390
F
  0
LAYER
  5
201
100
AcDbSymbolTableRecord
100
AcDbLayerTableRecord
  2
01___PRT_DEF_DTM_PLN
 70
0
 62
7
  6
CONTINUOUS
370
-3
390
F
  0
LAYER
  5
202
100
AcDbSymbolTableRecord
100
AcDbLayerTableRecord
  2
02_ALL_AXES
 70
0
 62
7
  6
CONTINUOUS
370
-3
390
F
  0
LAYER
  5
203
100
AcDbSymbolTableRecord
100
AcDbLayerTableRecord
  2
02__ASM_ALL_AXES
 70
0
 62
7
  6
CONTINUOUS
370
-3
390
F
  0
LAYER
  5
204
100
AcDbSymbolTableRecord
100
AcDbLayerTableRecord
  2
02___PRT_ALL_AXES
 70
0
 62
7
  6
CONTINUOUS
370
-3
390
F
  0
LAYER
  5
205
100
AcDbSymbolTableRecord
100
AcDbLayerTableRecord
  2
03_ALL_CURVES
 70
0
 62
7
  6
CONTINUOUS
370
-3
390
F
  0
LAYER
  5
206
100
AcDbSymbolTableRecord
100
AcDbLayerTableRecord
  2
03__ASM_ALL_CURVES
 70
0
 62
7
  6
CONTINUOUS
370
-3
390
F
  0
LAYER
  5
207
100
AcDbSymbolTableRecord
100
AcDbLayerTableRecord
  2
03___PRT_ALL_CURVES
 70
0
 62
7
  6
CONTINUOUS
370
-3
390
F
  0
LAYER
  5
208
100
AcDbSymbolTableRecord
100
AcDbLayerTableRecord
  2
04_ALL_DTM_PNT
 70
0
 62
7
  6
CONTINUOUS
370
-3
390
F
  0
LAYER
  5
209
100
AcDbSymbolTableRecord
100
AcDbLayerTableRecord
  2
04__ASM_ALL_DTM_PNT
 70
0
 62
7
  6
CONTINUOUS
370
-3
390
F
  0
LAYER
  5
20A
100
AcDbSymbolTableRecord
100
AcDbLayerTableRecord
  2
04___PRT_ALL_DTM_PNT
 70
0
 62
7
  6
CONTINUOUS
370
-3
390
F
  0
LAYER
  5
20B
100
AcDbSymbolTableRecord
100
AcDbLayerTableRecord
  2
05_ALL_DTM_CSYS
 70
0
 62
7
  6
CONTINUOUS
370
-3
390
F
  0
LAYER
  5
20C
100
AcDbSymbolTableRecord
100
AcDbLayerTableRecord
  2
05__ASM_ALL_DTM_CSYS
 70
0
 62
7
  6
CONTINUOUS
370
-3
390
F
  0
LAYER
  5
20D
100
AcDbSymbolTableRecord
100
AcDbLayerTableRecord
  2
05__ASM_DEF_DTM_CSYS
 70
0
 62
7
  6
CONTINUOUS
370
-3
390
F
  0
LAYER
  5
20E
100
AcDbSymbolTableRecord
100
AcDbLayerTableRecord
  2
05___PRT_ALL_DTM_CSYS
 70
0
 62
7
  6
CONTINUOUS
370
-3
390
F
  0
LAYER
  5
20F
100
AcDbSymbolTableRecord
100
AcDbLayerTableRecord
  2
05___PRT_DEF_DTM_CSYS
 70
0
 62
7
  6
CONTINUOUS
370
-3
390
F
  0
LAYER
  5
210
100
AcDbSymbolTableRecord
100
AcDbLayerTableRecord
  2
06_ALL_SURFS
 70
0
 62
7
  6
CONTINUOUS
370
-3
390
F
  0
LAYER
  5
211
100
AcDbSymbolTableRecord
100
AcDbLayerTableRecord
  2
06__ASM_ALL_SURFS
 70
0
 62
7
  6
CONTINUOUS
370
-3
390
F
  0
LAYER
  5
212
100
AcDbSymbolTableRecord
100
AcDbLayerTableRecord
  2
06___PRT_ALL_SURFS
 70
0
 62
7
  6
CONTINUOUS
370
-3
390
F
  0
LAYER
  5
213
100
AcDbSymbolTableRecord
100
AcDbLayerTableRecord
  2
07__ASM_ALL_SKELETONS
 70
0
 62
7
  6
CONTINUOUS
370
-3
390
F
  0
ENDTAB
  0
TABLE
  2
STYLE
  5
3
100
AcDbSymbolTable
 70
1
  0
STYLE
  5
11
100
AcDbSymbolTableRecord
100
AcDbTextStyleTableRecord
  2
STANDARD
 70
0
 40
0.0
 41
0.8
 50
0.0
 71
0
 42
0.2
  3
txt
  4

  0
STYLE
  5
214
100
AcDbSymbolTableRecord
100
AcDbTextStyleTableRecord
  2
TEXTSTYLE_1
 70
0
 40
0.0
 41
0.8
 50
0.0
 71
0
 42
0.2
  3
gdt
  4

  0
ENDTAB
  0
TABLE
  2
VIEW
  5
6
100
AcDbSymbolTable
 70
0
  0
ENDTAB
  0
TABLE
  2
UCS
  5
7
100
AcDbSymbolTable
 70
0
  0
ENDTAB
  0
TABLE
  2
APPID
  5
9
100
AcDbSymbolTable
 70
1
  0
APPID
  5
215
100
AcDbSymbolTableRecord
100
AcDbRegAppTableRecord
  2
ACAD
 70
0
  0
ENDTAB
  0
TABLE
  2
BLOCK_RECORD
  5
1
100
AcDbSymbolTable
 70
0
  0
BLOCK_RECORD
  5
216
100
AcDbSymbolTableRecord
100
AcDbBlockTableRecord
  2
*Model_Space
  0
BLOCK_RECORD
  5
217
100
AcDbSymbolTableRecord
100
AcDbBlockTableRecord
  2
*Paper_Space
  0
ENDTAB
  0
TABLE
  2
DIMSTYLE
  5
A
100
AcDbSymbolTable
 70
1
100
AcDbDimStyleTable
 71
0
  0
DIMSTYLE
105
218
100
AcDbSymbolTableRecord
100
AcDbDimStyleTableRecord
  2
STANDARD
 70
0
  3

  4

 40
1.0
 41
0.1875
 42
0.0625
 43
0.38
 44
0.125
 45
0.0
 46
0.0
 47
0.0001
 48
0.0001
140
0.15625
141
0.09
142
0.0
143
25.4
144
1.0
145
0.0
146
1.0
147
0.09
 71
0.0
 72
0.0
 73
1
 74
1
 75
0
 76
0
 77
0
 78
4
 79
1
170
0
171
3
172
0
173
0
174
0
175
0
176
0
177
0
178
0
270
2
179
4
271
4
272
4
273
2
274
2
275
0
280
0
281
0
282
0
283
1
284
4
285
0
286
0
287
3
288
0
340
11
278
46
  0
ENDTAB
  0
ENDSEC
  0
SECTION
  2
BLOCKS
  0
BLOCK
  5
20
100
AcDbEntity
  8
0
100
AcDbBlockBegin
  2
*Model_Space
 70
0
 10
0.0
 20
0.0
 30
0.0
  3
*Model_Space
  1

  0
ENDBLK
  5
21
100
AcDbEntity
  8
0
100
AcDbBlockEnd
  0
BLOCK
  5
1C
100
AcDbEntity
  8
0
100
AcDbBlockBegin
  2
*Paper_Space
 70
0
 10
0.0
 20
0.0
 30
0.0
  3
*Paper_Space
  1

  0
ENDBLK
  5
1D
100
AcDbEntity
  8
0
100
AcDbBlockEnd
  0
ENDSEC
  0
SECTION
  2
ENTITIES
  0
MTEXT
  5
219
100
AcDbEntity
  8
0
100
AcDbMText
 62
7
  6
CONTINUOUS
  7
STANDARD
 71
1
 72
1
 10
15.9560215477
 20
0.9479130325
 30
0.0
 11
1.0
 21
0.0
 31
0.0
 44
0.9
  1
SCALE: 1:1.000
 40
0.3
 41
3.36
  0
LINE
  5
21A
100
AcDbEntity
  8
0
100
AcDbLine
 62
7
  6
CONTINUOUS
 10
0.0
 20
0.0
 11
0.0
 21
17.0
  0
LINE
  5
21B
100
AcDbEntity
  8
0
100
AcDbLine
 62
7
  6
CONTINUOUS
 10
0.0
 20
0.0
 11
22.0
 21
0.0
  0
LINE
  5
21C
100
AcDbEntity
  8
0
100
AcDbLine
 62
7
  6
CONTINUOUS
 10
0.0
 20
17.0
 11
22.0
 21
17.0
  0
LINE
  5
21D
100
AcDbEntity
  8
0
100
AcDbLine
 62
7
  6
CONTINUOUS
 10
22.0
 20
0.0
 11
22.0
 21
17.0
  0
LINE
  5
21E
100
AcDbEntity
  8
0
100
AcDbLine
 62
7
  6
CONTINUOUS
 10
5.2241172762
 20
5.7471198968
 11
5.2241172762
 21
5.6592851465
  0
LINE
  5
21F
100
AcDbEntity
  8
0
100
AcDbLine
 62
7
  6
CONTINUOUS
 10
5.3204370999
 20
5.2866494206
 11
5.2275246935
 21
5.633403242
  0
LINE
  5
220
100
AcDbEntity
  8
0
100
AcDbLine
 62
7
  6
CONTINUOUS
 10
5.3445852456
 20
5.2681198968
 11
6.9161493067
 21
5.2681198968
  0
LINE
  5
221
100
AcDbEntity
  8
0
100
AcDbLine
 62
7
  6
CONTINUOUS
 10
5.2995697813
 20
5.4361198968
 11
6.9611647711
 21
5.4361198968
  0
LINE
  5
222
100
AcDbEntity
  8
0
100
AcDbLine
 62
7
  6
CONTINUOUS
 10
7.0116172762
 20
5.7721198968
 11
5.2491172762
 21
5.7721198968
  0
LINE
  5
223
100
AcDbEntity
  8
0
100
AcDbLine
 62
7
  6
CONTINUOUS
 10
7.0366172762
 20
5.6592851465
 11
7.0366172762
 21
5.7471198968
  0
LINE
  5
224
100
AcDbEntity
  8
0
100
AcDbLine
 62
7
  6
CONTINUOUS
 10
6.9402974524
 20
5.2866494206
 11
7.0332098588
 21
5.633403242
  0
LINE
  5
225
100
AcDbEntity
  8
0
100
AcDbLine
 62
7
  6
CONTINUOUS
 10
6.9771220839
 20
10.6000477814
 11
5.1646220839
 21
10.6000477814
  0
LINE
  5
226
100
AcDbEntity
  8
0
100
AcDbLine
 62
7
  6
CONTINUOUS
 10
5.1646220839
 20
10.6000477814
 11
5.1646220839
 21
14.6000477814
  0
LINE
  5
227
100
AcDbEntity
  8
0
100
AcDbLine
 62
7
  6
CONTINUOUS
 10
6.9771220839
 20
10.6000477814
 11
6.9771220839
 21
14.6000477814
  0
LINE
  5
228
100
AcDbEntity
  8
0
100
AcDbLine
 62
7
  6
CONTINUOUS
 10
5.1646220839
 20
14.6000477814
 11
6.9771220839
 21
14.6000477814
  0
LINE
  5
229
100
AcDbEntity
  8
0
100
AcDbLine
 62
7
  6
CONTINUOUS
 10
13.5603552569
 20
5.3766247044
 11
13.5603552569
 21
5.7126247044
  0
LINE
  5
22A
100
AcDbEntity
  8
0
100
AcDbLine
 62
7
  6
CONTINUOUS
 10
13.6734775631
 20
5.3440726487
 11
13.6972329508
 21
5.2411767602
  0
LINE
  5
22B
100
AcDbEntity
  8
0
100
AcDbLine
 62
7
  6
CONTINUOUS
 10
13.9234775631
 20
5.2411767602
 11
13.9472329508
 21
5.3440726487
  0
LINE
  5
22C
100
AcDbEntity
  8
0
100
AcDbLine
 62
7
  6
CONTINUOUS
 10
14.1734775631
 20
5.3440726487
 11
14.1972329508
 21
5.2411767602
  0
LINE
  5
22D
100
AcDbEntity
  8
0
100
AcDbLine
 62
7
  6
CONTINUOUS
 10
14.4234775631
 20
5.2411767602
 11
14.4472329508
 21
5.3440726487
  0
LINE
  5
22E
100
AcDbEntity
  8
0
100
AcDbLine
 62
7
  6
CONTINUOUS
 10
14.6734775631
 20
5.3440726487
 11
14.6972329508
 21
5.2411767602
  0
LINE
  5
22F
100
AcDbEntity
  8
0
100
AcDbLine
 62
7
  6
CONTINUOUS
 10
14.9234775631
 20
5.2411767602
 11
14.9472329508
 21
5.3440726487
  0
LINE
  5
230
100
AcDbEntity
  8
0
100
AcDbLine
 62
7
  6
CONTINUOUS
 10
15.1734775631
 20
5.3440726487
 11
15.1972329508
 21
5.2411767602
  0
LINE
  5
231
100
AcDbEntity
  8
0
100
AcDbLine
 62
7
  6
CONTINUOUS
 10
13.7381564935
 20
5.2086247044
 11
13.8825540204
 21
5.2086247044
  0
LINE
  5
232
100
AcDbEntity
  8
0
100
AcDbLine
 62
7
  6
CONTINUOUS
 10
14.2381564935
 20
5.2086247044
 11
14.3825540204
 21
5.2086247044
  0
LINE
  5
233
100
AcDbEntity
  8
0
100
AcDbLine
 62
7
  6
CONTINUOUS
 10
14.7381564935
 20
5.2086247044
 11
14.8825540204
 21
5.2086247044
  0
LINE
  5
234
100
AcDbEntity
  8
0
100
AcDbLine
 62
7
  6
CONTINUOUS
 10
15.2381564935
 20
5.2086247044
 11
15.3825540204
 21
5.2086247044
  0
LINE
  5
235
100
AcDbEntity
  8
0
100
AcDbLine
 62
7
  6
CONTINUOUS
 10
15.7381564935
 20
5.2086247044
 11
15.8825540204
 21
5.2086247044
  0
LINE
  5
236
100
AcDbEntity
  8
0
100
AcDbLine
 62
7
  6
CONTINUOUS
 10
16.2381564935
 20
5.2086247044
 11
16.3825540204
 21
5.2086247044
  0
LINE
  5
237
100
AcDbEntity
  8
0
100
AcDbLine
 62
7
  6
CONTINUOUS
 10
16.7381564935
 20
5.2086247044
 11
16.8825540204
 21
5.2086247044
  0
LINE
  5
238
100
AcDbEntity
  8
0
100
AcDbLine
 62
7
  6
CONTINUOUS
 10
17.2381564935
 20
5.2086247044
 11
17.3825540204
 21
5.2086247044
  0
LINE
  5
239
100
AcDbEntity
  8
0
100
AcDbLine
 62
7
  6
CONTINUOUS
 10
15.4234775631
 20
5.2411767602
 11
15.4472329508
 21
5.3440726487
  0
LINE
  5
23A
100
AcDbEntity
  8
0
100
AcDbLine
 62
7
  6
CONTINUOUS
 10
13.5603552569
 20
5.3766247044
 11
13.6325540204
 21
5.3766247044
  0
LINE
  5
23B
100
AcDbEntity
  8
0
100
AcDbLine
 62
7
  6
CONTINUOUS
 10
13.9881564935
 20
5.3766247044
 11
14.1325540204
 21
5.3766247044
  0
LINE
  5
23C
100
AcDbEntity
  8
0
100
AcDbLine
 62
7
  6
CONTINUOUS
 10
14.4881564935
 20
5.3766247044
 11
14.6325540204
 21
5.3766247044
  0
LINE
  5
23D
100
AcDbEntity
  8
0
100
AcDbLine
 62
7
  6
CONTINUOUS
 10
14.9881564935
 20
5.3766247044
 11
15.1325540204
 21
5.3766247044
  0
LINE
  5
23E
100
AcDbEntity
  8
0
100
AcDbLine
 62
7
  6
CONTINUOUS
 10
15.4881564935
 20
5.3766247044
 11
15.6325540204
 21
5.3766247044
  0
LINE
  5
23F
100
AcDbEntity
  8
0
100
AcDbLine
 62
7
  6
CONTINUOUS
 10
15.9881564935
 20
5.3766247044
 11
16.1325540204
 21
5.3766247044
  0
LINE
  5
240
100
AcDbEntity
  8
0
100
AcDbLine
 62
7
  6
CONTINUOUS
 10
16.4881564935
 20
5.3766247044
 11
16.6325540204
 21
5.3766247044
  0
LINE
  5
241
100
AcDbEntity
  8
0
100
AcDbLine
 62
7
  6
CONTINUOUS
 10
16.9881564935
 20
5.3766247044
 11
17.1325540204
 21
5.3766247044
  0
LINE
  5
242
100
AcDbEntity
  8
0
100
AcDbLine
 62
7
  6
CONTINUOUS
 10
17.4881564935
 20
5.3766247044
 11
17.5603552569
 21
5.3766247044
  0
LINE
  5
243
100
AcDbEntity
  8
0
100
AcDbLine
 62
7
  6
CONTINUOUS
 10
15.6734775631
 20
5.3440726487
 11
15.6972329508
 21
5.2411767602
  0
LINE
  5
244
100
AcDbEntity
  8
0
100
AcDbLine
 62
7
  6
CONTINUOUS
 10
13.5603552569
 20
5.7126247044
 11
17.5603552569
 21
5.7126247044
  0
LINE
  5
245
100
AcDbEntity
  8
0
100
AcDbLine
 62
7
  6
CONTINUOUS
 10
15.9234775631
 20
5.2411767602
 11
15.9472329508
 21
5.3440726487
  0
LINE
  5
246
100
AcDbEntity
  8
0
100
AcDbLine
 62
7
  6
CONTINUOUS
 10
16.1734775631
 20
5.3440726487
 11
16.1972329508
 21
5.2411767602
  0
LINE
  5
247
100
AcDbEntity
  8
0
100
AcDbLine
 62
7
  6
CONTINUOUS
 10
16.4234775631
 20
5.2411767602
 11
16.4472329508
 21
5.3440726487
  0
LINE
  5
248
100
AcDbEntity
  8
0
100
AcDbLine
 62
7
  6
CONTINUOUS
 10
16.6734775631
 20
5.3440726487
 11
16.6972329508
 21
5.2411767602
  0
LINE
  5
249
100
AcDbEntity
  8
0
100
AcDbLine
 62
7
  6
CONTINUOUS
 10
16.9234775631
 20
5.2411767602
 11
16.9472329508
 21
5.3440726487
  0
LINE
  5
24A
100
AcDbEntity
  8
0
100
AcDbLine
 62
7
  6
CONTINUOUS
 10
17.1734775631
 20
5.3440726487
 11
17.1972329508
 21
5.2411767602
  0
LINE
  5
24B
100
AcDbEntity
  8
0
100
AcDbLine
 62
7
  6
CONTINUOUS
 10
17.5603552569
 20
5.3766247044
 11
17.5603552569
 21
5.7126247044
  0
LINE
  5
24C
100
AcDbEntity
  8
0
100
AcDbLine
 62
7
  6
CONTINUOUS
 10
17.4234775631
 20
5.2411767602
 11
17.4472329508
 21
5.3440726487
  0
LINE
  5
24D
100
AcDbEntity
  8
0
100
AcDbLine
 62
7
  6
CONTINUOUS
 10
14.1697292091
 20
10.962353993
 11
14.2683726135
 21
10.8512388357
  0
LINE
  5
24E
100
AcDbEntity
  8
0
100
AcDbLine
 62
7
  6
CONTINUOUS
 10
14.1319024292
 20
11.0330413991
 11
14.1586957054
 21
10.9784424428
  0
LWPOLYLINE
  5
24F
100
AcDbEntity
  8
0
100
AcDbPolyline
 62
7
  6
CONTINUOUS
 90
6
 70
0
 10
15.8683012303
 20
10.858674374
 10
15.8761606314
 20
10.8599065478
 10
15.8838673539
 20
10.8638953284
 10
15.8893375044
 20
10.8693504094
 10
15.8928141813
 20
10.8750547684
 10
15.8950953941
 20
10.8806254855
  0
LINE
  5
250
100
AcDbEntity
  8
0
100
AcDbLine
 62
7
  6
CONTINUOUS
 10
14.2962668091
 20
10.839720699
 11
15.826697142
 21
10.839720699
  0
LINE
  5
251
100
AcDbEntity
  8
0
100
AcDbLine
 62
7
  6
CONTINUOUS
 10
15.8462923916
 20
10.8586743361
 11
15.8682975141
 21
10.8586743361
  0
LINE
  5
252
100
AcDbEntity
  8
0
100
AcDbLine
 62
7
  6
CONTINUOUS
 10
15.7706729093
 20
11.0485816483
 11
14.1473029074
 21
11.0485816483
  0
LWPOLYLINE
  5
253
100
AcDbEntity
  8
0
100
AcDbPolyline
 62
7
  6
CONTINUOUS
 90
6
 70
0
 10
15.989334392
 20
11.2503378288
 10
15.9971937931
 20
11.2515700026
 10
16.0049005156
 20
11.2555587832
 10
16.0103706661
 20
11.2610138642
 10
16.013847343
 20
11.2667182233
 10
16.0161285558
 20
11.2722889404
  0
LINE
  5
254
100
AcDbEntity
  8
0
100
AcDbLine
 62
7
  6
CONTINUOUS
 10
15.9673255533
 20
11.250337791
 11
15.9893306758
 21
11.250337791
  0
LINE
  5
255
100
AcDbEntity
  8
0
100
AcDbLine
 62
7
  6
CONTINUOUS
 10
14.131043433
 20
11.0404225834
 11
15.0993087266
 21
14.1737302219
  0
LWPOLYLINE
  5
256
100
AcDbEntity
  8
0
100
AcDbPolyline
 62
7
  6
CONTINUOUS
 90
6
 70
0
 10
16.1103675537
 20
11.6420012836
 10
16.1182269548
 20
11.6432334574
 10
16.1259336773
 20
11.647222238
 10
16.1314038278
 20
11.652677319
 10
16.1348805047
 20
11.6583816781
 10
16.1371617175
 20
11.6639523952
  0
LINE
  5
257
100
AcDbEntity
  8
0
100
AcDbLine
 62
7
  6
CONTINUOUS
 10
16.088358715
 20
11.6420012458
 11
16.1103638375
 21
11.6420012458
  0
LWPOLYLINE
  5
258
100
AcDbEntity
  8
0
100
AcDbPolyline
 62
7
  6
CONTINUOUS
 90
6
 70
0
 10
16.2314007154
 20
12.0336647384
 10
16.2392601165
 20
12.0348969122
 10
16.246966839
 20
12.0388856928
 10
16.2524369895
 20
12.0443407738
 10
16.2559136664
 20
12.0500451329
 10
16.2581948792
 20
12.05561585
  0
LINE
  5
259
100
AcDbEntity
  8
0
100
AcDbLine
 62
7
  6
CONTINUOUS
 10
16.2093918767
 20
12.0336647006
 11
16.2313969992
 21
12.0336647006
  0
LINE
  5
25A
100
AcDbEntity
  8
0
100
AcDbLine
 62
7
  6
CONTINUOUS
 10
15.828118757
 20
10.9784424428
 11
15.8013254809
 21
11.0330413991
  0
LWPOLYLINE
  5
25B
100
AcDbEntity
  8
0
100
AcDbPolyline
 62
7
  6
CONTINUOUS
 90
6
 70
0
 10
16.3524338771
 20
12.4253281933
 10
16.3602932782
 20
12.4265603671
 10
16.3680000007
 20
12.4305491476
 10
16.3734701512
 20
12.4360042286
 10
16.3769468281
 20
12.4417085877
 10
16.3792280409
 20
12.4472793048
  0
LINE
  5
25C
100
AcDbEntity
  8
0
100
AcDbLine
 62
7
  6
CONTINUOUS
 10
16.3304250384
 20
12.4253281554
 11
16.3524301609
 21
12.4253281554
  0
LWPOLYLINE
  5
25D
100
AcDbEntity
  8
0
100
AcDbPolyline
 62
7
  6
CONTINUOUS
 90
6
 70
0
 10
16.4734670388
 20
12.8169916481
 10
16.4813264399
 20
12.8182238219
 10
16.4890331624
 20
12.8222126024
 10
16.4945033129
 20
12.8276676834
 10
16.4979799898
 20
12.8333720425
 10
16.5002612026
 20
12.8389427596
  0
LINE
  5
25E
100
AcDbEntity
  8
0
100
AcDbLine
 62
7
  6
CONTINUOUS
 10
15.8432867765
 20
10.8512388357
 11
15.8328753823
 21
10.962353993
  0
LINE
  5
25F
100
AcDbEntity
  8
0
100
AcDbLine
 62
7
  6
CONTINUOUS
 10
16.4514582001
 20
12.8169916102
 11
16.4734633226
 21
12.8169916102
  0
LINE
  5
260
100
AcDbEntity
  8
0
100
AcDbLine
 62
7
  6
CONTINUOUS
 10
15.9350917424
 20
11.0244564085
 11
15.934849021
 21
11.1070257523
  0
LINE
  5
261
100
AcDbEntity
  8
0
100
AcDbLine
 62
7
  6
CONTINUOUS
 10
16.0561249041
 20
11.4161198634
 11
16.0558821827
 21
11.4986892071
  0
LINE
  5
262
100
AcDbEntity
  8
0
100
AcDbLine
 62
7
  6
CONTINUOUS
 10
15.9348484537
 20
11.1070502731
 11
15.9349531609
 21
11.1131746063
  0
LINE
  5
263
100
AcDbEntity
  8
0
100
AcDbLine
 62
7
  6
CONTINUOUS
 10
15.9349537929
 20
11.019734289
 11
15.9350914308
 21
11.0245119153
  0
LWPOLYLINE
  5
264
100
AcDbEntity
  8
0
100
AcDbPolyline
 62
7
  6
CONTINUOUS
 90
5
 70
0
 10
15.9349531609
 20
11.1131746063
 10
15.935975447
 20
11.1280991207
 10
15.9381035586
 20
11.1449396387
 10
15.9411470541
 20
11.1617989037
 10
15.9447046836
 20
11.1767383299
  0
LINE
  5
265
100
AcDbEntity
  8
0
100
AcDbLine
 62
7
  6
CONTINUOUS
 10
15.8429535242
 20
10.8478807151
 11
15.8432867765
 21
10.8512388357
  0
LINE
  5
266
100
AcDbEntity
  8
0
100
AcDbLine
 62
7
  6
CONTINUOUS
 10
16.7127011461
 20
13.6593037449
 11
16.7132951896
 21
13.6603737914
  0
LWPOLYLINE
  5
267
100
AcDbEntity
  8
0
100
AcDbPolyline
 62
7
  6
CONTINUOUS
 90
6
 70
0
 10
16.5945002005
 20
13.2086551029
 10
16.6023596016
 20
13.2098872767
 10
16.6100663241
 20
13.2138760572
 10
16.6155364746
 20
13.2193311382
 10
16.6190131515
 20
13.2250354973
 10
16.6212943643
 20
13.2306062144
  0
LINE
  5
268
100
AcDbEntity
  8
0
100
AcDbLine
 62
7
  6
CONTINUOUS
 10
16.1771580658
 20
11.8077833182
 11
16.1769153444
 21
11.8903526619
  0
LINE
  5
269
100
AcDbEntity
  8
0
100
AcDbLine
 62
7
  6
CONTINUOUS
 10
16.0558816154
 20
11.4987137279
 11
16.0559863226
 21
11.5048380611
  0
LINE
  5
26A
100
AcDbEntity
  8
0
100
AcDbLine
 62
7
  6
CONTINUOUS
 10
16.1769147771
 20
11.8903771827
 11
16.1770194843
 21
11.896501516
  0
LINE
  5
26B
100
AcDbEntity
  8
0
100
AcDbLine
 62
7
  6
CONTINUOUS
 10
16.0559869546
 20
11.4113977438
 11
16.0561245925
 21
11.4161753701
  0
LINE
  5
26C
100
AcDbEntity
  8
0
100
AcDbLine
 62
7
  6
CONTINUOUS
 10
16.1770201163
 20
11.8030611986
 11
16.1771577542
 21
11.8078388249
  0
LWPOLYLINE
  5
26D
100
AcDbEntity
  8
0
100
AcDbPolyline
 62
7
  6
CONTINUOUS
 90
5
 70
0
 10
16.0559863226
 20
11.5048380611
 10
16.0570086087
 20
11.5197625755
 10
16.0591367203
 20
11.5366030935
 10
16.0621802158
 20
11.5534623585
 10
16.0657378453
 20
11.5684017847
  0
LINE
  5
26E
100
AcDbEntity
  8
0
100
AcDbLine
 62
7
  6
CONTINUOUS
 10
15.9339129621
 20
11.0100525621
 11
15.9349537929
 21
11.019734289
  0
LINE
  5
26F
100
AcDbEntity
  8
0
100
AcDbLine
 62
7
  6
CONTINUOUS
 10
16.0549461239
 20
11.4017160169
 11
16.0559869546
 21
11.4113977438
  0
LINE
  5
270
100
AcDbEntity
  8
0
100
AcDbLine
 62
7
  6
CONTINUOUS
 10
16.5916679844
 20
13.2676402901
 11
16.5922620279
 21
13.2687103366
  0
LINE
  5
271
100
AcDbEntity
  8
0
100
AcDbLine
 62
7
  6
CONTINUOUS
 10
16.4706348227
 20
12.8759768353
 11
16.4712288662
 21
12.8770468818
  0
LINE
  5
272
100
AcDbEntity
  8
0
100
AcDbLine
 62
7
  6
CONTINUOUS
 10
16.5724913618
 20
13.208655065
 11
16.5944964843
 21
13.208655065
  0
LINE
  5
273
100
AcDbEntity
  8
0
100
AcDbLine
 62
7
  6
CONTINUOUS
 10
16.2981912275
 20
12.199446773
 11
16.2979485061
 21
12.2820161168
  0
LINE
  5
274
100
AcDbEntity
  8
0
100
AcDbLine
 62
7
  6
CONTINUOUS
 10
16.2979479388
 20
12.2820406376
 11
16.298052646
 21
12.2881649708
  0
LINE
  5
275
100
AcDbEntity
  8
0
100
AcDbLine
 62
7
  6
CONTINUOUS
 10
16.298053278
 20
12.1947246534
 11
16.2981909159
 21
12.1995022797
  0
LWPOLYLINE
  5
276
100
AcDbEntity
  8
0
100
AcDbPolyline
 62
7
  6
CONTINUOUS
 90
5
 70
0
 10
16.1770194843
 20
11.896501516
 10
16.1780417705
 20
11.9114260303
 10
16.180169882
 20
11.9282665483
 10
16.1832133775
 20
11.9451258133
 10
16.186771007
 20
11.9600652396
  0
LWPOLYLINE
  5
277
100
AcDbEntity
  8
0
100
AcDbPolyline
 62
7
  6
CONTINUOUS
 90
5
 70
0
 10
16.298052646
 20
12.2881649708
 10
16.2990749322
 20
12.3030894851
 10
16.3012030438
 20
12.3199300031
 10
16.3042465392
 20
12.3367892681
 10
16.3078041687
 20
12.3517286944
  0
LINE
  5
278
100
AcDbEntity
  8
0
100
AcDbLine
 62
7
  6
CONTINUOUS
 10
16.1759792856
 20
11.7933794717
 11
16.1770201163
 21
11.8030611986
  0
LINE
  5
279
100
AcDbEntity
  8
0
100
AcDbLine
 62
7
  6
CONTINUOUS
 10
16.2970124473
 20
12.1850429265
 11
16.298053278
 21
12.1947246534
  0
LINE
  5
27A
100
AcDbEntity
  8
0
100
AcDbLine
 62
7
  6
CONTINUOUS
 10
15.9319805438
 20
11.0003275758
 11
15.9339129621
 21
11.0100525621
  0
LINE
  5
27B
100
AcDbEntity
  8
0
100
AcDbLine
 62
7
  6
CONTINUOUS
 10
16.0530137055
 20
11.3919910306
 11
16.0549461239
 21
11.4017160169
  0
LINE
  5
27C
100
AcDbEntity
  8
0
100
AcDbLine
 62
7
  6
CONTINUOUS
 10
16.1740468672
 20
11.7836544854
 11
16.1759792856
 21
11.7933794717
  0
LINE
  5
27D
100
AcDbEntity
  8
0
100
AcDbLine
 62
7
  6
CONTINUOUS
 10
16.2950800289
 20
12.1753179402
 11
16.2970124473
 21
12.1850429265
  0
LINE
  5
27E
100
AcDbEntity
  8
0
100
AcDbLine
 62
7
  6
CONTINUOUS
 10
15.9307217925
 20
10.9957935218
 11
15.9319805438
 21
11.0003275758
  0
LINE
  5
27F
100
AcDbEntity
  8
0
100
AcDbLine
 62
7
  6
CONTINUOUS
 10
16.0517549542
 20
11.3874569766
 11
16.0530137055
 21
11.3919910306
  0
LINE
  5
280
100
AcDbEntity
  8
0
100
AcDbLine
 62
7
  6
CONTINUOUS
 10
16.1727881159
 20
11.7791204314
 11
16.1740468672
 21
11.7836544854
  0
LINE
  5
281
100
AcDbEntity
  8
0
100
AcDbLine
 62
7
  6
CONTINUOUS
 10
15.9447046836
 20
11.1767383299
 11
15.9465070984
 21
11.1829743627
  0
LINE
  5
282
100
AcDbEntity
  8
0
100
AcDbLine
 62
7
  6
CONTINUOUS
 10
16.0657378453
 20
11.5684017847
 11
16.0675402601
 21
11.5746378175
  0
LINE
  5
283
100
AcDbEntity
  8
0
100
AcDbLine
 62
7
  6
CONTINUOUS
 10
16.186771007
 20
11.9600652396
 11
16.1885734219
 21
11.9663012723
  0
LINE
  5
284
100
AcDbEntity
  8
0
100
AcDbLine
 62
7
  6
CONTINUOUS
 10
16.3078041687
 20
12.3517286944
 11
16.3096065836
 21
12.3579647271
  0
LINE
  5
285
100
AcDbEntity
  8
0
100
AcDbLine
 62
7
  6
CONTINUOUS
 10
16.4288373304
 20
12.7433921492
 11
16.4306397453
 21
12.7496281819
  0
LINE
  5
286
100
AcDbEntity
  8
0
100
AcDbLine
 62
7
  6
CONTINUOUS
 10
16.5498704921
 20
13.135055604
 11
16.551672907
 21
13.1412916368
  0
LINE
  5
287
100
AcDbEntity
  8
0
100
AcDbLine
 62
7
  6
CONTINUOUS
 10
16.6709036538
 20
13.5267190588
 11
16.6727060687
 21
13.5329550916
  0
LINE
  5
288
100
AcDbEntity
  8
0
100
AcDbLine
 62
7
  6
CONTINUOUS
 10
15.8439329423
 20
10.8510391554
 11
15.8604335069
 21
10.9044350021
  0
LINE
  5
289
100
AcDbEntity
  8
0
100
AcDbLine
 62
7
  6
CONTINUOUS
 10
15.9465128889
 20
11.1829879845
 11
15.9814666686
 21
11.2960984569
  0
LINE
  5
28A
100
AcDbEntity
  8
0
100
AcDbLine
 62
7
  6
CONTINUOUS
 10
16.0675460507
 20
11.5746514393
 11
16.1024998303
 21
11.6877619117
  0
LINE
  5
28B
100
AcDbEntity
  8
0
100
AcDbLine
 62
7
  6
CONTINUOUS
 10
16.1885792124
 20
11.9663148941
 11
16.223532992
 21
12.0794253665
  0
LINE
  5
28C
100
AcDbEntity
  8
0
100
AcDbLine
 62
7
  6
CONTINUOUS
 10
16.3096123741
 20
12.3579783489
 11
16.3445661537
 21
12.4710888213
  0
LINE
  5
28D
100
AcDbEntity
  8
0
100
AcDbLine
 62
7
  6
CONTINUOUS
 10
16.4306455358
 20
12.7496418037
 11
16.4655993154
 21
12.8627522762
  0
LINE
  5
28E
100
AcDbEntity
  8
0
100
AcDbLine
 62
7
  6
CONTINUOUS
 10
16.5516786975
 20
13.1413052585
 11
16.5866324771
 21
13.254415731
  0
LINE
  5
28F
100
AcDbEntity
  8
0
100
AcDbLine
 62
7
  6
CONTINUOUS
 10
16.6727118592
 20
13.5329687133
 11
16.7076656388
 21
13.6460791858
  0
LINE
  5
290
100
AcDbEntity
  8
0
100
AcDbLine
 62
7
  6
CONTINUOUS
 10
16.7937450209
 20
13.9246321682
 11
16.8112219101
 21
13.9811874024
  0
LINE
  5
291
100
AcDbEntity
  8
0
100
AcDbLine
 62
7
  6
CONTINUOUS
 10
16.7076658619
 20
13.6460824472
 11
16.7083675362
 21
13.6482924163
  0
LINE
  5
292
100
AcDbEntity
  8
0
100
AcDbLine
 62
7
  6
CONTINUOUS
 10
16.5866327002
 20
13.2544189924
 11
16.5873343745
 21
13.2566289615
  0
LINE
  5
293
100
AcDbEntity
  8
0
100
AcDbLine
 62
7
  6
CONTINUOUS
 10
16.4655995385
 20
12.8627555375
 11
16.4663012128
 21
12.8649655067
  0
LINE
  5
294
100
AcDbEntity
  8
0
100
AcDbLine
 62
7
  6
CONTINUOUS
 10
16.3445663768
 20
12.4710920827
 11
16.3452680511
 21
12.4733020518
  0
LINE
  5
295
100
AcDbEntity
  8
0
100
AcDbLine
 62
7
  6
CONTINUOUS
 10
16.2235332151
 20
12.0794286279
 11
16.2242348894
 21
12.081638597
  0
LINE
  5
296
100
AcDbEntity
  8
0
100
AcDbLine
 62
7
  6
CONTINUOUS
 10
16.1025000534
 20
11.6877651731
 11
16.1032017277
 21
11.6899751422
  0
LINE
  5
297
100
AcDbEntity
  8
0
100
AcDbLine
 62
7
  6
CONTINUOUS
 10
15.9814668917
 20
11.2961017183
 11
15.982168566
 21
11.2983116874
  0
LINE
  5
298
100
AcDbEntity
  8
0
100
AcDbLine
 62
7
  6
CONTINUOUS
 10
15.86043373
 20
10.9044382635
 11
15.8611354043
 21
10.9066482326
  0
LINE
  5
299
100
AcDbEntity
  8
0
100
AcDbLine
 62
7
  6
CONTINUOUS
 10
16.742327526
 20
13.6222696692
 11
16.7430198005
 21
13.6243904982
  0
LINE
  5
29A
100
AcDbEntity
  8
0
100
AcDbLine
 62
7
  6
CONTINUOUS
 10
16.6212943643
 20
13.2306062144
 11
16.6219866388
 21
13.2327270434
  0
LWPOLYLINE
  5
29B
100
AcDbEntity
  8
0
100
AcDbPolyline
 62
7
  6
CONTINUOUS
 90
3
 70
0
 10
16.7083675362
 20
13.6482924163
 10
16.710800818
 20
13.6550665785
 10
16.7127011461
 20
13.6593037449
  0
LWPOLYLINE
  5
29C
100
AcDbEntity
  8
0
100
AcDbPolyline
 62
7
  6
CONTINUOUS
 90
3
 70
0
 10
16.5873343745
 20
13.2566289615
 10
16.5897676563
 20
13.2634031237
 10
16.5916679844
 20
13.2676402901
  0
LWPOLYLINE
  5
29D
100
AcDbEntity
  8
0
100
AcDbPolyline
 62
7
  6
CONTINUOUS
 90
3
 70
0
 10
16.4663012128
 20
12.8649655067
 10
16.4687344946
 20
12.8717396689
 10
16.4706348227
 20
12.8759768353
  0
LWPOLYLINE
  5
29E
100
AcDbEntity
  8
0
100
AcDbPolyline
 62
7
  6
CONTINUOUS
 90
3
 70
0
 10
16.3452680511
 20
12.4733020518
 10
16.3477013329
 20
12.4800762141
 10
16.349601661
 20
12.4843133805
  0
LWPOLYLINE
  5
29F
100
AcDbEntity
  8
0
100
AcDbPolyline
 62
7
  6
CONTINUOUS
 90
3
 70
0
 10
16.2242348894
 20
12.081638597
 10
16.2266681712
 20
12.0884127593
 10
16.2285684993
 20
12.0926499257
  0
LWPOLYLINE
  5
2A0
100
AcDbEntity
  8
0
100
AcDbPolyline
 62
7
  6
CONTINUOUS
 90
3
 70
0
 10
16.1032017277
 20
11.6899751422
 10
16.1056350095
 20
11.6967493045
 10
16.1075353376
 20
11.7009864709
  0
LINE
  5
2A1
100
AcDbEntity
  8
0
100
AcDbLine
 62
7
  6
CONTINUOUS
 10
16.349601661
 20
12.4843133805
 11
16.3501957045
 21
12.485383427
  0
LINE
  5
2A2
100
AcDbEntity
  8
0
100
AcDbLine
 62
7
  6
CONTINUOUS
 10
16.2285684993
 20
12.0926499257
 11
16.2291625428
 21
12.0937199722
  0
LINE
  5
2A3
100
AcDbEntity
  8
0
100
AcDbLine
 62
7
  6
CONTINUOUS
 10
16.4192243892
 20
12.5911102278
 11
16.4189816678
 21
12.6736795716
  0
LINE
  5
2A4
100
AcDbEntity
  8
0
100
AcDbLine
 62
7
  6
CONTINUOUS
 10
16.4189811005
 20
12.6737040924
 11
16.4190858077
 21
12.6798284256
  0
LINE
  5
2A5
100
AcDbEntity
  8
0
100
AcDbLine
 62
7
  6
CONTINUOUS
 10
16.4190864397
 20
12.5863881082
 11
16.4192240776
 21
12.5911657345
  0
LWPOLYLINE
  5
2A6
100
AcDbEntity
  8
0
100
AcDbPolyline
 62
7
  6
CONTINUOUS
 90
5
 70
0
 10
16.4190858077
 20
12.6798284256
 10
16.4201080939
 20
12.6947529399
 10
16.4222362055
 20
12.711593458
 10
16.4252797009
 20
12.7284527229
 10
16.4288373304
 20
12.7433921492
  0
LINE
  5
2A7
100
AcDbEntity
  8
0
100
AcDbLine
 62
7
  6
CONTINUOUS
 10
16.418045609
 20
12.5767063814
 11
16.4190864397
 21
12.5863881082
  0
LINE
  5
2A8
100
AcDbEntity
  8
0
100
AcDbLine
 62
7
  6
CONTINUOUS
 10
16.5390787707
 20
12.9683698362
 11
16.5401196014
 21
12.978051563
  0
LINE
  5
2A9
100
AcDbEntity
  8
0
100
AcDbLine
 62
7
  6
CONTINUOUS
 10
16.4161131906
 20
12.566981395
 11
16.418045609
 21
12.5767063814
  0
LINE
  5
2AA
100
AcDbEntity
  8
0
100
AcDbLine
 62
7
  6
CONTINUOUS
 10
16.5371463523
 20
12.9586448498
 11
16.5390787707
 21
12.9683698362
  0
LINE
  5
2AB
100
AcDbEntity
  8
0
100
AcDbLine
 62
7
  6
CONTINUOUS
 10
16.658179514
 20
13.3503083046
 11
16.6601119324
 21
13.360033291
  0
LINE
  5
2AC
100
AcDbEntity
  8
0
100
AcDbLine
 62
7
  6
CONTINUOUS
 10
16.2938212776
 20
12.1707838863
 11
16.2950800289
 21
12.1753179402
  0
LINE
  5
2AD
100
AcDbEntity
  8
0
100
AcDbLine
 62
7
  6
CONTINUOUS
 10
16.4148544393
 20
12.5624473411
 11
16.4161131906
 21
12.566981395
  0
LINE
  5
2AE
100
AcDbEntity
  8
0
100
AcDbLine
 62
7
  6
CONTINUOUS
 10
16.535887601
 20
12.9541107959
 11
16.5371463523
 21
12.9586448498
  0
LINE
  5
2AF
100
AcDbEntity
  8
0
100
AcDbLine
 62
7
  6
CONTINUOUS
 10
16.6569207628
 20
13.3457742507
 11
16.658179514
 21
13.3503083046
  0
LINE
  5
2B0
100
AcDbEntity
  8
0
100
AcDbLine
 62
7
  6
CONTINUOUS
 10
16.7779539245
 20
13.7374377055
 11
16.7792126757
 21
13.7419717595
  0
LINE
  5
2B1
100
AcDbEntity
  8
0
100
AcDbLine
 62
7
  6
CONTINUOUS
 10
16.7919368155
 20
13.9183825136
 11
16.7937392304
 21
13.9246185464
  0
LINE
  5
2B2
100
AcDbEntity
  8
0
100
AcDbLine
 62
7
  6
CONTINUOUS
 10
15.8957813534
 20
10.8827257824
 11
15.9307351319
 21
10.995836251
  0
LINE
  5
2B3
100
AcDbEntity
  8
0
100
AcDbLine
 62
7
  6
CONTINUOUS
 10
16.0168145151
 20
11.2743892372
 11
16.0517682936
 21
11.3874997059
  0
LINE
  5
2B4
100
AcDbEntity
  8
0
100
AcDbLine
 62
7
  6
CONTINUOUS
 10
16.1378476768
 20
11.666052692
 11
16.1728014553
 21
11.7791631607
  0
LINE
  5
2B5
100
AcDbEntity
  8
0
100
AcDbLine
 62
7
  6
CONTINUOUS
 10
16.2588808385
 20
12.0577161468
 11
16.293834617
 21
12.1708266155
  0
LINE
  5
2B6
100
AcDbEntity
  8
0
100
AcDbLine
 62
7
  6
CONTINUOUS
 10
16.3799140002
 20
12.4493796016
 11
16.4148677787
 21
12.5624900703
  0
LINE
  5
2B7
100
AcDbEntity
  8
0
100
AcDbLine
 62
7
  6
CONTINUOUS
 10
16.5009471619
 20
12.8410430565
 11
16.5359009404
 21
12.9541535251
  0
LINE
  5
2B8
100
AcDbEntity
  8
0
100
AcDbLine
 62
7
  6
CONTINUOUS
 10
16.6219803236
 20
13.2327065113
 11
16.6569341021
 21
13.3458169799
  0
LINE
  5
2B9
100
AcDbEntity
  8
0
100
AcDbLine
 62
7
  6
CONTINUOUS
 10
16.7430134853
 20
13.6243699661
 11
16.7779672638
 21
13.7374804347
  0
LINE
  5
2BA
100
AcDbEntity
  8
0
100
AcDbLine
 62
7
  6
CONTINUOUS
 10
16.7779672638
 20
13.7374804347
 11
16.777953931
 21
13.7374377038
  0
LINE
  5
2BB
100
AcDbEntity
  8
0
100
AcDbLine
 62
7
  6
CONTINUOUS
 10
16.6569341021
 20
13.3458169799
 11
16.6569207693
 21
13.345774249
  0
LINE
  5
2BC
100
AcDbEntity
  8
0
100
AcDbLine
 62
7
  6
CONTINUOUS
 10
16.5359009404
 20
12.9541535251
 11
16.5358876076
 21
12.9541107942
  0
LINE
  5
2BD
100
AcDbEntity
  8
0
100
AcDbLine
 62
7
  6
CONTINUOUS
 10
16.4148677787
 20
12.5624900703
 11
16.4148544459
 21
12.5624473394
  0
LINE
  5
2BE
100
AcDbEntity
  8
0
100
AcDbLine
 62
7
  6
CONTINUOUS
 10
16.293834617
 20
12.1708266155
 11
16.2938212842
 21
12.1707838846
  0
LINE
  5
2BF
100
AcDbEntity
  8
0
100
AcDbLine
 62
7
  6
CONTINUOUS
 10
16.1728014553
 20
11.7791631607
 11
16.1727881225
 21
11.7791204298
  0
LINE
  5
2C0
100
AcDbEntity
  8
0
100
AcDbLine
 62
7
  6
CONTINUOUS
 10
16.0517682936
 20
11.3874997059
 11
16.0517549608
 21
11.387456975
  0
LINE
  5
2C1
100
AcDbEntity
  8
0
100
AcDbLine
 62
7
  6
CONTINUOUS
 10
15.9307351319
 20
10.995836251
 11
15.9307217991
 21
10.9957935202
  0
LINE
  5
2C2
100
AcDbEntity
  8
0
100
AcDbLine
 62
7
  6
CONTINUOUS
 10
16.5002612026
 20
12.8389427596
 11
16.5009534771
 21
12.8410635886
  0
LINE
  5
2C3
100
AcDbEntity
  8
0
100
AcDbLine
 62
7
  6
CONTINUOUS
 10
16.3792280409
 20
12.4472793048
 11
16.3799203154
 21
12.4494001338
  0
LINE
  5
2C4
100
AcDbEntity
  8
0
100
AcDbLine
 62
7
  6
CONTINUOUS
 10
16.2581948792
 20
12.05561585
 11
16.2588871537
 21
12.057736679
  0
LINE
  5
2C5
100
AcDbEntity
  8
0
100
AcDbLine
 62
7
  6
CONTINUOUS
 10
16.1371617175
 20
11.6639523952
 11
16.137853992
 21
11.6660732242
  0
LINE
  5
2C6
100
AcDbEntity
  8
0
100
AcDbLine
 62
7
  6
CONTINUOUS
 10
16.0161285558
 20
11.2722889404
 11
16.0168208303
 21
11.2744097694
  0
LINE
  5
2C7
100
AcDbEntity
  8
0
100
AcDbLine
 62
7
  6
CONTINUOUS
 10
15.8950953941
 20
10.8806254855
 11
15.8957876686
 21
10.8827463145
  0
LWPOLYLINE
  5
2C8
100
AcDbEntity
  8
0
100
AcDbPolyline
 62
7
  6
CONTINUOUS
 90
3
 70
0
 10
15.982168566
 20
11.2983116874
 10
15.9846018478
 20
11.3050858496
 10
15.9865021759
 20
11.309323016
  0
LWPOLYLINE
  5
2C9
100
AcDbEntity
  8
0
100
AcDbPolyline
 62
7
  6
CONTINUOUS
 90
3
 70
0
 10
15.8611354043
 20
10.9066482326
 10
15.8635686861
 20
10.9134223948
 10
15.8654690142
 20
10.9176595612
  0
LINE
  5
2CA
100
AcDbEntity
  8
0
100
AcDbLine
 62
7
  6
CONTINUOUS
 10
16.1075353376
 20
11.7009864709
 11
16.1081293811
 21
11.7020565174
  0
LWPOLYLINE
  5
2CB
100
AcDbEntity
  8
0
100
AcDbPolyline
 62
7
  6
CONTINUOUS
 90
6
 70
0
 10
16.7155333622
 20
13.6003185577
 10
16.7233927633
 20
13.6015507315
 10
16.7310994858
 20
13.6055395121
 10
16.7365696363
 20
13.610994593
 10
16.7400463132
 20
13.6166989521
 10
16.742327526
 20
13.6222696692
  0
LINE
  5
2CC
100
AcDbEntity
  8
0
100
AcDbLine
 62
7
  6
CONTINUOUS
 10
16.5402575509
 20
12.9827736826
 11
16.5400148295
 21
13.0653430264
  0
LINE
  5
2CD
100
AcDbEntity
  8
0
100
AcDbLine
 62
7
  6
CONTINUOUS
 10
16.5400142622
 20
13.0653675472
 11
16.5401189694
 21
13.0714918804
  0
LINE
  5
2CE
100
AcDbEntity
  8
0
100
AcDbLine
 62
7
  6
CONTINUOUS
 10
16.5401196014
 20
12.978051563
 11
16.5402572393
 21
12.9828291893
  0
LWPOLYLINE
  5
2CF
100
AcDbEntity
  8
0
100
AcDbPolyline
 62
7
  6
CONTINUOUS
 90
5
 70
0
 10
16.5401189694
 20
13.0714918804
 10
16.5411412556
 20
13.0864163948
 10
16.5432693672
 20
13.1032569128
 10
16.5463128627
 20
13.1201161778
 10
16.5498704921
 20
13.135055604
  0
LWPOLYLINE
  5
2D0
100
AcDbEntity
  8
0
100
AcDbPolyline
 62
7
  6
CONTINUOUS
 90
5
 70
0
 10
16.6611521311
 20
13.4631553352
 10
16.6621744173
 20
13.4780798496
 10
16.6643025289
 20
13.4949203676
 10
16.6673460244
 20
13.5117796326
 10
16.6709036538
 20
13.5267190588
  0
LINE
  5
2D1
100
AcDbEntity
  8
0
100
AcDbLine
 62
7
  6
CONTINUOUS
 10
16.6601119324
 20
13.360033291
 11
16.6611527631
 21
13.3697150178
  0
LINE
  5
2D2
100
AcDbEntity
  8
0
100
AcDbLine
 62
7
  6
CONTINUOUS
 10
16.7792126757
 20
13.7419717595
 11
16.7811450941
 21
13.7516967458
  0
LINE
  5
2D3
100
AcDbEntity
  8
0
100
AcDbLine
 62
7
  6
CONTINUOUS
 10
15.9865021759
 20
11.309323016
 11
15.9870962194
 21
11.3103930625
  0
LINE
  5
2D4
100
AcDbEntity
  8
0
100
AcDbLine
 62
7
  6
CONTINUOUS
 10
15.8654690142
 20
10.9176595612
 11
15.8660630577
 21
10.9187296077
  0
LINE
  5
2D5
100
AcDbEntity
  8
0
100
AcDbLine
 62
7
  6
CONTINUOUS
 10
16.6935245235
 20
13.6003185198
 11
16.715529646
 21
13.6003185198
  0
LINE
  5
2D6
100
AcDbEntity
  8
0
100
AcDbLine
 62
7
  6
CONTINUOUS
 10
16.6612907126
 20
13.3744371374
 11
16.6610479912
 21
13.4570064812
  0
LINE
  5
2D7
100
AcDbEntity
  8
0
100
AcDbLine
 62
7
  6
CONTINUOUS
 10
16.6610474239
 20
13.457031002
 11
16.6611521311
 21
13.4631553352
  0
LINE
  5
2D8
100
AcDbEntity
  8
0
100
AcDbLine
 62
7
  6
CONTINUOUS
 10
16.7820805856
 20
13.8486944568
 11
16.7821852928
 21
13.85481879
  0
LINE
  5
2D9
100
AcDbEntity
  8
0
100
AcDbLine
 62
7
  6
CONTINUOUS
 10
16.6611527631
 20
13.3697150178
 11
16.661290401
 21
13.3744926441
  0
LINE
  5
2DA
100
AcDbEntity
  8
0
100
AcDbLine
 62
7
  6
CONTINUOUS
 10
16.7821859248
 20
13.7613784726
 11
16.7823235627
 21
13.766156099
  0
LWPOLYLINE
  5
2DB
100
AcDbEntity
  8
0
100
AcDbPolyline
 62
7
  6
CONTINUOUS
 90
5
 70
0
 10
16.7821852928
 20
13.85481879
 10
16.783207579
 20
13.8697433044
 10
16.7853356906
 20
13.8865838224
 10
16.7883791861
 20
13.9034430874
 10
16.7919368155
 20
13.9183825136
  0
LINE
  5
2DC
100
AcDbEntity
  8
0
100
AcDbLine
 62
7
  6
CONTINUOUS
 10
16.8115520701
 20
13.9845464742
 11
16.8112188178
 21
13.9811883536
  0
LINE
  5
2DD
100
AcDbEntity
  8
0
100
AcDbLine
 62
7
  6
CONTINUOUS
 10
16.7811450941
 20
13.7516967458
 11
16.7821859248
 21
13.7613784726
  0
LINE
  5
2DE
100
AcDbEntity
  8
0
100
AcDbLine
 62
7
  6
CONTINUOUS
 10
16.7823238743
 20
13.7661005922
 11
16.7820811529
 21
13.848669936
  0
LINE
  5
2DF
100
AcDbEntity
  8
0
100
AcDbLine
 62
7
  6
CONTINUOUS
 10
16.8115520701
 20
13.9845464742
 11
16.8011406759
 21
14.0956616315
  0
LINE
  5
2E0
100
AcDbEntity
  8
0
100
AcDbLine
 62
7
  6
CONTINUOUS
 10
16.738938203
 20
14.1818892868
 11
15.115568201
 21
14.1818892868
  0
LINE
  5
2E1
100
AcDbEntity
  8
0
100
AcDbLine
 62
7
  6
CONTINUOUS
 10
16.7963840507
 20
14.1117500813
 11
16.7695907745
 21
14.1663490376
  0
ARC
  5
2E2
100
AcDbEntity
  8
0
100
AcDbCircle
 62
7
  6
CONTINUOUS
 10
5.2995697813
 20
5.4611198968
 40
0.025
100
AcDbArc
 50
195.0
 51
270.0
  0
ARC
  5
2E3
100
AcDbEntity
  8
0
100
AcDbCircle
 62
7
  6
CONTINUOUS
 10
5.344585245
 20
5.2931198991
 40
0.025
100
AcDbArc
 50
195.0000055171
 51
270.0000014279
  0
ARC
  5
2E4
100
AcDbEntity
  8
0
100
AcDbCircle
 62
7
  6
CONTINUOUS
 10
5.3241172762
 20
5.6592851465
 40
0.1
100
AcDbArc
 50
180.0
 51
195.0
  0
ARC
  5
2E5
100
AcDbEntity
  8
0
100
AcDbCircle
 62
7
  6
CONTINUOUS
 10
5.2491172762
 20
5.7471198968
 40
0.025
100
AcDbArc
 50
90.0
 51
180.0
  0
ARC
  5
2E6
100
AcDbEntity
  8
0
100
AcDbCircle
 62
7
  6
CONTINUOUS
 10
6.9161493067
 20
5.2931198968
 40
0.025
100
AcDbArc
 50
270.0
 51
345.0
  0
ARC
  5
2E7
100
AcDbEntity
  8
0
100
AcDbCircle
 62
7
  6
CONTINUOUS
 10
6.9611647711
 20
5.4611198968
 40
0.025
100
AcDbArc
 50
270.0
 51
345.0
  0
ARC
  5
2E8
100
AcDbEntity
  8
0
100
AcDbCircle
 62
7
  6
CONTINUOUS
 10
6.9366172762
 20
5.6592851465
 40
0.1
100
AcDbArc
 50
345.0
 51
360.0
  0
ARC
  5
2E9
100
AcDbEntity
  8
0
100
AcDbCircle
 62
7
  6
CONTINUOUS
 10
7.0116172762
 20
5.7471198968
 40
0.025
100
AcDbArc
 50
0.0
 51
90.0
  0
ARC
  5
2EA
100
AcDbEntity
  8
0
100
AcDbCircle
 62
7
  6
CONTINUOUS
 10
13.7381564935
 20
5.2506247044
 40
0.042
100
AcDbArc
 50
193.0
 51
270.0
  0
ARC
  5
2EB
100
AcDbEntity
  8
0
100
AcDbCircle
 62
7
  6
CONTINUOUS
 10
13.8825540204
 20
5.2506247044
 40
0.042
100
AcDbArc
 50
270.0
 51
347.0
  0
ARC
  5
2EC
100
AcDbEntity
  8
0
100
AcDbCircle
 62
7
  6
CONTINUOUS
 10
14.2381564935
 20
5.2506247044
 40
0.042
100
AcDbArc
 50
193.0
 51
270.0
  0
ARC
  5
2ED
100
AcDbEntity
  8
0
100
AcDbCircle
 62
7
  6
CONTINUOUS
 10
14.3825540204
 20
5.2506247044
 40
0.042
100
AcDbArc
 50
270.0
 51
347.0
  0
ARC
  5
2EE
100
AcDbEntity
  8
0
100
AcDbCircle
 62
7
  6
CONTINUOUS
 10
14.7381564935
 20
5.2506247044
 40
0.042
100
AcDbArc
 50
193.0
 51
270.0
  0
ARC
  5
2EF
100
AcDbEntity
  8
0
100
AcDbCircle
 62
7
  6
CONTINUOUS
 10
14.8825540204
 20
5.2506247044
 40
0.042
100
AcDbArc
 50
270.0
 51
347.0
  0
ARC
  5
2F0
100
AcDbEntity
  8
0
100
AcDbCircle
 62
7
  6
CONTINUOUS
 10
15.2381564935
 20
5.2506247044
 40
0.042
100
AcDbArc
 50
193.0
 51
270.0
  0
ARC
  5
2F1
100
AcDbEntity
  8
0
100
AcDbCircle
 62
7
  6
CONTINUOUS
 10
15.3825540204
 20
5.2506247044
 40
0.042
100
AcDbArc
 50
270.0
 51
347.0
  0
ARC
  5
2F2
100
AcDbEntity
  8
0
100
AcDbCircle
 62
7
  6
CONTINUOUS
 10
13.6325540204
 20
5.3346247044
 40
0.042
100
AcDbArc
 50
13.0
 51
90.0
  0
ARC
  5
2F3
100
AcDbEntity
  8
0
100
AcDbCircle
 62
7
  6
CONTINUOUS
 10
13.9881564935
 20
5.3346247044
 40
0.042
100
AcDbArc
 50
90.0
 51
167.0
  0
ARC
  5
2F4
100
AcDbEntity
  8
0
100
AcDbCircle
 62
7
  6
CONTINUOUS
 10
14.1325540204
 20
5.3346247044
 40
0.042
100
AcDbArc
 50
13.0
 51
90.0
  0
ARC
  5
2F5
100
AcDbEntity
  8
0
100
AcDbCircle
 62
7
  6
CONTINUOUS
 10
14.4881564935
 20
5.3346247044
 40
0.042
100
AcDbArc
 50
90.0
 51
167.0
  0
ARC
  5
2F6
100
AcDbEntity
  8
0
100
AcDbCircle
 62
7
  6
CONTINUOUS
 10
14.6325540204
 20
5.3346247044
 40
0.042
100
AcDbArc
 50
13.0
 51
90.0
  0
ARC
  5
2F7
100
AcDbEntity
  8
0
100
AcDbCircle
 62
7
  6
CONTINUOUS
 10
14.9881564935
 20
5.3346247044
 40
0.042
100
AcDbArc
 50
90.0
 51
167.0
  0
ARC
  5
2F8
100
AcDbEntity
  8
0
100
AcDbCircle
 62
7
  6
CONTINUOUS
 10
15.1325540204
 20
5.3346247044
 40
0.042
100
AcDbArc
 50
13.0
 51
90.0
  0
ARC
  5
2F9
100
AcDbEntity
  8
0
100
AcDbCircle
 62
7
  6
CONTINUOUS
 10
15.4881564935
 20
5.3346247044
 40
0.042
100
AcDbArc
 50
90.0
 51
167.0
  0
ARC
  5
2FA
100
AcDbEntity
  8
0
100
AcDbCircle
 62
7
  6
CONTINUOUS
 10
17.3825540204
 20
5.2506247044
 40
0.042
100
AcDbArc
 50
270.0
 51
347.0
  0
ARC
  5
2FB
100
AcDbEntity
  8
0
100
AcDbCircle
 62
7
  6
CONTINUOUS
 10
17.2381564935
 20
5.2506247044
 40
0.042
100
AcDbArc
 50
193.0
 51
270.0
  0
ARC
  5
2FC
100
AcDbEntity
  8
0
100
AcDbCircle
 62
7
  6
CONTINUOUS
 10
16.8825540204
 20
5.2506247044
 40
0.042
100
AcDbArc
 50
270.0
 51
347.0
  0
ARC
  5
2FD
100
AcDbEntity
  8
0
100
AcDbCircle
 62
7
  6
CONTINUOUS
 10
16.7381564935
 20
5.2506247044
 40
0.042
100
AcDbArc
 50
193.0
 51
270.0
  0
ARC
  5
2FE
100
AcDbEntity
  8
0
100
AcDbCircle
 62
7
  6
CONTINUOUS
 10
16.3825540204
 20
5.2506247044
 40
0.042
100
AcDbArc
 50
270.0
 51
347.0
  0
ARC
  5
2FF
100
AcDbEntity
  8
0
100
AcDbCircle
 62
7
  6
CONTINUOUS
 10
16.2381564935
 20
5.2506247044
 40
0.042
100
AcDbArc
 50
193.0
 51
270.0
  0
ARC
  5
300
100
AcDbEntity
  8
0
100
AcDbCircle
 62
7
  6
CONTINUOUS
 10
15.8825540204
 20
5.2506247044
 40
0.042
100
AcDbArc
 50
270.0
 51
347.0
  0
ARC
  5
301
100
AcDbEntity
  8
0
100
AcDbCircle
 62
7
  6
CONTINUOUS
 10
15.7381564935
 20
5.2506247044
 40
0.042
100
AcDbArc
 50
193.0
 51
270.0
  0
ARC
  5
302
100
AcDbEntity
  8
0
100
AcDbCircle
 62
7
  6
CONTINUOUS
 10
17.4881564935
 20
5.3346247044
 40
0.042
100
AcDbArc
 50
90.0
 51
167.0
  0
ARC
  5
303
100
AcDbEntity
  8
0
100
AcDbCircle
 62
7
  6
CONTINUOUS
 10
17.1325540204
 20
5.3346247044
 40
0.042
100
AcDbArc
 50
13.0
 51
90.0
  0
ARC
  5
304
100
AcDbEntity
  8
0
100
AcDbCircle
 62
7
  6
CONTINUOUS
 10
16.9881564935
 20
5.3346247044
 40
0.042
100
AcDbArc
 50
90.0
 51
167.0
  0
ARC
  5
305
100
AcDbEntity
  8
0
100
AcDbCircle
 62
7
  6
CONTINUOUS
 10
16.6325540204
 20
5.3346247044
 40
0.042
100
AcDbArc
 50
13.0
 51
90.0
  0
ARC
  5
306
100
AcDbEntity
  8
0
100
AcDbCircle
 62
7
  6
CONTINUOUS
 10
16.4881564935
 20
5.3346247044
 40
0.042
100
AcDbArc
 50
90.0
 51
167.0
  0
ARC
  5
307
100
AcDbEntity
  8
0
100
AcDbCircle
 62
7
  6
CONTINUOUS
 10
16.1325540204
 20
5.3346247044
 40
0.042
100
AcDbArc
 50
13.0
 51
90.0
  0
ARC
  5
308
100
AcDbEntity
  8
0
100
AcDbCircle
 62
7
  6
CONTINUOUS
 10
15.9881564935
 20
5.3346247044
 40
0.042
100
AcDbArc
 50
90.0
 51
167.0
  0
ARC
  5
309
100
AcDbEntity
  8
0
100
AcDbCircle
 62
7
  6
CONTINUOUS
 10
15.6325540204
 20
5.3346247044
 40
0.042
100
AcDbArc
 50
13.0
 51
90.0
  0
SPLINE
  5
30A
100
AcDbEntity
  8
0
100
AcDbSpline
 62
7
  6
CONTINUOUS
 70
0
 71
3
 72
15
 73
11
 74
0
 42
0.0000001
 43
0.0000001
 44
0.0000000001
 40
0.0
 40
0.0
 40
0.0
 40
0.0
 40
0.1295688378
 40
0.2645761676
 40
0.401266071
 40
0.5362716512
 40
0.6662156221
 40
0.7881006028
 40
0.8998140384
 40
1.0
 40
1.0
 40
1.0
 40
1.0
 10
16.738938203
 20
14.1818892868
 30
0.0
 10
16.7404864653
 20
14.1818892868
 30
0.0
 10
16.7436504225
 20
14.1816740523
 30
0.0
 10
16.7483729399
 20
14.1807901681
 30
0.0
 10
16.7530292425
 20
14.1793627136
 30
0.0
 10
16.7574411006
 20
14.1774473927
 30
0.0
 10
16.7614472858
 20
14.1751187156
 30
0.0
 10
16.7648993699
 20
14.1724573888
 30
0.0
 10
16.7676652153
 20
14.169561335
 30
0.0
 10
16.769063376
 20
14.1674237627
 30
0.0
 10
16.7695907745
 20
14.1663490376
 30
0.0
  0
SPLINE
  5
30B
100
AcDbEntity
  8
0
100
AcDbSpline
 62
7
  6
CONTINUOUS
 70
0
 71
3
 72
15
 73
11
 74
0
 42
0.0000001
 43
0.0000001
 44
0.0000000001
 40
0.0
 40
0.0
 40
0.0
 40
0.0
 40
0.0996458013
 40
0.2028717874
 40
0.312594084
 40
0.4308566396
 40
0.5588142981
 40
0.6968305561
 40
0.8443981219
 40
1.0
 40
1.0
 40
1.0
 40
1.0
 10
15.099308707
 20
14.1737302312
 30
0.0
 10
15.0994988222
 20
14.1743454707
 30
0.0
 10
15.1000374643
 20
14.1755564111
 30
0.0
 10
15.1012684539
 20
14.1771773531
 30
0.0
 10
15.1028918373
 20
14.1785925209
 30
0.0
 10
15.1048759944
 20
14.1797765827
 30
0.0
 10
15.1071835326
 20
14.1807152151
 30
0.0
 10
15.1097751504
 20
14.1813939355
 30
0.0
 10
15.1126020321
 20
14.1818016011
 30
0.0
 10
15.114562651
 20
14.1818892868
 30
0.0
 10
15.115568201
 20
14.1818892868
 30
0.0
  0
SPLINE
  5
30C
100
AcDbEntity
  8
0
100
AcDbSpline
 62
7
  6
CONTINUOUS
 70
0
 71
3
 72
11
 73
7
 74
0
 42
0.0000001
 43
0.0000001
 44
0.0000000001
 40
0.0
 40
0.0
 40
0.0
 40
0.0
 40
0.2336936819
 40
0.4747274464
 40
0.728954352
 40
1.0
 40
1.0
 40
1.0
 40
1.0
 10
14.1310434133
 20
11.0404225927
 30
0.0
 10
14.1308685588
 20
11.0398567389
 30
0.0
 10
14.1306382483
 20
11.0386645923
 30
0.0
 10
14.1306805468
 20
11.0368053147
 30
0.0
 10
14.1310983511
 20
11.0348981375
 30
0.0
 10
14.1315998136
 20
11.033658065
 30
0.0
 10
14.1319024292
 20
11.0330413991
 30
0.0
  0
SPLINE
  5
30D
100
AcDbEntity
  8
0
100
AcDbSpline
 62
7
  6
CONTINUOUS
 70
0
 71
3
 72
9
 73
5
 74
0
 42
0.0000001
 43
0.0000001
 44
0.0000000001
 40
0.0
 40
0.0
 40
0.0
 40
0.0
 40
0.5176005233
 40
1.0
 40
1.0
 40
1.0
 40
1.0
 10
16.7963840507
 20
14.1117500813
 30
0.0
 10
16.7976644934
 20
14.1091408133
 30
0.0
 10
16.7997662393
 20
14.1039028785
 30
0.0
 10
16.8008879663
 20
14.0983586637
 30
0.0
 10
16.8011406759
 20
14.0956616315
 30
0.0
  0
SPLINE
  5
30E
100
AcDbEntity
  8
0
100
AcDbSpline
 62
7
  6
CONTINUOUS
 70
0
 71
3
 72
14
 73
10
 74
0
 42
0.0000001
 43
0.0000001
 44
0.0000000001
 40
0.0
 40
0.0
 40
0.0
 40
0.0
 40
0.1556296512
 40
0.3032653062
 40
0.5688240253
 40
0.687131644
 40
0.7968672101
 40
0.900162419
 40
1.0
 40
1.0
 40
1.0
 40
1.0
 10
15.826697142
 20
10.839720699
 30
0.0
 10
15.8277022947
 20
10.839720699
 30
0.0
 10
15.8296632854
 20
10.8398085153
 30
0.0
 10
15.8333011378
 20
10.8403332038
 30
0.0
 10
15.8366217368
 20
10.8413772875
 30
0.0
 10
15.8393719672
 20
10.84301592
 30
0.0
 10
15.8409958104
 20
10.8444302667
 30
0.0
 10
15.8422272421
 20
10.8460516883
 30
0.0
 10
15.8427655495
 20
10.847263905
 30
0.0
 10
15.8429554177
 20
10.8478801305
 30
0.0
  0
SPLINE
  5
30F
100
AcDbEntity
  8
0
100
AcDbSpline
 62
7
  6
CONTINUOUS
 70
0
 71
3
 72
15
 73
11
 74
0
 42
0.0000001
 43
0.0000001
 44
0.0000000001
 40
0.0
 40
0.0
 40
0.0
 40
0.0
 40
0.1102072748
 40
0.2287227877
 40
0.3536321381
 40
0.4829519816
 40
0.6145654809
 40
0.7462243546
 40
0.8755866438
 40
1.0
 40
1.0
 40
1.0
 40
1.0
 10
14.2683726135
 20
10.8512388357
 30
0.0
 10
14.2691279484
 20
10.8503880018
 30
0.0
 10
14.2708305764
 20
10.8487398794
 30
0.0
 10
14.2737479442
 20
10.8465329257
 30
0.0
 10
14.2770590169
 20
10.8445581443
 30
0.0
 10
14.2806707765
 20
10.8428638398
 30
0.0
 10
14.2844922059
 20
10.841496037
 30
0.0
 10
14.288424292
 20
10.8404869955
 30
0.0
 10
14.2923610721
 20
10.8398697139
 30
0.0
 10
14.2949824122
 20
10.839720699
 30
0.0
 10
14.2962668091
 20
10.839720699
 30
0.0
  0
SPLINE
  5
310
100
AcDbEntity
  8
0
100
AcDbSpline
 62
7
  6
CONTINUOUS
 70
0
 71
3
 72
9
 73
5
 74
0
 42
0.0000001
 43
0.0000001
 44
0.0000000001
 40
0.0
 40
0.0
 40
0.0
 40
0.0
 40
0.4813568138
 40
1.0
 40
1.0
 40
1.0
 40
1.0
 10
14.1586957054
 20
10.9784424428
 30
0.0
 10
14.1600777896
 20
10.9756260514
 30
0.0
 10
14.1634248149
 20
10.9700027046
 30
0.0
 10
14.1674850943
 20
10.9648818373
 30
0.0
 10
14.1697292091
 20
10.962353993
 30
0.0
  0
SPLINE
  5
311
100
AcDbEntity
  8
0
100
AcDbSpline
 62
7
  6
CONTINUOUS
 70
0
 71
3
 72
9
 73
5
 74
0
 42
0.0000001
 43
0.0000001
 44
0.0000000001
 40
0.0
 40
0.0
 40
0.0
 40
0.0
 40
0.4823994767
 40
1.0
 40
1.0
 40
1.0
 40
1.0
 10
15.8328753823
 20
10.962353993
 30
0.0
 10
15.8326226727
 20
10.9650510252
 30
0.0
 10
15.8315009457
 20
10.97059524
 30
0.0
 10
15.8293991998
 20
10.9758331748
 30
0.0
 10
15.828118757
 20
10.9784424428
 30
0.0
  0
SPLINE
  5
312
100
AcDbEntity
  8
0
100
AcDbSpline
 62
7
  6
CONTINUOUS
 70
0
 71
3
 72
15
 73
11
 74
0
 42
0.0000001
 43
0.0000001
 44
0.0000000001
 40
0.0
 40
0.0
 40
0.0
 40
0.0
 40
0.1001859616
 40
0.2118993972
 40
0.3337843779
 40
0.4637283488
 40
0.598733929
 40
0.7354238324
 40
0.8704311622
 40
1.0
 40
1.0
 40
1.0
 40
1.0
 10
15.8013254809
 20
11.0330413991
 30
0.0
 10
15.8007980824
 20
11.0341161242
 30
0.0
 10
15.7993999217
 20
11.0362536965
 30
0.0
 10
15.7966340763
 20
11.0391497503
 30
0.0
 10
15.7931819921
 20
11.0418110771
 30
0.0
 10
15.7891758069
 20
11.0441397542
 30
0.0
 10
15.7847639489
 20
11.0460550751
 30
0.0
 10
15.7801076463
 20
11.0474825296
 30
0.0
 10
15.7753851288
 20
11.0483664138
 30
0.0
 10
15.7722211717
 20
11.0485816483
 30
0.0
 10
15.7706729093
 20
11.0485816483
 30
0.0
  0
SPLINE
  5
313
100
AcDbEntity
  8
0
100
AcDbSpline
 62
7
  6
CONTINUOUS
 70
0
 71
3
 72
15
 73
11
 74
0
 42
0.0000001
 43
0.0000001
 44
0.0000000001
 40
0.0
 40
0.0
 40
0.0
 40
0.0
 40
0.1556018781
 40
0.3031694439
 40
0.4411857019
 40
0.5691433604
 40
0.687405916
 40
0.7971282126
 40
0.9003541987
 40
1.0
 40
1.0
 40
1.0
 40
1.0
 10
14.1473029074
 20
11.0485816483
 30
0.0
 10
14.1462973573
 20
11.0485816483
 30
0.0
 10
14.1443367384
 20
11.0484939626
 30
0.0
 10
14.1415098567
 20
11.0480862969
 30
0.0
 10
14.1389182389
 20
11.0474075766
 30
0.0
 10
14.1366107007
 20
11.0464689441
 30
0.0
 10
14.1346265437
 20
11.0452848824
 30
0.0
 10
14.1330031603
 20
11.0438697146
 30
0.0
 10
14.1317721707
 20
11.0422487726
 30
0.0
 10
14.1312335286
 20
11.0410378322
 30
0.0
 10
14.1310434133
 20
11.0404225927
 30
0.0
  0
ENDSEC
  0
SECTION
  2
OBJECTS
  0
DICTIONARY
  5
C
100
AcDbDictionary
280
0
281
1
  3
ACAD_GROUP
350
D
  3
ACAD_MLINESTYLE
350
17
  3
ACAD_LAYOUT
350
1A
  3
ACAD_PLOTSETTINGS
350
19
  3
ACAD_PLOTSTYLENAME
350
E
  0
DICTIONARY
  5
D
102
{ACAD_REACTORS
330
C
102
}
100
AcDbDictionary
280
0
281
1
  0
ACDBDICTIONARYWDFLT
  5
E
102
{ACAD_REACTORS
330
C
102
}
100
AcDbDictionary
281
1
  3
Normal
350
F
100
AcDbDictionaryWithDefault
340
F
  0
DICTIONARY
  5
17
102
{ACAD_REACTORS
330
C
102
}
100
AcDbDictionary
280
0
281
1
  3
Standard
350
18
  0
DICTIONARY
  5
19
102
{ACAD_REACTORS
330
C
102
}
100
AcDbDictionary
281
1
  0
DICTIONARY
  5
1A
102
{ACAD_REACTORS
330
C
102
}
100
AcDbDictionary
281
1
  3
Model
350
314
  3
Layout1
350
315
  0
ACDBPLACEHOLDER
  5
F
102
{ACAD_REACTORS
330
E
102
}
  0
MLINESTYLE
  5
18
102
{ACAD_REACTORS
330
17
102
}
100
AcDbMlineStyle
  2
STANDARD
 70
0
  3

 62
256
 51
90.0
 52
90.0
 71
2
 49
0.5
 62
256
  6
BYLAYER
 49
-0.5
 62
256
  6
BYLAYER
  0
LAYOUT
  5
314
102
{ACAD_REACTORS
330
1A
102
}
100
AcDbPlotSettings
  1

  2
none_device
  4
ANSI_C_(22.00_x_17.00_Inches)
  6

 40
0.0
 41
0.0
 42
0.0
 43
0.0
 44
558.8
 45
431.8
 46
0.0
 47
0.0
 48
0.0
 49
0.0
140
0.0
141
0.0
142
1.0
143
1.0
 70
1024
 72
0
 73
0
 74
0
  7

 75
0
147
1.0
148
0.0
149
0.0
100
AcDbLayout
  1
Model
 70
0
 71
0
 10
0.0
 20
0.0
 11
22.0
 21
17.0
 12
0.0
 22
0.0
 32
0.0
 14
0.0
 24
0.0
 34
0.0
 15
0.0
 25
0.0
 35
0.0
146
0.0
 13
0.0
 23
0.0
 33
0.0
 16
1.0
 26
0.0
 36
0.0
 17
0.0
 27
1.0
 37
0.0
 76
0
330
216
345
0
346
0
  0
LAYOUT
  5
315
102
{ACAD_REACTORS
330
1A
102
}
100
AcDbPlotSettings
  1

  2
none_device
  4
ANSI_C_(22.00_x_17.00_Inches)
  6

 40
0.0
 41
0.0
 42
0.0
 43
0.0
 44
558.8
 45
431.8
 46
0.0
 47
0.0
 48
0.0
 49
0.0
140
0.0
141
0.0
142
1.0
143
1.0
 70
0
 72
0
 73
0
 74
0
  7

 75
0
147
1.0
148
0.0
149
0.0
100
AcDbLayout
  1
Layout1
 70
0
 71
1
 10
0.0
 20
0.0
 11
22.0
 21
17.0
 12
0.0
 22
0.0
 32
0.0
 14
0.0
 24
0.0
 34
0.0
 15
0.0
 25
0.0
 35
0.0
146
0.0
 13
0.0
 23
0.0
 33
0.0
 16
1.0
 26
0.0
 36
0.0
 17
0.0
 27
1.0
 37
0.0
 76
0
330
217
345
0
346
0
  0
ENDSEC
  0
EOF