999
DXF file: _cgs_temp_output.dxf
999
Pro/ENGINEER 2015110 by Parametric Technology Corporation
  0
SECTION
  2
HEADER
  9
$ACADVER
  1
AC1021
  9
$DWGCODEPAGE
  3
ANSI_1252
  9
$EXTMAX
 10
22.0
 20
17.0
 30
0.0
  9
$EXTMIN
 10
0.0
 20
0.0
 30
0.0
  9
$LIMMIN
 10
0.0
 20
0.0
  9
$LIMMAX
 10
22.0
 20
17.0
  9
$VIEWCTR
 10
11.0
 20
8.5
  9
$VIEWSIZE
 40
17.0
  9
$CLAYER
  8
0
  9
$LTSCALE
 40
1.21
  9
$CELTYPE
  6
BYLAYER
  9
$DIMSCALE
 40
1.0
  9
$DIMASZ
 40
0.1875
  9
$DIMEXO
 40
0.0625
  9
$DIMDLI
 40
0.836
  9
$DIMEXE
 40
0.125
  9
$DIMCEN
 40
0.198
  9
$DIMLFAC
 40
1.0
  9
$DIMBLK
  1
_CLOSED
  9
$DIMALT
 70
0
  9
$DIMALTF
 40
25.4
  9
$DIMTXT
 40
0.15625
  9
$DIMTOL
 70
0
  9
$DIMLIM
 70
0
  9
$DIMTFAC
 40
1.0
  9
$DIMGAP
 40
0.09
  9
$DIMDSEP
 70
46
  9
$AUNITS
 70
0
  9
$PDMODE
 70
3
  9
$PDSIZE
 40
0.3125
  9
$HANDSEED
  5
2A8
  9
$TILEMODE
 70
1
  9
$MEASUREMENT
 70
0
  9
$INSUNITS
 70
1
  0
ENDSEC
  0
SECTION
  2
CLASSES
  0
CLASS
  1
ACDBDICTIONARYWDFLT
  2
AcDbDictionaryWithDefault
  3
AutoCAD 2000
 90
0
 91
1
280
0
281
0
  0
CLASS
  1
ACDBPLACEHOLDER
  2
AcDbPlaceHolder
  3
AutoCAD 2000
 90
0
 91
1
280
0
281
0
  0
CLASS
  1
LAYOUT
  2
AcDbLayout
  3
AutoCAD 2000
 90
0
 91
0
280
0
281
0
  0
ENDSEC
  0
SECTION
  2
TABLES
  0
TABLE
  2
VPORT
  5
8
100
AcDbSymbolTable
 70
2
  0
VPORT
  5
1F4
100
AcDbSymbolTableRecord
100
AcDbViewportTableRecord
  2
*ACTIVE
 70
0
 10
0.0
 20
0.0
 11
1.0
 21
1.0
 12
11.0
 22
8.5
 13
0.0
 23
0.0
 14
1.0
 24
1.0
 15
0.0
 25
0.0
 16
0.0
 26
0.0
 36
1.0
 17
0.0
 27
0.0
 37
0.0
 40
17.0
 41
1.2941176471
 42
50.0
 43
0.0
 44
0.0
 50
0.0
 51
0.0
 71
0
 72
100
 73
1
 74
1
 75
0
 76
0
 77
0
 78
0
  0
ENDTAB
  0
TABLE
  2
LTYPE
  5
5
100
AcDbSymbolTable
 70
6
  0
LTYPE
  5
14
100
AcDbSymbolTableRecord
100
AcDbLinetypeTableRecord
  2
BYBLOCK
 70
0
  3

 72
65
 73
0
 40
0.0
  0
LTYPE
  5
15
100
AcDbSymbolTableRecord
100
AcDbLinetypeTableRecord
  2
BYLAYER
 70
0
  3

 72
65
 73
0
 40
0.0
  0
LTYPE
  5
16
100
AcDbSymbolTableRecord
100
AcDbLinetypeTableRecord
  2
CONTINUOUS
 70
64
  3
Solid line
 72
65
 73
0
 40
0.0
  0
LTYPE
  5
1F5
100
AcDbSymbolTableRecord
100
AcDbLinetypeTableRecord
  2
CENTER
 70
64
  3
____ _ ____ _ ____ _ ____ _ ____ _ ____ _ ____
 72
65
 73
4
 40
0.6
 49
0.375
 74
0
 49
-0.075
 74
0
 49
0.075
 74
0
 49
-0.075
 74
0
  0
LTYPE
  5
1F6
100
AcDbSymbolTableRecord
100
AcDbLinetypeTableRecord
  2
HIDDEN
 70
64
  3
- - - - - - - - - - - - - - - - - - - -
 72
65
 73
2
 40
0.2
 49
0.1
 74
0
 49
-0.1
 74
0
  0
LTYPE
  5
1F7
100
AcDbSymbolTableRecord
100
AcDbLinetypeTableRecord
  2
PHANTOM
 70
64
  3
_____ _ _ _____ _ _ _____ _ _ _____
 72
65
 73
6
 40
0.8
 49
0.45
 74
0
 49
-0.05
 74
0
 49
0.1
 74
0
 49
-0.05
 74
0
 49
0.1
 74
0
 49
-0.05
 74
0
  0
LTYPE
  5
1F8
100
AcDbSymbolTableRecord
100
AcDbLinetypeTableRecord
  2
DOT
 70
64
  3
. . . . . . . . . . . . . . . . . . . .
 72
65
 73
2
 40
0.2
 49
0.1
 74
0
 49
-0.1
 74
0
  0
LTYPE
  5
1F9
100
AcDbSymbolTableRecord
100
AcDbLinetypeTableRecord
  2
DASHED
 70
64
  3
- - - - - - - - - - - - - - - - - - - -
 72
65
 73
2
 40
0.2
 49
0.1
 74
0
 49
-0.1
 74
0
  0
ENDTAB
  0
TABLE
  2
LAYER
  5
2
100
AcDbSymbolTable
 70
36
  0
LAYER
  5
10
100
AcDbSymbolTableRecord
100
AcDbLayerTableRecord
  2
0
 70
0
 62
7
  6
CONTINUOUS
370
-3
390
F
  0
LAYER
  5
1FA
100
AcDbSymbolTableRecord
100
AcDbLayerTableRecord
  2
DEFAULT_1
 70
0
 62
7
  6
CENTER
370
-3
390
F
  0
LAYER
  5
1FB
100
AcDbSymbolTableRecord
100
AcDbLayerTableRecord
  2
DEFAULT_2
 70
0
 62
8
  6
HIDDEN
370
-3
390
F
  0
LAYER
  5
1FC
100
AcDbSymbolTableRecord
100
AcDbLayerTableRecord
  2
DEFAULT_3
 70
0
 62
7
  6
PHANTOM
370
-3
390
F
  0
LAYER
  5
1FD
100
AcDbSymbolTableRecord
100
AcDbLayerTableRecord
  2
01_ALL_DTM_PLN
 70
0
 62
7
  6
CONTINUOUS
370
-3
390
F
  0
LAYER
  5
1FE
100
AcDbSymbolTableRecord
100
AcDbLayerTableRecord
  2
01__ASM_ALL_DTM_PLN
 70
0
 62
7
  6
CONTINUOUS
370
-3
390
F
  0
LAYER
  5
1FF
100
AcDbSymbolTableRecord
100
AcDbLayerTableRecord
  2
01__ASM_DEF_DTM_PLN
 70
0
 62
7
  6
CONTINUOUS
370
-3
390
F
  0
LAYER
  5
200
100
AcDbSymbolTableRecord
100
AcDbLayerTableRecord
  2
01___PRT_ALL_DTM_PLN
 70
0
 62
7
  6
CONTINUOUS
370
-3
390
F
  0
LAYER
  5
201
100
AcDbSymbolTableRecord
100
AcDbLayerTableRecord
  2
01___PRT_DEF_DTM_PLN
 70
0
 62
7
  6
CONTINUOUS
370
-3
390
F
  0
LAYER
  5
202
100
AcDbSymbolTableRecord
100
AcDbLayerTableRecord
  2
02_ALL_AXES
 70
0
 62
7
  6
CONTINUOUS
370
-3
390
F
  0
LAYER
  5
203
100
AcDbSymbolTableRecord
100
AcDbLayerTableRecord
  2
02__ASM_ALL_AXES
 70
0
 62
7
  6
CONTINUOUS
370
-3
390
F
  0
LAYER
  5
204
100
AcDbSymbolTableRecord
100
AcDbLayerTableRecord
  2
02___PRT_ALL_AXES
 70
0
 62
7
  6
CONTINUOUS
370
-3
390
F
  0
LAYER
  5
205
100
AcDbSymbolTableRecord
100
AcDbLayerTableRecord
  2
03_ALL_CURVES
 70
0
 62
7
  6
CONTINUOUS
370
-3
390
F
  0
LAYER
  5
206
100
AcDbSymbolTableRecord
100
AcDbLayerTableRecord
  2
03__ASM_ALL_CURVES
 70
0
 62
7
  6
CONTINUOUS
370
-3
390
F
  0
LAYER
  5
207
100
AcDbSymbolTableRecord
100
AcDbLayerTableRecord
  2
03___PRT_ALL_CURVES
 70
0
 62
7
  6
CONTINUOUS
370
-3
390
F
  0
LAYER
  5
208
100
AcDbSymbolTableRecord
100
AcDbLayerTableRecord
  2
04_ALL_DTM_PNT
 70
0
 62
7
  6
CONTINUOUS
370
-3
390
F
  0
LAYER
  5
209
100
AcDbSymbolTableRecord
100
AcDbLayerTableRecord
  2
04__ASM_ALL_DTM_PNT
 70
0
 62
7
  6
CONTINUOUS
370
-3
390
F
  0
LAYER
  5
20A
100
AcDbSymbolTableRecord
100
AcDbLayerTableRecord
  2
04___PRT_ALL_DTM_PNT
 70
0
 62
7
  6
CONTINUOUS
370
-3
390
F
  0
LAYER
  5
20B
100
AcDbSymbolTableRecord
100
AcDbLayerTableRecord
  2
05_ALL_DTM_CSYS
 70
0
 62
7
  6
CONTINUOUS
370
-3
390
F
  0
LAYER
  5
20C
100
AcDbSymbolTableRecord
100
AcDbLayerTableRecord
  2
05__ASM_ALL_DTM_CSYS
 70
0
 62
7
  6
CONTINUOUS
370
-3
390
F
  0
LAYER
  5
20D
100
AcDbSymbolTableRecord
100
AcDbLayerTableRecord
  2
05__ASM_DEF_DTM_CSYS
 70
0
 62
7
  6
CONTINUOUS
370
-3
390
F
  0
LAYER
  5
20E
100
AcDbSymbolTableRecord
100
AcDbLayerTableRecord
  2
05___PRT_ALL_DTM_CSYS
 70
0
 62
7
  6
CONTINUOUS
370
-3
390
F
  0
LAYER
  5
20F
100
AcDbSymbolTableRecord
100
AcDbLayerTableRecord
  2
05___PRT_DEF_DTM_CSYS
 70
0
 62
7
  6
CONTINUOUS
370
-3
390
F
  0
LAYER
  5
210
100
AcDbSymbolTableRecord
100
AcDbLayerTableRecord
  2
06_ALL_SURFS
 70
0
 62
7
  6
CONTINUOUS
370
-3
390
F
  0
LAYER
  5
211
100
AcDbSymbolTableRecord
100
AcDbLayerTableRecord
  2
06__ASM_ALL_SURFS
 70
0
 62
7
  6
CONTINUOUS
370
-3
390
F
  0
LAYER
  5
212
100
AcDbSymbolTableRecord
100
AcDbLayerTableRecord
  2
06___PRT_ALL_SURFS
 70
0
 62
7
  6
CONTINUOUS
370
-3
390
F
  0
LAYER
  5
213
100
AcDbSymbolTableRecord
100
AcDbLayerTableRecord
  2
07__ASM_ALL_SKELETONS
 70
0
 62
7
  6
CONTINUOUS
370
-3
390
F
  0
ENDTAB
  0
TABLE
  2
STYLE
  5
3
100
AcDbSymbolTable
 70
1
  0
STYLE
  5
11
100
AcDbSymbolTableRecord
100
AcDbTextStyleTableRecord
  2
STANDARD
 70
0
 40
0.0
 41
0.8
 50
0.0
 71
0
 42
0.2
  3
txt
  4

  0
STYLE
  5
214
100
AcDbSymbolTableRecord
100
AcDbTextStyleTableRecord
  2
TEXTSTYLE_1
 70
0
 40
0.0
 41
0.8
 50
0.0
 71
0
 42
0.2
  3
gdt
  4

  0
ENDTAB
  0
TABLE
  2
VIEW
  5
6
100
AcDbSymbolTable
 70
0
  0
ENDTAB
  0
TABLE
  2
UCS
  5
7
100
AcDbSymbolTable
 70
0
  0
ENDTAB
  0
TABLE
  2
APPID
  5
9
100
AcDbSymbolTable
 70
1
  0
APPID
  5
215
100
AcDbSymbolTableRecord
100
AcDbRegAppTableRecord
  2
ACAD
 70
0
  0
ENDTAB
  0
TABLE
  2
BLOCK_RECORD
  5
1
100
AcDbSymbolTable
 70
0
  0
BLOCK_RECORD
  5
216
100
AcDbSymbolTableRecord
100
AcDbBlockTableRecord
  2
*Model_Space
  0
BLOCK_RECORD
  5
217
100
AcDbSymbolTableRecord
100
AcDbBlockTableRecord
  2
*Paper_Space
  0
ENDTAB
  0
TABLE
  2
DIMSTYLE
  5
A
100
AcDbSymbolTable
 70
1
100
AcDbDimStyleTable
 71
0
  0
DIMSTYLE
105
218
100
AcDbSymbolTableRecord
100
AcDbDimStyleTableRecord
  2
STANDARD
 70
0
  3

  4

 40
1.0
 41
0.1875
 42
0.0625
 43
0.38
 44
0.125
 45
0.0
 46
0.0
 47
0.0001
 48
0.0001
140
0.15625
141
0.09
142
0.0
143
25.4
144
1.0
145
0.0
146
1.0
147
0.09
 71
0.0
 72
0.0
 73
1
 74
1
 75
0
 76
0
 77
0
 78
4
170
0
171
2
172
0
173
0
174
0
175
0
176
0
177
0
178
0
270
2
271
4
272
4
273
2
274
2
275
0
280
0
281
0
282
0
283
1
284
4
285
0
286
0
287
3
288
0
340
11
278
46
  0
ENDTAB
  0
ENDSEC
  0
SECTION
  2
BLOCKS
  0
BLOCK
  5
20
100
AcDbEntity
  8
0
100
AcDbBlockBegin
  2
*Model_Space
 70
0
 10
0.0
 20
0.0
 30
0.0
  3
*Model_Space
  1

  0
ENDBLK
  5
21
100
AcDbEntity
  8
0
100
AcDbBlockEnd
  0
BLOCK
  5
1C
100
AcDbEntity
  8
0
100
AcDbBlockBegin
  2
*Paper_Space
 70
0
 10
0.0
 20
0.0
 30
0.0
  3
*Paper_Space
  1

  0
ENDBLK
  5
1D
100
AcDbEntity
  8
0
100
AcDbBlockEnd
  0
ENDSEC
  0
SECTION
  2
ENTITIES
  0
MTEXT
  5
219
100
AcDbEntity
  8
0
100
AcDbMText
 62
7
  6
CONTINUOUS
  7
STANDARD
 71
1
 72
1
 10
15.9560215477
 20
0.9479130325
 30
0.0
 11
1.0
 21
0.0
 31
0.0
 44
0.9
  1
SCALE: 1:8.000
 40
0.3
 41
3.36
  0
LINE
  5
21A
100
AcDbEntity
  8
0
100
AcDbLine
 62
7
  6
CONTINUOUS
 10
0.0
 20
0.0
 11
0.0
 21
17.0
  0
LINE
  5
21B
100
AcDbEntity
  8
0
100
AcDbLine
 62
7
  6
CONTINUOUS
 10
0.0
 20
0.0
 11
22.0
 21
0.0
  0
LINE
  5
21C
100
AcDbEntity
  8
0
100
AcDbLine
 62
7
  6
CONTINUOUS
 10
0.0
 20
17.0
 11
22.0
 21
17.0
  0
LINE
  5
21D
100
AcDbEntity
  8
0
100
AcDbLine
 62
7
  6
CONTINUOUS
 10
22.0
 20
0.0
 11
22.0
 21
17.0
  0
LINE
  5
21E
100
AcDbEntity
  8
0
100
AcDbLine
 62
7
  6
CONTINUOUS
 10
4.2406034966
 20
5.7594899755
 11
4.2406034966
 21
5.5201198968
  0
LINE
  5
21F
100
AcDbEntity
  8
0
100
AcDbLine
 62
7
  6
CONTINUOUS
 10
4.473703731
 20
5.280749818
 11
4.6374245221
 21
5.280749818
  0
LINE
  5
220
100
AcDbEntity
  8
0
100
AcDbLine
 62
7
  6
CONTINUOUS
 10
5.1036249909
 20
5.280749818
 11
5.2673457819
 21
5.280749818
  0
LINE
  5
221
100
AcDbEntity
  8
0
100
AcDbLine
 62
7
  6
CONTINUOUS
 10
5.7335462507
 20
5.280749818
 11
5.8972670418
 21
5.280749818
  0
LINE
  5
222
100
AcDbEntity
  8
0
100
AcDbLine
 62
7
  6
CONTINUOUS
 10
6.3634675105
 20
5.280749818
 11
6.5271883016
 21
5.280749818
  0
LINE
  5
223
100
AcDbEntity
  8
0
100
AcDbLine
 62
7
  6
CONTINUOUS
 10
6.9933887704
 20
5.280749818
 11
7.1571095615
 21
5.280749818
  0
LINE
  5
224
100
AcDbEntity
  8
0
100
AcDbLine
 62
7
  6
CONTINUOUS
 10
7.6233100302
 20
5.280749818
 11
7.7870308213
 21
5.280749818
  0
LINE
  5
225
100
AcDbEntity
  8
0
100
AcDbLine
 62
7
  6
CONTINUOUS
 10
4.2406034966
 20
5.5201198968
 11
4.3089546253
 21
5.5201198968
  0
LINE
  5
226
100
AcDbEntity
  8
0
100
AcDbLine
 62
7
  6
CONTINUOUS
 10
4.8021736278
 20
5.5201198968
 11
4.9388758851
 21
5.5201198968
  0
LINE
  5
227
100
AcDbEntity
  8
0
100
AcDbLine
 62
7
  6
CONTINUOUS
 10
5.4320948877
 20
5.5201198968
 11
5.568797145
 21
5.5201198968
  0
LINE
  5
228
100
AcDbEntity
  8
0
100
AcDbLine
 62
7
  6
CONTINUOUS
 10
6.0620161475
 20
5.5201198968
 11
6.1987184048
 21
5.5201198968
  0
LINE
  5
229
100
AcDbEntity
  8
0
100
AcDbLine
 62
7
  6
CONTINUOUS
 10
6.6919374074
 20
5.5201198968
 11
6.8286396647
 21
5.5201198968
  0
LINE
  5
22A
100
AcDbEntity
  8
0
100
AcDbLine
 62
7
  6
CONTINUOUS
 10
7.3218586672
 20
5.5201198968
 11
7.4585609245
 21
5.5201198968
  0
LINE
  5
22B
100
AcDbEntity
  8
0
100
AcDbLine
 62
7
  6
CONTINUOUS
 10
7.951779927
 20
5.5201198968
 11
8.0201310557
 21
5.5201198968
  0
LINE
  5
22C
100
AcDbEntity
  8
0
100
AcDbLine
 62
7
  6
CONTINUOUS
 10
8.0201310557
 20
5.7594899755
 11
4.2406034966
 21
5.7594899755
  0
LINE
  5
22D
100
AcDbEntity
  8
0
100
AcDbLine
 62
7
  6
CONTINUOUS
 10
8.0201310557
 20
5.5201198968
 11
8.0201310557
 21
5.7594899755
  0
LINE
  5
22E
100
AcDbEntity
  8
0
100
AcDbLine
 62
7
  6
CONTINUOUS
 10
4.1811083043
 20
13.5449296711
 11
4.1811083043
 21
11.6551658916
  0
LINE
  5
22F
100
AcDbEntity
  8
0
100
AcDbLine
 62
7
  6
CONTINUOUS
 10
7.9606358634
 20
11.6551658916
 11
4.1811083043
 21
11.6551658916
  0
LINE
  5
230
100
AcDbEntity
  8
0
100
AcDbLine
 62
7
  6
CONTINUOUS
 10
4.1811083043
 20
13.5449296711
 11
7.9606358634
 21
13.5449296711
  0
LINE
  5
231
100
AcDbEntity
  8
0
100
AcDbLine
 62
7
  6
CONTINUOUS
 10
7.9606358634
 20
13.5449296711
 11
7.9606358634
 21
11.6551658916
  0
LINE
  5
232
100
AcDbEntity
  8
0
100
AcDbLine
 62
7
  6
CONTINUOUS
 10
14.6154733672
 20
5.2212546257
 11
14.6154733672
 21
5.6999947832
  0
LINE
  5
233
100
AcDbEntity
  8
0
100
AcDbLine
 62
7
  6
CONTINUOUS
 10
14.6154733672
 20
5.2212546257
 11
16.5052371467
 21
5.2212546257
  0
LINE
  5
234
100
AcDbEntity
  8
0
100
AcDbLine
 62
7
  6
CONTINUOUS
 10
16.5052371467
 20
5.4606247044
 11
14.6154733672
 21
5.4606247044
  0
LINE
  5
235
100
AcDbEntity
  8
0
100
AcDbLine
 62
7
  6
CONTINUOUS
 10
16.5052371467
 20
5.6999947832
 11
14.6154733672
 21
5.6999947832
  0
LINE
  5
236
100
AcDbEntity
  8
0
100
AcDbLine
 62
7
  6
CONTINUOUS
 10
16.5052371467
 20
5.2212546257
 11
16.5052371467
 21
5.6999947832
  0
LINE
  5
237
100
AcDbEntity
  8
0
100
AcDbLine
 62
7
  6
CONTINUOUS
 10
13.4652917303
 20
11.9194484093
 11
13.538309626
 21
11.7706535822
  0
LINE
  5
238
100
AcDbEntity
  8
0
100
AcDbLine
 62
7
  6
CONTINUOUS
 10
13.9227399006
 20
13.3997512306
 11
13.4652917303
 21
11.9194484093
  0
LINE
  5
239
100
AcDbEntity
  8
0
100
AcDbLine
 62
7
  6
CONTINUOUS
 10
14.0280377177
 20
11.6475557076
 11
14.0286157617
 21
11.6497835461
  0
LINE
  5
23A
100
AcDbEntity
  8
0
100
AcDbLine
 62
7
  6
CONTINUOUS
 10
14.028713663
 20
11.6497532923
 11
14.0660746783
 21
11.7706535822
  0
LINE
  5
23B
100
AcDbEntity
  8
0
100
AcDbLine
 62
7
  6
CONTINUOUS
 10
13.8260270552
 20
11.6218587552
 11
13.9768238898
 21
11.6218587552
  0
LINE
  5
23C
100
AcDbEntity
  8
0
100
AcDbLine
 62
7
  6
CONTINUOUS
 10
14.4062229569
 20
11.6218587552
 11
14.5570197915
 21
11.6218587552
  0
LINE
  5
23D
100
AcDbEntity
  8
0
100
AcDbLine
 62
7
  6
CONTINUOUS
 10
14.9864188587
 20
11.6218587552
 11
15.1372156932
 21
11.6218587552
  0
LINE
  5
23E
100
AcDbEntity
  8
0
100
AcDbLine
 62
7
  6
CONTINUOUS
 10
15.5666147604
 20
11.6218587552
 11
15.717411595
 21
11.6218587552
  0
LINE
  5
23F
100
AcDbEntity
  8
0
100
AcDbLine
 62
7
  6
CONTINUOUS
 10
16.1468106621
 20
11.6218587552
 11
16.2976074967
 21
11.6218587552
  0
LINE
  5
240
100
AcDbEntity
  8
0
100
AcDbLine
 62
7
  6
CONTINUOUS
 10
16.7270065639
 20
11.6218587552
 11
16.8778033984
 21
11.6218587552
  0
LINE
  5
241
100
AcDbEntity
  8
0
100
AcDbLine
 62
7
  6
CONTINUOUS
 10
13.538309626
 20
11.7706535822
 11
13.6012651845
 21
11.7706535822
  0
LINE
  5
242
100
AcDbEntity
  8
0
100
AcDbLine
 62
7
  6
CONTINUOUS
 10
14.0555499692
 20
11.7706535822
 11
14.1814610862
 21
11.7706535822
  0
LINE
  5
243
100
AcDbEntity
  8
0
100
AcDbLine
 62
7
  6
CONTINUOUS
 10
14.635745871
 20
11.7706535822
 11
14.7616569879
 21
11.7706535822
  0
LINE
  5
244
100
AcDbEntity
  8
0
100
AcDbLine
 62
7
  6
CONTINUOUS
 10
15.2159417727
 20
11.7706535822
 11
15.3418528897
 21
11.7706535822
  0
LINE
  5
245
100
AcDbEntity
  8
0
100
AcDbLine
 62
7
  6
CONTINUOUS
 10
15.7961376744
 20
11.7706535822
 11
15.9220487914
 21
11.7706535822
  0
LINE
  5
246
100
AcDbEntity
  8
0
100
AcDbLine
 62
7
  6
CONTINUOUS
 10
16.3763335762
 20
11.7706535822
 11
16.5022446931
 21
11.7706535822
  0
LINE
  5
247
100
AcDbEntity
  8
0
100
AcDbLine
 62
7
  6
CONTINUOUS
 10
16.9565294779
 20
11.7706535822
 11
17.0194850364
 21
11.7706535822
  0
LINE
  5
248
100
AcDbEntity
  8
0
100
AcDbLine
 62
7
  6
CONTINUOUS
 10
14.6082336194
 20
11.6475557076
 11
14.6088116634
 21
11.6497835461
  0
LINE
  5
249
100
AcDbEntity
  8
0
100
AcDbLine
 62
7
  6
CONTINUOUS
 10
14.6089095647
 20
11.6497532923
 11
14.64627058
 21
11.7706535822
  0
LINE
  5
24A
100
AcDbEntity
  8
0
100
AcDbLine
 62
7
  6
CONTINUOUS
 10
16.9464671408
 20
11.9194484093
 11
13.4652917303
 21
11.9194484093
  0
LINE
  5
24B
100
AcDbEntity
  8
0
100
AcDbLine
 62
7
  6
CONTINUOUS
 10
15.1884295211
 20
11.6475557076
 11
15.1890075651
 21
11.6497835461
  0
LINE
  5
24C
100
AcDbEntity
  8
0
100
AcDbLine
 62
7
  6
CONTINUOUS
 10
15.1891054664
 20
11.6497532923
 11
15.2264664817
 21
11.7706535822
  0
LINE
  5
24D
100
AcDbEntity
  8
0
100
AcDbLine
 62
7
  6
CONTINUOUS
 10
15.7686254229
 20
11.6475557076
 11
15.7692034669
 21
11.6497835461
  0
LINE
  5
24E
100
AcDbEntity
  8
0
100
AcDbLine
 62
7
  6
CONTINUOUS
 10
15.7693013682
 20
11.6497532923
 11
15.8066623835
 21
11.7706535822
  0
LINE
  5
24F
100
AcDbEntity
  8
0
100
AcDbLine
 62
7
  6
CONTINUOUS
 10
13.9227399006
 20
13.3997512306
 11
17.403915311
 21
13.3997512306
  0
LINE
  5
250
100
AcDbEntity
  8
0
100
AcDbLine
 62
7
  6
CONTINUOUS
 10
16.3488213246
 20
11.6475557076
 11
16.3493993686
 21
11.6497835461
  0
LINE
  5
251
100
AcDbEntity
  8
0
100
AcDbLine
 62
7
  6
CONTINUOUS
 10
16.3494972699
 20
11.6497532923
 11
16.3868582852
 21
11.7706535822
  0
LINE
  5
252
100
AcDbEntity
  8
0
100
AcDbLine
 62
7
  6
CONTINUOUS
 10
17.0194850364
 20
11.7706535822
 11
16.9464671408
 21
11.9194484093
  0
LINE
  5
253
100
AcDbEntity
  8
0
100
AcDbLine
 62
7
  6
CONTINUOUS
 10
16.9290172263
 20
11.6475557076
 11
16.9295952703
 21
11.6497835461
  0
LINE
  5
254
100
AcDbEntity
  8
0
100
AcDbLine
 62
7
  6
CONTINUOUS
 10
17.403915311
 20
13.3997512306
 11
16.9464671408
 21
11.9194484093
  0
LINE
  5
255
100
AcDbEntity
  8
0
100
AcDbLine
 62
7
  6
CONTINUOUS
 10
16.9296931716
 20
11.6497532923
 11
16.9670541869
 21
11.7706535822
  0
LINE
  5
256
100
AcDbEntity
  8
0
100
AcDbLine
 62
7
  6
CONTINUOUS
 10
17.4769332066
 20
13.2509564036
 11
17.0194850364
 21
11.7706535822
  0
LINE
  5
257
100
AcDbEntity
  8
0
100
AcDbLine
 62
7
  6
CONTINUOUS
 10
17.4769332066
 20
13.2509564036
 11
17.403915311
 21
13.3997512306
  0
ARC
  5
258
100
AcDbEntity
  8
0
100
AcDbCircle
 62
7
  6
CONTINUOUS
 10
4.2996586147
 20
5.5201198968
 40
0.4527559055
100
AcDbArc
 50
334.5658365402
 51
354.0364298817
  0
ARC
  5
259
100
AcDbEntity
  8
0
100
AcDbCircle
 62
7
  6
CONTINUOUS
 10
5.4413908982
 20
5.5201198968
 40
0.4527559055
100
AcDbArc
 50
185.9635701183
 51
205.4341634598
  0
ARC
  5
25A
100
AcDbEntity
  8
0
100
AcDbCircle
 62
7
  6
CONTINUOUS
 10
4.9295798746
 20
5.5201198968
 40
0.4527559055
100
AcDbArc
 50
334.5658365402
 51
354.0364298817
  0
ARC
  5
25B
100
AcDbEntity
  8
0
100
AcDbCircle
 62
7
  6
CONTINUOUS
 10
6.0713121581
 20
5.5201198968
 40
0.4527559055
100
AcDbArc
 50
185.9635701183
 51
205.4341634598
  0
ARC
  5
25C
100
AcDbEntity
  8
0
100
AcDbCircle
 62
7
  6
CONTINUOUS
 10
5.5595011344
 20
5.5201198968
 40
0.4527559055
100
AcDbArc
 50
334.5658365402
 51
354.0364298817
  0
ARC
  5
25D
100
AcDbEntity
  8
0
100
AcDbCircle
 62
7
  6
CONTINUOUS
 10
6.7012334179
 20
5.5201198968
 40
0.4527559055
100
AcDbArc
 50
185.9635701183
 51
205.4341634598
  0
ARC
  5
25E
100
AcDbEntity
  8
0
100
AcDbCircle
 62
7
  6
CONTINUOUS
 10
4.8114696384
 20
5.5201198968
 40
0.4527559055
100
AcDbArc
 50
185.9635701183
 51
205.4341634598
  0
ARC
  5
25F
100
AcDbEntity
  8
0
100
AcDbCircle
 62
7
  6
CONTINUOUS
 10
7.449264914
 20
5.5201198968
 40
0.4527559055
100
AcDbArc
 50
334.5658365402
 51
354.0364298817
  0
ARC
  5
260
100
AcDbEntity
  8
0
100
AcDbCircle
 62
7
  6
CONTINUOUS
 10
7.9610759376
 20
5.5201198968
 40
0.4527559055
100
AcDbArc
 50
185.9635701183
 51
205.4341634598
  0
ARC
  5
261
100
AcDbEntity
  8
0
100
AcDbCircle
 62
7
  6
CONTINUOUS
 10
6.8193436541
 20
5.5201198968
 40
0.4527559055
100
AcDbArc
 50
334.5658365402
 51
354.0364298817
  0
ARC
  5
262
100
AcDbEntity
  8
0
100
AcDbCircle
 62
7
  6
CONTINUOUS
 10
7.3311546777
 20
5.5201198968
 40
0.4527559055
100
AcDbArc
 50
185.9635701183
 51
205.4341634598
  0
ARC
  5
263
100
AcDbEntity
  8
0
100
AcDbCircle
 62
7
  6
CONTINUOUS
 10
6.1894223943
 20
5.5201198968
 40
0.4527559055
100
AcDbArc
 50
334.5658365402
 51
354.0364298817
  0
ARC
  5
264
100
AcDbEntity
  8
0
100
AcDbCircle
 62
7
  6
CONTINUOUS
 10
4.473703731
 20
5.3594899755
 40
0.0787401575
100
AcDbArc
 50
205.4341634598
 51
270.0
  0
ARC
  5
265
100
AcDbEntity
  8
0
100
AcDbCircle
 62
7
  6
CONTINUOUS
 10
4.6374245221
 20
5.3594899755
 40
0.0787401575
100
AcDbArc
 50
270.0
 51
334.5658365402
  0
ARC
  5
266
100
AcDbEntity
  8
0
100
AcDbCircle
 62
7
  6
CONTINUOUS
 10
5.1036249909
 20
5.3594899755
 40
0.0787401575
100
AcDbArc
 50
205.4341634598
 51
270.0
  0
ARC
  5
267
100
AcDbEntity
  8
0
100
AcDbCircle
 62
7
  6
CONTINUOUS
 10
5.2673457819
 20
5.3594899755
 40
0.0787401575
100
AcDbArc
 50
270.0
 51
334.5658365402
  0
ARC
  5
268
100
AcDbEntity
  8
0
100
AcDbCircle
 62
7
  6
CONTINUOUS
 10
5.7335462507
 20
5.3594899755
 40
0.0787401575
100
AcDbArc
 50
205.4341634598
 51
270.0
  0
ARC
  5
269
100
AcDbEntity
  8
0
100
AcDbCircle
 62
7
  6
CONTINUOUS
 10
5.8972670418
 20
5.3594899755
 40
0.0787401575
100
AcDbArc
 50
270.0
 51
334.5658365402
  0
ARC
  5
26A
100
AcDbEntity
  8
0
100
AcDbCircle
 62
7
  6
CONTINUOUS
 10
6.3634675105
 20
5.3594899755
 40
0.0787401575
100
AcDbArc
 50
205.4341634598
 51
270.0
  0
ARC
  5
26B
100
AcDbEntity
  8
0
100
AcDbCircle
 62
7
  6
CONTINUOUS
 10
7.7870308213
 20
5.3594899755
 40
0.0787401575
100
AcDbArc
 50
270.0
 51
334.5658365402
  0
ARC
  5
26C
100
AcDbEntity
  8
0
100
AcDbCircle
 62
7
  6
CONTINUOUS
 10
7.6233100302
 20
5.3594899755
 40
0.0787401575
100
AcDbArc
 50
205.4341634598
 51
270.0
  0
ARC
  5
26D
100
AcDbEntity
  8
0
100
AcDbCircle
 62
7
  6
CONTINUOUS
 10
7.1571095615
 20
5.3594899755
 40
0.0787401575
100
AcDbArc
 50
270.0
 51
334.5658365402
  0
ARC
  5
26E
100
AcDbEntity
  8
0
100
AcDbCircle
 62
7
  6
CONTINUOUS
 10
6.9933887704
 20
5.3594899755
 40
0.0787401575
100
AcDbArc
 50
205.4341634598
 51
270.0
  0
ARC
  5
26F
100
AcDbEntity
  8
0
100
AcDbCircle
 62
7
  6
CONTINUOUS
 10
6.5271883016
 20
5.3594899755
 40
0.0787401575
100
AcDbArc
 50
270.0
 51
334.5658365402
  0
ARC
  5
270
100
AcDbEntity
  8
0
100
AcDbCircle
 62
7
  6
CONTINUOUS
 10
4.3089546253
 20
5.4676264584
 40
0.0524934383
100
AcDbArc
 50
5.9635701183
 51
90.0
  0
ARC
  5
271
100
AcDbEntity
  8
0
100
AcDbCircle
 62
7
  6
CONTINUOUS
 10
4.8021736278
 20
5.4676264584
 40
0.0524934383
100
AcDbArc
 50
90.0
 51
174.0364298817
  0
ARC
  5
272
100
AcDbEntity
  8
0
100
AcDbCircle
 62
7
  6
CONTINUOUS
 10
4.9388758851
 20
5.4676264584
 40
0.0524934383
100
AcDbArc
 50
5.9635701183
 51
90.0
  0
ARC
  5
273
100
AcDbEntity
  8
0
100
AcDbCircle
 62
7
  6
CONTINUOUS
 10
5.4320948877
 20
5.4676264584
 40
0.0524934383
100
AcDbArc
 50
90.0
 51
174.0364298817
  0
ARC
  5
274
100
AcDbEntity
  8
0
100
AcDbCircle
 62
7
  6
CONTINUOUS
 10
5.568797145
 20
5.4676264584
 40
0.0524934383
100
AcDbArc
 50
5.9635701183
 51
90.0
  0
ARC
  5
275
100
AcDbEntity
  8
0
100
AcDbCircle
 62
7
  6
CONTINUOUS
 10
6.0620161475
 20
5.4676264584
 40
0.0524934383
100
AcDbArc
 50
90.0
 51
174.0364298817
  0
ARC
  5
276
100
AcDbEntity
  8
0
100
AcDbCircle
 62
7
  6
CONTINUOUS
 10
6.1987184048
 20
5.4676264584
 40
0.0524934383
100
AcDbArc
 50
5.9635701183
 51
90.0
  0
ARC
  5
277
100
AcDbEntity
  8
0
100
AcDbCircle
 62
7
  6
CONTINUOUS
 10
6.6919374074
 20
5.4676264584
 40
0.0524934383
100
AcDbArc
 50
90.0
 51
174.0364298817
  0
ARC
  5
278
100
AcDbEntity
  8
0
100
AcDbCircle
 62
7
  6
CONTINUOUS
 10
6.8286396647
 20
5.4676264584
 40
0.0524934383
100
AcDbArc
 50
5.9635701183
 51
90.0
  0
ARC
  5
279
100
AcDbEntity
  8
0
100
AcDbCircle
 62
7
  6
CONTINUOUS
 10
7.3218586672
 20
5.4676264584
 40
0.0524934383
100
AcDbArc
 50
90.0
 51
174.0364298817
  0
ARC
  5
27A
100
AcDbEntity
  8
0
100
AcDbCircle
 62
7
  6
CONTINUOUS
 10
7.4585609245
 20
5.4676264584
 40
0.0524934383
100
AcDbArc
 50
5.9635701183
 51
90.0
  0
ARC
  5
27B
100
AcDbEntity
  8
0
100
AcDbCircle
 62
7
  6
CONTINUOUS
 10
7.951779927
 20
5.4676264584
 40
0.0524934383
100
AcDbArc
 50
90.0
 51
174.0364298817
  0
SPLINE
  5
27C
100
AcDbEntity
  8
0
100
AcDbSpline
 62
7
  6
CONTINUOUS
 70
0
 71
3
 72
13
 73
9
 74
0
 42
0.0000001
 43
0.0000001
 44
0.0000000001
 40
0.0
 40
0.0
 40
0.0
 40
0.0
 40
0.0997545722
 40
0.2030713902
 40
0.3129071469
 40
0.4313208365
 40
0.6968560592
 40
1.0
 40
1.0
 40
1.0
 40
1.0
 10
14.0214094673
 20
11.7535216612
 30
0.0
 10
14.0218086997
 20
11.7548137056
 30
0.0
 10
14.0229405275
 20
11.7573559405
 30
0.0
 10
14.0255224003
 20
11.7607620043
 30
0.0
 10
14.0289337515
 20
11.7637320405
 30
0.0
 10
14.0347083851
 20
11.7671751184
 30
0.0
 10
14.0437079478
 20
11.7700041854
 30
0.0
 10
14.0514404119
 20
11.7706535822
 30
0.0
 10
14.0555499692
 20
11.7706535822
 30
0.0
  0
SPLINE
  5
27D
100
AcDbEntity
  8
0
100
AcDbSpline
 62
7
  6
CONTINUOUS
 70
0
 71
3
 72
13
 73
9
 74
0
 42
0.0000001
 43
0.0000001
 44
0.0000000001
 40
0.0
 40
0.0
 40
0.0
 40
0.0
 40
0.0997545722
 40
0.2030713902
 40
0.3129071469
 40
0.4313208365
 40
0.6968560592
 40
1.0
 40
1.0
 40
1.0
 40
1.0
 10
14.601605369
 20
11.7535216612
 30
0.0
 10
14.6020046015
 20
11.7548137056
 30
0.0
 10
14.6031364293
 20
11.7573559405
 30
0.0
 10
14.605718302
 20
11.7607620043
 30
0.0
 10
14.6091296532
 20
11.7637320405
 30
0.0
 10
14.6149042869
 20
11.7671751184
 30
0.0
 10
14.6239038496
 20
11.7700041854
 30
0.0
 10
14.6316363137
 20
11.7706535822
 30
0.0
 10
14.635745871
 20
11.7706535822
 30
0.0
  0
SPLINE
  5
27E
100
AcDbEntity
  8
0
100
AcDbSpline
 62
7
  6
CONTINUOUS
 70
0
 71
3
 72
13
 73
9
 74
0
 42
0.0000001
 43
0.0000001
 44
0.0000000001
 40
0.0
 40
0.0
 40
0.0
 40
0.0
 40
0.0997545722
 40
0.2030713902
 40
0.3129071469
 40
0.4313208365
 40
0.6968560592
 40
1.0
 40
1.0
 40
1.0
 40
1.0
 10
15.1818012708
 20
11.7535216612
 30
0.0
 10
15.1822005032
 20
11.7548137056
 30
0.0
 10
15.183332331
 20
11.7573559405
 30
0.0
 10
15.1859142037
 20
11.7607620043
 30
0.0
 10
15.189325555
 20
11.7637320405
 30
0.0
 10
15.1951001886
 20
11.7671751184
 30
0.0
 10
15.2040997513
 20
11.7700041854
 30
0.0
 10
15.2118322154
 20
11.7706535822
 30
0.0
 10
15.2159417727
 20
11.7706535822
 30
0.0
  0
SPLINE
  5
27F
100
AcDbEntity
  8
0
100
AcDbSpline
 62
7
  6
CONTINUOUS
 70
0
 71
3
 72
13
 73
9
 74
0
 42
0.0000001
 43
0.0000001
 44
0.0000000001
 40
0.0
 40
0.0
 40
0.0
 40
0.0
 40
0.0997545722
 40
0.2030713902
 40
0.3129071469
 40
0.4313208365
 40
0.6968560592
 40
1.0
 40
1.0
 40
1.0
 40
1.0
 10
15.7619971725
 20
11.7535216612
 30
0.0
 10
15.7623964049
 20
11.7548137056
 30
0.0
 10
15.7635282327
 20
11.7573559405
 30
0.0
 10
15.7661101055
 20
11.7607620043
 30
0.0
 10
15.7695214567
 20
11.7637320405
 30
0.0
 10
15.7752960904
 20
11.7671751184
 30
0.0
 10
15.784295653
 20
11.7700041854
 30
0.0
 10
15.7920281171
 20
11.7706535822
 30
0.0
 10
15.7961376744
 20
11.7706535822
 30
0.0
  0
SPLINE
  5
280
100
AcDbEntity
  8
0
100
AcDbSpline
 62
7
  6
CONTINUOUS
 70
0
 71
3
 72
13
 73
9
 74
0
 42
0.0000001
 43
0.0000001
 44
0.0000000001
 40
0.0
 40
0.0
 40
0.0
 40
0.0
 40
0.0997545722
 40
0.2030713902
 40
0.3129071469
 40
0.4313208365
 40
0.6968560592
 40
1.0
 40
1.0
 40
1.0
 40
1.0
 10
16.3421930743
 20
11.7535216612
 30
0.0
 10
16.3425923067
 20
11.7548137056
 30
0.0
 10
16.3437241345
 20
11.7573559405
 30
0.0
 10
16.3463060072
 20
11.7607620043
 30
0.0
 10
16.3497173584
 20
11.7637320405
 30
0.0
 10
16.3554919921
 20
11.7671751184
 30
0.0
 10
16.3644915548
 20
11.7700041854
 30
0.0
 10
16.3722240189
 20
11.7706535822
 30
0.0
 10
16.3763335762
 20
11.7706535822
 30
0.0
  0
SPLINE
  5
281
100
AcDbEntity
  8
0
100
AcDbSpline
 62
7
  6
CONTINUOUS
 70
0
 71
3
 72
13
 73
9
 74
0
 42
0.0000001
 43
0.0000001
 44
0.0000000001
 40
0.0
 40
0.0
 40
0.0
 40
0.0
 40
0.0997545722
 40
0.2030713902
 40
0.3129071469
 40
0.4313208365
 40
0.6968560592
 40
1.0
 40
1.0
 40
1.0
 40
1.0
 10
16.922388976
 20
11.7535216612
 30
0.0
 10
16.9227882084
 20
11.7548137056
 30
0.0
 10
16.9239200362
 20
11.7573559405
 30
0.0
 10
16.9265019089
 20
11.7607620043
 30
0.0
 10
16.9299132602
 20
11.7637320405
 30
0.0
 10
16.9356878938
 20
11.7671751184
 30
0.0
 10
16.9446874565
 20
11.7700041854
 30
0.0
 10
16.9524199206
 20
11.7706535822
 30
0.0
 10
16.9565294779
 20
11.7706535822
 30
0.0
  0
SPLINE
  5
282
100
AcDbEntity
  8
0
100
AcDbSpline
 62
7
  6
CONTINUOUS
 70
0
 71
3
 72
10
 73
6
 74
0
 42
0.0000001
 43
0.0000001
 44
0.0000000001
 40
0.0
 40
0.0
 40
0.0
 40
0.0
 40
0.4780646968
 40
0.7338506733
 40
1.0
 40
1.0
 40
1.0
 40
1.0
 10
13.6637022218
 20
11.7414133138
 30
0.0
 10
13.6744274562
 20
11.724798254
 30
0.0
 10
13.6932998765
 20
11.7007946211
 30
0.0
 10
13.7222463056
 20
11.6712247959
 30
0.0
 10
13.7383836225
 20
11.6568478175
 30
0.0
 10
13.7468281892
 20
11.6497835461
 30
0.0
  0
SPLINE
  5
283
100
AcDbEntity
  8
0
100
AcDbSpline
 62
7
  6
CONTINUOUS
 70
0
 71
3
 72
15
 73
11
 74
0
 42
0.0000001
 43
0.0000001
 44
0.0000000001
 40
0.0
 40
0.0
 40
0.0
 40
0.0
 40
0.1557707533
 40
0.3032237546
 40
0.4411033381
 40
0.5690514688
 40
0.6873497593
 40
0.7970617417
 40
0.9003065987
 40
1.0
 40
1.0
 40
1.0
 40
1.0
 10
16.8778033984
 20
11.6218587552
 30
0.0
 10
16.8809739664
 20
11.6218587552
 30
0.0
 10
16.8871504941
 20
11.622132224
 30
0.0
 10
16.8960523169
 20
11.6234184452
 30
0.0
 10
16.9042093231
 20
11.6255564383
 30
0.0
 10
16.9114751359
 20
11.6285120116
 30
0.0
 10
16.917725631
 20
11.6322394711
 30
0.0
 10
16.9228434149
 20
11.6366934439
 30
0.0
 10
16.9267166178
 20
11.6418036187
 30
0.0
 10
16.9284140892
 20
11.6456182465
 30
0.0
 10
16.92901384
 20
11.6475567544
 30
0.0
  0
SPLINE
  5
284
100
AcDbEntity
  8
0
100
AcDbSpline
 62
7
  6
CONTINUOUS
 70
0
 71
3
 72
11
 73
7
 74
0
 42
0.0000001
 43
0.0000001
 44
0.0000000001
 40
0.0
 40
0.0
 40
0.0
 40
0.0
 40
0.2386468363
 40
0.4936115805
 40
0.7519040961
 40
1.0
 40
1.0
 40
1.0
 40
1.0
 10
16.6478076979
 20
11.6497835461
 30
0.0
 10
16.6530210443
 20
11.6454223403
 30
0.0
 10
16.6647996784
 20
11.6375641166
 30
0.0
 10
16.6844562803
 20
11.6288476177
 30
0.0
 10
16.7054981016
 20
11.6232615212
 30
0.0
 10
16.7199404496
 20
11.6218587552
 30
0.0
 10
16.7270065639
 20
11.6218587552
 30
0.0
  0
SPLINE
  5
285
100
AcDbEntity
  8
0
100
AcDbSpline
 62
7
  6
CONTINUOUS
 70
0
 71
3
 72
9
 73
5
 74
0
 42
0.0000001
 43
0.0000001
 44
0.0000000001
 40
0.0
 40
0.0
 40
0.0
 40
0.0
 40
0.4782117653
 40
1.0
 40
1.0
 40
1.0
 40
1.0
 10
16.5646817304
 20
11.7414133138
 30
0.0
 10
16.5754069751
 20
11.7247982382
 30
0.0
 10
16.6011007237
 20
11.6921205405
 30
0.0
 10
16.6312571219
 20
11.6636288698
 30
0.0
 10
16.6478076979
 20
11.6497835461
 30
0.0
  0
SPLINE
  5
286
100
AcDbEntity
  8
0
100
AcDbSpline
 62
7
  6
CONTINUOUS
 70
0
 71
3
 72
15
 73
11
 74
0
 42
0.0000001
 43
0.0000001
 44
0.0000000001
 40
0.0
 40
0.0
 40
0.0
 40
0.0
 40
0.1557707533
 40
0.3032237546
 40
0.4411033381
 40
0.5690514688
 40
0.6873497593
 40
0.7970617417
 40
0.9003065987
 40
1.0
 40
1.0
 40
1.0
 40
1.0
 10
16.2976074967
 20
11.6218587552
 30
0.0
 10
16.3007780646
 20
11.6218587552
 30
0.0
 10
16.3069545924
 20
11.622132224
 30
0.0
 10
16.3158564152
 20
11.6234184452
 30
0.0
 10
16.3240134213
 20
11.6255564383
 30
0.0
 10
16.3312792341
 20
11.6285120116
 30
0.0
 10
16.3375297293
 20
11.6322394711
 30
0.0
 10
16.3426475131
 20
11.6366934439
 30
0.0
 10
16.3465207161
 20
11.6418036187
 30
0.0
 10
16.3482181875
 20
11.6456182465
 30
0.0
 10
16.3488179383
 20
11.6475567544
 30
0.0
  0
SPLINE
  5
287
100
AcDbEntity
  8
0
100
AcDbSpline
 62
7
  6
CONTINUOUS
 70
0
 71
3
 72
11
 73
7
 74
0
 42
0.0000001
 43
0.0000001
 44
0.0000000001
 40
0.0
 40
0.0
 40
0.0
 40
0.0
 40
0.2386468363
 40
0.4936115805
 40
0.7519040961
 40
1.0
 40
1.0
 40
1.0
 40
1.0
 10
16.0676117962
 20
11.6497835461
 30
0.0
 10
16.0728251426
 20
11.6454223403
 30
0.0
 10
16.0846037766
 20
11.6375641166
 30
0.0
 10
16.1042603786
 20
11.6288476177
 30
0.0
 10
16.1253021998
 20
11.6232615212
 30
0.0
 10
16.1397445478
 20
11.6218587552
 30
0.0
 10
16.1468106621
 20
11.6218587552
 30
0.0
  0
SPLINE
  5
288
100
AcDbEntity
  8
0
100
AcDbSpline
 62
7
  6
CONTINUOUS
 70
0
 71
3
 72
10
 73
6
 74
0
 42
0.0000001
 43
0.0000001
 44
0.0000000001
 40
0.0
 40
0.0
 40
0.0
 40
0.0
 40
0.4780646968
 40
0.7338506733
 40
1.0
 40
1.0
 40
1.0
 40
1.0
 10
15.9844858287
 20
11.7414133138
 30
0.0
 10
15.9952110632
 20
11.724798254
 30
0.0
 10
16.0140834834
 20
11.7007946211
 30
0.0
 10
16.0430299125
 20
11.6712247959
 30
0.0
 10
16.0591672294
 20
11.6568478175
 30
0.0
 10
16.0676117962
 20
11.6497835461
 30
0.0
  0
SPLINE
  5
289
100
AcDbEntity
  8
0
100
AcDbSpline
 62
7
  6
CONTINUOUS
 70
0
 71
3
 72
15
 73
11
 74
0
 42
0.0000001
 43
0.0000001
 44
0.0000000001
 40
0.0
 40
0.0
 40
0.0
 40
0.0
 40
0.1557707533
 40
0.3032237546
 40
0.4411033381
 40
0.5690514688
 40
0.6873497593
 40
0.7970617417
 40
0.9003065987
 40
1.0
 40
1.0
 40
1.0
 40
1.0
 10
15.717411595
 20
11.6218587552
 30
0.0
 10
15.7205821629
 20
11.6218587552
 30
0.0
 10
15.7267586907
 20
11.622132224
 30
0.0
 10
15.7356605134
 20
11.6234184452
 30
0.0
 10
15.7438175196
 20
11.6255564383
 30
0.0
 10
15.7510833324
 20
11.6285120116
 30
0.0
 10
15.7573338275
 20
11.6322394711
 30
0.0
 10
15.7624516114
 20
11.6366934439
 30
0.0
 10
15.7663248143
 20
11.6418036187
 30
0.0
 10
15.7680222858
 20
11.6456182465
 30
0.0
 10
15.7686220365
 20
11.6475567544
 30
0.0
  0
SPLINE
  5
28A
100
AcDbEntity
  8
0
100
AcDbSpline
 62
7
  6
CONTINUOUS
 70
0
 71
3
 72
11
 73
7
 74
0
 42
0.0000001
 43
0.0000001
 44
0.0000000001
 40
0.0
 40
0.0
 40
0.0
 40
0.0
 40
0.2386468363
 40
0.4936115805
 40
0.7519040961
 40
1.0
 40
1.0
 40
1.0
 40
1.0
 10
15.4874158944
 20
11.6497835461
 30
0.0
 10
15.4926292409
 20
11.6454223403
 30
0.0
 10
15.5044078749
 20
11.6375641166
 30
0.0
 10
15.5240644769
 20
11.6288476177
 30
0.0
 10
15.5451062981
 20
11.6232615212
 30
0.0
 10
15.5595486461
 20
11.6218587552
 30
0.0
 10
15.5666147604
 20
11.6218587552
 30
0.0
  0
SPLINE
  5
28B
100
AcDbEntity
  8
0
100
AcDbSpline
 62
7
  6
CONTINUOUS
 70
0
 71
3
 72
10
 73
6
 74
0
 42
0.0000001
 43
0.0000001
 44
0.0000000001
 40
0.0
 40
0.0
 40
0.0
 40
0.0
 40
0.4780646968
 40
0.7338506733
 40
1.0
 40
1.0
 40
1.0
 40
1.0
 10
15.404289927
 20
11.7414133138
 30
0.0
 10
15.4150151615
 20
11.724798254
 30
0.0
 10
15.4338875817
 20
11.7007946211
 30
0.0
 10
15.4628340108
 20
11.6712247959
 30
0.0
 10
15.4789713277
 20
11.6568478175
 30
0.0
 10
15.4874158944
 20
11.6497835461
 30
0.0
  0
SPLINE
  5
28C
100
AcDbEntity
  8
0
100
AcDbSpline
 62
7
  6
CONTINUOUS
 70
0
 71
3
 72
15
 73
11
 74
0
 42
0.0000001
 43
0.0000001
 44
0.0000000001
 40
0.0
 40
0.0
 40
0.0
 40
0.0
 40
0.1557707533
 40
0.3032237546
 40
0.4411033381
 40
0.5690514688
 40
0.6873497593
 40
0.7970617417
 40
0.9003065987
 40
1.0
 40
1.0
 40
1.0
 40
1.0
 10
15.1372156932
 20
11.6218587552
 30
0.0
 10
15.1403862612
 20
11.6218587552
 30
0.0
 10
15.1465627889
 20
11.622132224
 30
0.0
 10
15.1554646117
 20
11.6234184452
 30
0.0
 10
15.1636216179
 20
11.6255564383
 30
0.0
 10
15.1708874307
 20
11.6285120116
 30
0.0
 10
15.1771379258
 20
11.6322394711
 30
0.0
 10
15.1822557097
 20
11.6366934439
 30
0.0
 10
15.1861289126
 20
11.6418036187
 30
0.0
 10
15.187826384
 20
11.6456182465
 30
0.0
 10
15.1884261348
 20
11.6475567544
 30
0.0
  0
SPLINE
  5
28D
100
AcDbEntity
  8
0
100
AcDbSpline
 62
7
  6
CONTINUOUS
 70
0
 71
3
 72
11
 73
7
 74
0
 42
0.0000001
 43
0.0000001
 44
0.0000000001
 40
0.0
 40
0.0
 40
0.0
 40
0.0
 40
0.2386468363
 40
0.4936115805
 40
0.7519040961
 40
1.0
 40
1.0
 40
1.0
 40
1.0
 10
14.9072199927
 20
11.6497835461
 30
0.0
 10
14.9124333391
 20
11.6454223403
 30
0.0
 10
14.9242119731
 20
11.6375641166
 30
0.0
 10
14.9438685751
 20
11.6288476177
 30
0.0
 10
14.9649103964
 20
11.6232615212
 30
0.0
 10
14.9793527444
 20
11.6218587552
 30
0.0
 10
14.9864188587
 20
11.6218587552
 30
0.0
  0
SPLINE
  5
28E
100
AcDbEntity
  8
0
100
AcDbSpline
 62
7
  6
CONTINUOUS
 70
0
 71
3
 72
10
 73
6
 74
0
 42
0.0000001
 43
0.0000001
 44
0.0000000001
 40
0.0
 40
0.0
 40
0.0
 40
0.0
 40
0.4780646968
 40
0.7338506733
 40
1.0
 40
1.0
 40
1.0
 40
1.0
 10
14.8240940252
 20
11.7414133138
 30
0.0
 10
14.8348192597
 20
11.724798254
 30
0.0
 10
14.8536916799
 20
11.7007946211
 30
0.0
 10
14.882638109
 20
11.6712247959
 30
0.0
 10
14.8987754259
 20
11.6568478175
 30
0.0
 10
14.9072199927
 20
11.6497835461
 30
0.0
  0
SPLINE
  5
28F
100
AcDbEntity
  8
0
100
AcDbSpline
 62
7
  6
CONTINUOUS
 70
0
 71
3
 72
15
 73
11
 74
0
 42
0.0000001
 43
0.0000001
 44
0.0000000001
 40
0.0
 40
0.0
 40
0.0
 40
0.0
 40
0.1557707533
 40
0.3032237546
 40
0.4411033381
 40
0.5690514688
 40
0.6873497593
 40
0.7970617417
 40
0.9003065987
 40
1.0
 40
1.0
 40
1.0
 40
1.0
 10
14.5570197915
 20
11.6218587552
 30
0.0
 10
14.5601903594
 20
11.6218587552
 30
0.0
 10
14.5663668872
 20
11.622132224
 30
0.0
 10
14.57526871
 20
11.6234184452
 30
0.0
 10
14.5834257161
 20
11.6255564383
 30
0.0
 10
14.5906915289
 20
11.6285120116
 30
0.0
 10
14.5969420241
 20
11.6322394711
 30
0.0
 10
14.6020598079
 20
11.6366934439
 30
0.0
 10
14.6059330109
 20
11.6418036187
 30
0.0
 10
14.6076304823
 20
11.6456182465
 30
0.0
 10
14.6082302331
 20
11.6475567544
 30
0.0
  0
SPLINE
  5
290
100
AcDbEntity
  8
0
100
AcDbSpline
 62
7
  6
CONTINUOUS
 70
0
 71
3
 72
11
 73
7
 74
0
 42
0.0000001
 43
0.0000001
 44
0.0000000001
 40
0.0
 40
0.0
 40
0.0
 40
0.0
 40
0.2386468363
 40
0.4936115805
 40
0.7519040961
 40
1.0
 40
1.0
 40
1.0
 40
1.0
 10
14.327024091
 20
11.6497835461
 30
0.0
 10
14.3322374374
 20
11.6454223403
 30
0.0
 10
14.3440160714
 20
11.6375641166
 30
0.0
 10
14.3636726734
 20
11.6288476177
 30
0.0
 10
14.3847144946
 20
11.6232615212
 30
0.0
 10
14.3991568426
 20
11.6218587552
 30
0.0
 10
14.4062229569
 20
11.6218587552
 30
0.0
  0
SPLINE
  5
291
100
AcDbEntity
  8
0
100
AcDbSpline
 62
7
  6
CONTINUOUS
 70
0
 71
3
 72
10
 73
6
 74
0
 42
0.0000001
 43
0.0000001
 44
0.0000000001
 40
0.0
 40
0.0
 40
0.0
 40
0.0
 40
0.4780646968
 40
0.7338506733
 40
1.0
 40
1.0
 40
1.0
 40
1.0
 10
14.2438981235
 20
11.7414133138
 30
0.0
 10
14.254623358
 20
11.724798254
 30
0.0
 10
14.2734957782
 20
11.7007946211
 30
0.0
 10
14.3024422073
 20
11.6712247959
 30
0.0
 10
14.3185795242
 20
11.6568478175
 30
0.0
 10
14.327024091
 20
11.6497835461
 30
0.0
  0
SPLINE
  5
292
100
AcDbEntity
  8
0
100
AcDbSpline
 62
7
  6
CONTINUOUS
 70
0
 71
3
 72
15
 73
11
 74
0
 42
0.0000001
 43
0.0000001
 44
0.0000000001
 40
0.0
 40
0.0
 40
0.0
 40
0.0
 40
0.1557707533
 40
0.3032237546
 40
0.4411033381
 40
0.5690514688
 40
0.6873497593
 40
0.7970617417
 40
0.9003065987
 40
1.0
 40
1.0
 40
1.0
 40
1.0
 10
13.9768238898
 20
11.6218587552
 30
0.0
 10
13.9799944577
 20
11.6218587552
 30
0.0
 10
13.9861709855
 20
11.622132224
 30
0.0
 10
13.9950728082
 20
11.6234184452
 30
0.0
 10
14.0032298144
 20
11.6255564383
 30
0.0
 10
14.0104956272
 20
11.6285120116
 30
0.0
 10
14.0167461223
 20
11.6322394711
 30
0.0
 10
14.0218639062
 20
11.6366934439
 30
0.0
 10
14.0257371091
 20
11.6418036187
 30
0.0
 10
14.0274345805
 20
11.6456182465
 30
0.0
 10
14.0280343313
 20
11.6475567544
 30
0.0
  0
SPLINE
  5
293
100
AcDbEntity
  8
0
100
AcDbSpline
 62
7
  6
CONTINUOUS
 70
0
 71
3
 72
11
 73
7
 74
0
 42
0.0000001
 43
0.0000001
 44
0.0000000001
 40
0.0
 40
0.0
 40
0.0
 40
0.0
 40
0.2386468363
 40
0.4936115805
 40
0.7519040961
 40
1.0
 40
1.0
 40
1.0
 40
1.0
 10
13.7468281892
 20
11.6497835461
 30
0.0
 10
13.7520415357
 20
11.6454223403
 30
0.0
 10
13.7638201697
 20
11.6375641166
 30
0.0
 10
13.7834767717
 20
11.6288476177
 30
0.0
 10
13.8045185929
 20
11.6232615212
 30
0.0
 10
13.8189609409
 20
11.6218587552
 30
0.0
 10
13.8260270552
 20
11.6218587552
 30
0.0
  0
SPLINE
  5
294
100
AcDbEntity
  8
0
100
AcDbSpline
 62
7
  6
CONTINUOUS
 70
0
 71
3
 72
15
 73
11
 74
0
 42
0.0000001
 43
0.0000001
 44
0.0000000001
 40
0.0
 40
0.0
 40
0.0
 40
0.0
 40
0.1274314712
 40
0.2599419414
 40
0.3944955346
 40
0.5281578264
 40
0.6579479732
 40
0.7811648256
 40
0.8956939193
 40
1.0
 40
1.0
 40
1.0
 40
1.0
 10
13.6012651845
 20
11.7706535822
 30
0.0
 10
13.6042974425
 20
11.7706535822
 30
0.0
 10
13.6104872843
 20
11.7702625232
 30
0.0
 10
13.6197495711
 20
11.7686364506
 30
0.0
 10
13.6289329769
 20
11.7660051142
 30
0.0
 10
13.6377332964
 20
11.7624581988
 30
0.0
 10
13.6458629848
 20
11.7581092252
 30
0.0
 10
13.6530600365
 20
11.7531000097
 30
0.0
 10
13.6590861934
 20
11.7475919454
 30
0.0
 10
13.6623561537
 20
11.7434985831
 30
0.0
 10
13.6637022218
 20
11.7414133138
 30
0.0
  0
SPLINE
  5
295
100
AcDbEntity
  8
0
100
AcDbSpline
 62
7
  6
CONTINUOUS
 70
0
 71
3
 72
15
 73
11
 74
0
 42
0.0000001
 43
0.0000001
 44
0.0000000001
 40
0.0
 40
0.0
 40
0.0
 40
0.0
 40
0.1274314712
 40
0.2599419414
 40
0.3944955346
 40
0.5281578264
 40
0.6579479732
 40
0.7811648256
 40
0.8956939193
 40
1.0
 40
1.0
 40
1.0
 40
1.0
 10
14.1814610862
 20
11.7706535822
 30
0.0
 10
14.1844933442
 20
11.7706535822
 30
0.0
 10
14.190683186
 20
11.7702625232
 30
0.0
 10
14.1999454729
 20
11.7686364506
 30
0.0
 10
14.2091288786
 20
11.7660051142
 30
0.0
 10
14.2179291981
 20
11.7624581988
 30
0.0
 10
14.2260588865
 20
11.7581092252
 30
0.0
 10
14.2332559383
 20
11.7531000097
 30
0.0
 10
14.2392820952
 20
11.7475919454
 30
0.0
 10
14.2425520554
 20
11.7434985831
 30
0.0
 10
14.2438981235
 20
11.7414133138
 30
0.0
  0
SPLINE
  5
296
100
AcDbEntity
  8
0
100
AcDbSpline
 62
7
  6
CONTINUOUS
 70
0
 71
3
 72
15
 73
11
 74
0
 42
0.0000001
 43
0.0000001
 44
0.0000000001
 40
0.0
 40
0.0
 40
0.0
 40
0.0
 40
0.1274314712
 40
0.2599419414
 40
0.3944955346
 40
0.5281578264
 40
0.6579479732
 40
0.7811648256
 40
0.8956939193
 40
1.0
 40
1.0
 40
1.0
 40
1.0
 10
14.7616569879
 20
11.7706535822
 30
0.0
 10
14.7646892459
 20
11.7706535822
 30
0.0
 10
14.7708790878
 20
11.7702625232
 30
0.0
 10
14.7801413746
 20
11.7686364506
 30
0.0
 10
14.7893247804
 20
11.7660051142
 30
0.0
 10
14.7981250999
 20
11.7624581988
 30
0.0
 10
14.8062547883
 20
11.7581092252
 30
0.0
 10
14.81345184
 20
11.7531000097
 30
0.0
 10
14.8194779969
 20
11.7475919454
 30
0.0
 10
14.8227479571
 20
11.7434985831
 30
0.0
 10
14.8240940252
 20
11.7414133138
 30
0.0
  0
SPLINE
  5
297
100
AcDbEntity
  8
0
100
AcDbSpline
 62
7
  6
CONTINUOUS
 70
0
 71
3
 72
15
 73
11
 74
0
 42
0.0000001
 43
0.0000001
 44
0.0000000001
 40
0.0
 40
0.0
 40
0.0
 40
0.0
 40
0.1274314712
 40
0.2599419414
 40
0.3944955346
 40
0.5281578264
 40
0.6579479732
 40
0.7811648256
 40
0.8956939193
 40
1.0
 40
1.0
 40
1.0
 40
1.0
 10
15.3418528897
 20
11.7706535822
 30
0.0
 10
15.3448851477
 20
11.7706535822
 30
0.0
 10
15.3510749895
 20
11.7702625232
 30
0.0
 10
15.3603372764
 20
11.7686364506
 30
0.0
 10
15.3695206821
 20
11.7660051142
 30
0.0
 10
15.3783210016
 20
11.7624581988
 30
0.0
 10
15.38645069
 20
11.7581092252
 30
0.0
 10
15.3936477417
 20
11.7531000097
 30
0.0
 10
15.3996738986
 20
11.7475919454
 30
0.0
 10
15.4029438589
 20
11.7434985831
 30
0.0
 10
15.404289927
 20
11.7414133138
 30
0.0
  0
SPLINE
  5
298
100
AcDbEntity
  8
0
100
AcDbSpline
 62
7
  6
CONTINUOUS
 70
0
 71
3
 72
15
 73
11
 74
0
 42
0.0000001
 43
0.0000001
 44
0.0000000001
 40
0.0
 40
0.0
 40
0.0
 40
0.0
 40
0.1274314712
 40
0.2599419414
 40
0.3944955346
 40
0.5281578264
 40
0.6579479732
 40
0.7811648256
 40
0.8956939193
 40
1.0
 40
1.0
 40
1.0
 40
1.0
 10
15.9220487914
 20
11.7706535822
 30
0.0
 10
15.9250810494
 20
11.7706535822
 30
0.0
 10
15.9312708912
 20
11.7702625232
 30
0.0
 10
15.9405331781
 20
11.7686364506
 30
0.0
 10
15.9497165838
 20
11.7660051142
 30
0.0
 10
15.9585169033
 20
11.7624581988
 30
0.0
 10
15.9666465917
 20
11.7581092252
 30
0.0
 10
15.9738436435
 20
11.7531000097
 30
0.0
 10
15.9798698004
 20
11.7475919454
 30
0.0
 10
15.9831397606
 20
11.7434985831
 30
0.0
 10
15.9844858287
 20
11.7414133138
 30
0.0
  0
SPLINE
  5
299
100
AcDbEntity
  8
0
100
AcDbSpline
 62
7
  6
CONTINUOUS
 70
0
 71
3
 72
15
 73
11
 74
0
 42
0.0000001
 43
0.0000001
 44
0.0000000001
 40
0.0
 40
0.0
 40
0.0
 40
0.0
 40
0.1274314712
 40
0.2599419414
 40
0.3944955346
 40
0.5281578264
 40
0.6579479732
 40
0.7811648256
 40
0.8956939193
 40
1.0
 40
1.0
 40
1.0
 40
1.0
 10
16.5022446931
 20
11.7706535822
 30
0.0
 10
16.5052769511
 20
11.7706535822
 30
0.0
 10
16.511466793
 20
11.7702625232
 30
0.0
 10
16.5207290798
 20
11.7686364506
 30
0.0
 10
16.5299124856
 20
11.7660051142
 30
0.0
 10
16.5387128051
 20
11.7624581988
 30
0.0
 10
16.5468424935
 20
11.7581092252
 30
0.0
 10
16.5540395452
 20
11.7531000097
 30
0.0
 10
16.5600657021
 20
11.7475919454
 30
0.0
 10
16.5633356623
 20
11.7434985831
 30
0.0
 10
16.5646817304
 20
11.7414133138
 30
0.0
  0
SPLINE
  5
29A
100
AcDbEntity
  8
0
100
AcDbSpline
 62
7
  6
CONTINUOUS
 70
0
 71
3
 72
11
 73
7
 74
0
 42
0.0000001
 43
0.0000001
 44
0.0000000001
 40
0.0
 40
0.0
 40
0.0
 40
0.0
 40
0.2390043776
 40
0.4834587733
 40
0.736315213
 40
1.0
 40
1.0
 40
1.0
 40
1.0
 10
14.6088116634
 20
11.6497835461
 30
0.0
 10
14.6103604845
 20
11.6570232743
 30
0.0
 10
14.6124024367
 20
11.6719230192
 30
0.0
 10
14.612231055
 20
11.6948021268
 30
0.0
 10
14.6088610448
 20
11.7181992884
 30
0.0
 10
14.6046080708
 20
11.733670496
 30
0.0
 10
14.6020069129
 20
11.7414133138
 30
0.0
  0
SPLINE
  5
29B
100
AcDbEntity
  8
0
100
AcDbSpline
 62
7
  6
CONTINUOUS
 70
0
 71
3
 72
10
 73
6
 74
0
 42
0.0000001
 43
0.0000001
 44
0.0000000001
 40
0.0
 40
0.0
 40
0.0
 40
0.0
 40
0.5163078581
 40
0.7605150036
 40
1.0
 40
1.0
 40
1.0
 40
1.0
 10
14.0218110112
 20
11.7414133138
 30
0.0
 10
14.0211375495
 20
11.7434179946
 30
0.0
 10
14.0205122835
 20
11.7465305321
 30
0.0
 10
14.0206968979
 20
11.7506368189
 30
0.0
 10
14.0211198786
 20
11.752584459
 30
0.0
 10
14.0214094673
 20
11.7535216612
 30
0.0
  0
SPLINE
  5
29C
100
AcDbEntity
  8
0
100
AcDbSpline
 62
7
  6
CONTINUOUS
 70
0
 71
3
 72
11
 73
7
 74
0
 42
0.0000001
 43
0.0000001
 44
0.0000000001
 40
0.0
 40
0.0
 40
0.0
 40
0.0
 40
0.2390043776
 40
0.4834587733
 40
0.736315213
 40
1.0
 40
1.0
 40
1.0
 40
1.0
 10
15.7692034669
 20
11.6497835461
 30
0.0
 10
15.770752288
 20
11.6570232743
 30
0.0
 10
15.7727942401
 20
11.6719230192
 30
0.0
 10
15.7726228585
 20
11.6948021268
 30
0.0
 10
15.7692528483
 20
11.7181992884
 30
0.0
 10
15.7649998743
 20
11.733670496
 30
0.0
 10
15.7623987164
 20
11.7414133138
 30
0.0
  0
SPLINE
  5
29D
100
AcDbEntity
  8
0
100
AcDbSpline
 62
7
  6
CONTINUOUS
 70
0
 71
3
 72
10
 73
6
 74
0
 42
0.0000001
 43
0.0000001
 44
0.0000000001
 40
0.0
 40
0.0
 40
0.0
 40
0.0
 40
0.5163078581
 40
0.7605150036
 40
1.0
 40
1.0
 40
1.0
 40
1.0
 10
14.6020069129
 20
11.7414133138
 30
0.0
 10
14.6013334512
 20
11.7434179946
 30
0.0
 10
14.6007081852
 20
11.7465305321
 30
0.0
 10
14.6008927996
 20
11.7506368189
 30
0.0
 10
14.6013157803
 20
11.752584459
 30
0.0
 10
14.601605369
 20
11.7535216612
 30
0.0
  0
SPLINE
  5
29E
100
AcDbEntity
  8
0
100
AcDbSpline
 62
7
  6
CONTINUOUS
 70
0
 71
3
 72
10
 73
6
 74
0
 42
0.0000001
 43
0.0000001
 44
0.0000000001
 40
0.0
 40
0.0
 40
0.0
 40
0.0
 40
0.5163078581
 40
0.7605150036
 40
1.0
 40
1.0
 40
1.0
 40
1.0
 10
15.1822028147
 20
11.7414133138
 30
0.0
 10
15.1815293529
 20
11.7434179946
 30
0.0
 10
15.180904087
 20
11.7465305321
 30
0.0
 10
15.1810887013
 20
11.7506368189
 30
0.0
 10
15.181511682
 20
11.752584459
 30
0.0
 10
15.1818012708
 20
11.7535216612
 30
0.0
  0
SPLINE
  5
29F
100
AcDbEntity
  8
0
100
AcDbSpline
 62
7
  6
CONTINUOUS
 70
0
 71
3
 72
11
 73
7
 74
0
 42
0.0000001
 43
0.0000001
 44
0.0000000001
 40
0.0
 40
0.0
 40
0.0
 40
0.0
 40
0.2390043776
 40
0.4834587733
 40
0.736315213
 40
1.0
 40
1.0
 40
1.0
 40
1.0
 10
14.0286157617
 20
11.6497835461
 30
0.0
 10
14.0301645828
 20
11.6570232743
 30
0.0
 10
14.0322065349
 20
11.6719230192
 30
0.0
 10
14.0320351533
 20
11.6948021268
 30
0.0
 10
14.0286651431
 20
11.7181992884
 30
0.0
 10
14.0244121691
 20
11.733670496
 30
0.0
 10
14.0218110112
 20
11.7414133138
 30
0.0
  0
SPLINE
  5
2A0
100
AcDbEntity
  8
0
100
AcDbSpline
 62
7
  6
CONTINUOUS
 70
0
 71
3
 72
11
 73
7
 74
0
 42
0.0000001
 43
0.0000001
 44
0.0000000001
 40
0.0
 40
0.0
 40
0.0
 40
0.0
 40
0.2390043776
 40
0.4834587733
 40
0.736315213
 40
1.0
 40
1.0
 40
1.0
 40
1.0
 10
16.3493993686
 20
11.6497835461
 30
0.0
 10
16.3509481897
 20
11.6570232743
 30
0.0
 10
16.3529901419
 20
11.6719230192
 30
0.0
 10
16.3528187602
 20
11.6948021268
 30
0.0
 10
16.34944875
 20
11.7181992884
 30
0.0
 10
16.345195776
 20
11.733670496
 30
0.0
 10
16.3425946181
 20
11.7414133138
 30
0.0
  0
SPLINE
  5
2A1
100
AcDbEntity
  8
0
100
AcDbSpline
 62
7
  6
CONTINUOUS
 70
0
 71
3
 72
10
 73
6
 74
0
 42
0.0000001
 43
0.0000001
 44
0.0000000001
 40
0.0
 40
0.0
 40
0.0
 40
0.0
 40
0.5163078581
 40
0.7605150036
 40
1.0
 40
1.0
 40
1.0
 40
1.0
 10
15.7623987164
 20
11.7414133138
 30
0.0
 10
15.7617252547
 20
11.7434179946
 30
0.0
 10
15.7610999887
 20
11.7465305321
 30
0.0
 10
15.7612846031
 20
11.7506368189
 30
0.0
 10
15.7617075838
 20
11.752584459
 30
0.0
 10
15.7619971725
 20
11.7535216612
 30
0.0
  0
SPLINE
  5
2A2
100
AcDbEntity
  8
0
100
AcDbSpline
 62
7
  6
CONTINUOUS
 70
0
 71
3
 72
11
 73
7
 74
0
 42
0.0000001
 43
0.0000001
 44
0.0000000001
 40
0.0
 40
0.0
 40
0.0
 40
0.0
 40
0.2390043776
 40
0.4834587733
 40
0.736315213
 40
1.0
 40
1.0
 40
1.0
 40
1.0
 10
15.1890075651
 20
11.6497835461
 30
0.0
 10
15.1905563863
 20
11.6570232743
 30
0.0
 10
15.1925983384
 20
11.6719230192
 30
0.0
 10
15.1924269568
 20
11.6948021268
 30
0.0
 10
15.1890569465
 20
11.7181992884
 30
0.0
 10
15.1848039725
 20
11.733670496
 30
0.0
 10
15.1822028147
 20
11.7414133138
 30
0.0
  0
SPLINE
  5
2A3
100
AcDbEntity
  8
0
100
AcDbSpline
 62
7
  6
CONTINUOUS
 70
0
 71
3
 72
10
 73
6
 74
0
 42
0.0000001
 43
0.0000001
 44
0.0000000001
 40
0.0
 40
0.0
 40
0.0
 40
0.0
 40
0.5163078581
 40
0.7605150036
 40
1.0
 40
1.0
 40
1.0
 40
1.0
 10
16.3425946181
 20
11.7414133138
 30
0.0
 10
16.3419211564
 20
11.7434179946
 30
0.0
 10
16.3412958904
 20
11.7465305321
 30
0.0
 10
16.3414805048
 20
11.7506368189
 30
0.0
 10
16.3419034855
 20
11.752584459
 30
0.0
 10
16.3421930743
 20
11.7535216612
 30
0.0
  0
SPLINE
  5
2A4
100
AcDbEntity
  8
0
100
AcDbSpline
 62
7
  6
CONTINUOUS
 70
0
 71
3
 72
10
 73
6
 74
0
 42
0.0000001
 43
0.0000001
 44
0.0000000001
 40
0.0
 40
0.0
 40
0.0
 40
0.0
 40
0.5163078581
 40
0.7605150036
 40
1.0
 40
1.0
 40
1.0
 40
1.0
 10
16.9227905199
 20
11.7414133138
 30
0.0
 10
16.9221170582
 20
11.7434179946
 30
0.0
 10
16.9214917922
 20
11.7465305321
 30
0.0
 10
16.9216764065
 20
11.7506368189
 30
0.0
 10
16.9220993872
 20
11.752584459
 30
0.0
 10
16.922388976
 20
11.7535216612
 30
0.0
  0
SPLINE
  5
2A5
100
AcDbEntity
  8
0
100
AcDbSpline
 62
7
  6
CONTINUOUS
 70
0
 71
3
 72
11
 73
7
 74
0
 42
0.0000001
 43
0.0000001
 44
0.0000000001
 40
0.0
 40
0.0
 40
0.0
 40
0.0
 40
0.2390166942
 40
0.4834594323
 40
0.7363003699
 40
1.0
 40
1.0
 40
1.0
 40
1.0
 10
16.9295952703
 20
11.6497835461
 30
0.0
 10
16.9311441725
 20
11.6570236528
 30
0.0
 10
16.9331868739
 20
11.6719233822
 30
0.0
 10
16.9330139408
 20
11.6948020147
 30
0.0
 10
16.9296455201
 20
11.7181989929
 30
0.0
 10
16.9253918261
 20
11.7336700543
 30
0.0
 10
16.9227905199
 20
11.7414133138
 30
0.0
  0
ENDSEC
  0
SECTION
  2
OBJECTS
  0
DICTIONARY
  5
C
100
AcDbDictionary
280
0
281
1
  3
ACAD_GROUP
350
D
  3
ACAD_MLINESTYLE
350
17
  3
ACAD_LAYOUT
350
1A
  3
ACAD_PLOTSETTINGS
350
19
  3
ACAD_PLOTSTYLENAME
350
E
  0
DICTIONARY
  5
D
102
{ACAD_REACTORS
330
C
102
}
100
AcDbDictionary
280
0
281
1
  0
ACDBDICTIONARYWDFLT
  5
E
102
{ACAD_REACTORS
330
C
102
}
100
AcDbDictionary
281
1
  3
Normal
350
F
100
AcDbDictionaryWithDefault
340
F
  0
DICTIONARY
  5
17
102
{ACAD_REACTORS
330
C
102
}
100
AcDbDictionary
280
0
281
1
  3
Standard
350
18
  0
DICTIONARY
  5
19
102
{ACAD_REACTORS
330
C
102
}
100
AcDbDictionary
281
1
  0
DICTIONARY
  5
1A
102
{ACAD_REACTORS
330
C
102
}
100
AcDbDictionary
281
1
  3
Model
350
2A6
  3
Layout1
350
2A7
  0
ACDBPLACEHOLDER
  5
F
102
{ACAD_REACTORS
330
E
102
}
  0
MLINESTYLE
  5
18
102
{ACAD_REACTORS
330
17
102
}
100
AcDbMlineStyle
  2
STANDARD
 70
0
  3

 62
256
 51
90.0
 52
90.0
 71
2
 49
0.5
 62
256
  6
BYLAYER
 49
-0.5
 62
256
  6
BYLAYER
  0
LAYOUT
  5
2A6
102
{ACAD_REACTORS
330
1A
102
}
100
AcDbPlotSettings
  1

  2
none_device
  4
ANSI_C_(22.00_x_17.00_Inches)
  6

 40
0.0
 41
0.0
 42
0.0
 43
0.0
 44
558.8
 45
431.8
 46
0.0
 47
0.0
 48
0.0
 49
0.0
140
0.0
141
0.0
142
1.0
143
1.0
 70
1024
 72
0
 73
0
 74
0
  7

 75
0
147
1.0
148
0.0
149
0.0
100
AcDbLayout
  1
Model
 70
0
 71
0
 10
0.0
 20
0.0
 11
22.0
 21
17.0
 12
0.0
 22
0.0
 32
0.0
 14
0.0
 24
0.0
 34
0.0
 15
0.0
 25
0.0
 35
0.0
146
0.0
 13
0.0
 23
0.0
 33
0.0
 16
1.0
 26
0.0
 36
0.0
 17
0.0
 27
1.0
 37
0.0
 76
0
330
216
345
0
346
0
  0
LAYOUT
  5
2A7
102
{ACAD_REACTORS
330
1A
102
}
100
AcDbPlotSettings
  1

  2
none_device
  4
ANSI_C_(22.00_x_17.00_Inches)
  6

 40
0.0
 41
0.0
 42
0.0
 43
0.0
 44
558.8
 45
431.8
 46
0.0
 47
0.0
 48
0.0
 49
0.0
140
0.0
141
0.0
142
1.0
143
1.0
 70
0
 72
0
 73
0
 74
0
  7

 75
0
147
1.0
148
0.0
149
0.0
100
AcDbLayout
  1
Layout1
 70
0
 71
1
 10
0.0
 20
0.0
 11
22.0
 21
17.0
 12
0.0
 22
0.0
 32
0.0
 14
0.0
 24
0.0
 34
0.0
 15
0.0
 25
0.0
 35
0.0
146
0.0
 13
0.0
 23
0.0
 33
0.0
 16
1.0
 26
0.0
 36
0.0
 17
0.0
 27
1.0
 37
0.0
 76
0
330
217
345
0
346
0
  0
ENDSEC
  0
EOF