999
DXF file: _cgs_temp_output.dxf
999
Pro/ENGINEER 2016360 by Parametric Technology Corporation
  0
SECTION
  2
HEADER
  9
$ACADVER
  1
AC1021
  9
$DWGCODEPAGE
  3
ANSI_1252
  9
$EXTMAX
 10
22.0
 20
17.0
 30
0.0
  9
$EXTMIN
 10
0.0
 20
0.0
 30
0.0
  9
$LIMMIN
 10
0.0
 20
0.0
  9
$LIMMAX
 10
22.0
 20
17.0
  9
$VIEWCTR
 10
11.0
 20
8.5
  9
$VIEWSIZE
 40
17.0
  9
$CLAYER
  8
0
  9
$LTSCALE
 40
1.21
  9
$CELTYPE
  6
BYLAYER
  9
$DIMSCALE
 40
1.0
  9
$DIMASZ
 40
0.1875
  9
$DIMEXO
 40
0.0625
  9
$DIMDLI
 40
0.836
  9
$DIMEXE
 40
0.125
  9
$DIMCEN
 40
0.198
  9
$DIMLFAC
 40
1.0
  9
$DIMBLK
  1
_CLOSED
  9
$DIMALT
 70
0
  9
$DIMALTF
 40
25.4
  9
$DIMTXT
 40
0.15625
  9
$DIMTOL
 70
0
  9
$DIMLIM
 70
0
  9
$DIMTFAC
 40
1.0
  9
$DIMGAP
 40
0.09
  9
$DIMDSEP
 70
46
  9
$AUNITS
 70
0
  9
$PDMODE
 70
3
  9
$PDSIZE
 40
0.3125
  9
$HANDSEED
  5
365
  9
$TILEMODE
 70
1
  9
$MEASUREMENT
 70
0
  9
$INSUNITS
 70
1
  0
ENDSEC
  0
SECTION
  2
CLASSES
  0
CLASS
  1
ACDBDICTIONARYWDFLT
  2
AcDbDictionaryWithDefault
  3
AutoCAD 2000
 90
0
 91
1
280
0
281
0
  0
CLASS
  1
ACDBPLACEHOLDER
  2
AcDbPlaceHolder
  3
AutoCAD 2000
 90
0
 91
1
280
0
281
0
  0
CLASS
  1
LAYOUT
  2
AcDbLayout
  3
AutoCAD 2000
 90
0
 91
0
280
0
281
0
  0
ENDSEC
  0
SECTION
  2
TABLES
  0
TABLE
  2
VPORT
  5
8
100
AcDbSymbolTable
 70
2
  0
VPORT
  5
1F4
100
AcDbSymbolTableRecord
100
AcDbViewportTableRecord
  2
*ACTIVE
 70
0
 10
0.0
 20
0.0
 11
1.0
 21
1.0
 12
11.0
 22
8.5
 13
0.0
 23
0.0
 14
1.0
 24
1.0
 15
0.0
 25
0.0
 16
0.0
 26
0.0
 36
1.0
 17
0.0
 27
0.0
 37
0.0
 40
17.0
 41
1.2941176471
 42
50.0
 43
0.0
 44
0.0
 50
0.0
 51
0.0
 71
0
 72
100
 73
1
 74
1
 75
0
 76
0
 77
0
 78
0
  0
ENDTAB
  0
TABLE
  2
LTYPE
  5
5
100
AcDbSymbolTable
 70
6
  0
LTYPE
  5
14
100
AcDbSymbolTableRecord
100
AcDbLinetypeTableRecord
  2
BYBLOCK
 70
0
  3

 72
65
 73
0
 40
0.0
  0
LTYPE
  5
15
100
AcDbSymbolTableRecord
100
AcDbLinetypeTableRecord
  2
BYLAYER
 70
0
  3

 72
65
 73
0
 40
0.0
  0
LTYPE
  5
16
100
AcDbSymbolTableRecord
100
AcDbLinetypeTableRecord
  2
CONTINUOUS
 70
64
  3
Solid line
 72
65
 73
0
 40
0.0
  0
LTYPE
  5
1F5
100
AcDbSymbolTableRecord
100
AcDbLinetypeTableRecord
  2
CENTER
 70
64
  3
____ _ ____ _ ____ _ ____ _ ____ _ ____ _ ____
 72
65
 73
4
 40
0.6
 49
0.375
 74
0
 49
-0.075
 74
0
 49
0.075
 74
0
 49
-0.075
 74
0
  0
LTYPE
  5
1F6
100
AcDbSymbolTableRecord
100
AcDbLinetypeTableRecord
  2
HIDDEN
 70
64
  3
- - - - - - - - - - - - - - - - - - - -
 72
65
 73
2
 40
0.2
 49
0.1
 74
0
 49
-0.1
 74
0
  0
LTYPE
  5
1F7
100
AcDbSymbolTableRecord
100
AcDbLinetypeTableRecord
  2
PHANTOM
 70
64
  3
_____ _ _ _____ _ _ _____ _ _ _____
 72
65
 73
6
 40
0.8
 49
0.45
 74
0
 49
-0.05
 74
0
 49
0.1
 74
0
 49
-0.05
 74
0
 49
0.1
 74
0
 49
-0.05
 74
0
  0
LTYPE
  5
1F8
100
AcDbSymbolTableRecord
100
AcDbLinetypeTableRecord
  2
DOT
 70
64
  3
. . . . . . . . . . . . . . . . . . . .
 72
65
 73
2
 40
0.2
 49
0.1
 74
0
 49
-0.1
 74
0
  0
LTYPE
  5
1F9
100
AcDbSymbolTableRecord
100
AcDbLinetypeTableRecord
  2
DASHED
 70
64
  3
- - - - - - - - - - - - - - - - - - - -
 72
65
 73
2
 40
0.2
 49
0.1
 74
0
 49
-0.1
 74
0
  0
ENDTAB
  0
TABLE
  2
LAYER
  5
2
100
AcDbSymbolTable
 70
36
  0
LAYER
  5
10
100
AcDbSymbolTableRecord
100
AcDbLayerTableRecord
  2
0
 70
0
 62
7
  6
CONTINUOUS
370
-3
390
F
  0
LAYER
  5
1FA
100
AcDbSymbolTableRecord
100
AcDbLayerTableRecord
  2
DEFAULT_1
 70
0
 62
7
  6
CENTER
370
-3
390
F
  0
LAYER
  5
1FB
100
AcDbSymbolTableRecord
100
AcDbLayerTableRecord
  2
DEFAULT_2
 70
0
 62
8
  6
HIDDEN
370
-3
390
F
  0
LAYER
  5
1FC
100
AcDbSymbolTableRecord
100
AcDbLayerTableRecord
  2
DEFAULT_3
 70
0
 62
7
  6
PHANTOM
370
-3
390
F
  0
LAYER
  5
1FD
100
AcDbSymbolTableRecord
100
AcDbLayerTableRecord
  2
01_ALL_DTM_PLN
 70
0
 62
7
  6
CONTINUOUS
370
-3
390
F
  0
LAYER
  5
1FE
100
AcDbSymbolTableRecord
100
AcDbLayerTableRecord
  2
01__ASM_ALL_DTM_PLN
 70
0
 62
7
  6
CONTINUOUS
370
-3
390
F
  0
LAYER
  5
1FF
100
AcDbSymbolTableRecord
100
AcDbLayerTableRecord
  2
01__ASM_DEF_DTM_PLN
 70
0
 62
7
  6
CONTINUOUS
370
-3
390
F
  0
LAYER
  5
200
100
AcDbSymbolTableRecord
100
AcDbLayerTableRecord
  2
01___PRT_ALL_DTM_PLN
 70
0
 62
7
  6
CONTINUOUS
370
-3
390
F
  0
LAYER
  5
201
100
AcDbSymbolTableRecord
100
AcDbLayerTableRecord
  2
01___PRT_DEF_DTM_PLN
 70
0
 62
7
  6
CONTINUOUS
370
-3
390
F
  0
LAYER
  5
202
100
AcDbSymbolTableRecord
100
AcDbLayerTableRecord
  2
02_ALL_AXES
 70
0
 62
7
  6
CONTINUOUS
370
-3
390
F
  0
LAYER
  5
203
100
AcDbSymbolTableRecord
100
AcDbLayerTableRecord
  2
02__ASM_ALL_AXES
 70
0
 62
7
  6
CONTINUOUS
370
-3
390
F
  0
LAYER
  5
204
100
AcDbSymbolTableRecord
100
AcDbLayerTableRecord
  2
02___PRT_ALL_AXES
 70
0
 62
7
  6
CONTINUOUS
370
-3
390
F
  0
LAYER
  5
205
100
AcDbSymbolTableRecord
100
AcDbLayerTableRecord
  2
03_ALL_CURVES
 70
0
 62
7
  6
CONTINUOUS
370
-3
390
F
  0
LAYER
  5
206
100
AcDbSymbolTableRecord
100
AcDbLayerTableRecord
  2
03__ASM_ALL_CURVES
 70
0
 62
7
  6
CONTINUOUS
370
-3
390
F
  0
LAYER
  5
207
100
AcDbSymbolTableRecord
100
AcDbLayerTableRecord
  2
03___PRT_ALL_CURVES
 70
0
 62
7
  6
CONTINUOUS
370
-3
390
F
  0
LAYER
  5
208
100
AcDbSymbolTableRecord
100
AcDbLayerTableRecord
  2
04_ALL_DTM_PNT
 70
0
 62
7
  6
CONTINUOUS
370
-3
390
F
  0
LAYER
  5
209
100
AcDbSymbolTableRecord
100
AcDbLayerTableRecord
  2
04__ASM_ALL_DTM_PNT
 70
0
 62
7
  6
CONTINUOUS
370
-3
390
F
  0
LAYER
  5
20A
100
AcDbSymbolTableRecord
100
AcDbLayerTableRecord
  2
04___PRT_ALL_DTM_PNT
 70
0
 62
7
  6
CONTINUOUS
370
-3
390
F
  0
LAYER
  5
20B
100
AcDbSymbolTableRecord
100
AcDbLayerTableRecord
  2
05_ALL_DTM_CSYS
 70
0
 62
7
  6
CONTINUOUS
370
-3
390
F
  0
LAYER
  5
20C
100
AcDbSymbolTableRecord
100
AcDbLayerTableRecord
  2
05__ASM_ALL_DTM_CSYS
 70
0
 62
7
  6
CONTINUOUS
370
-3
390
F
  0
LAYER
  5
20D
100
AcDbSymbolTableRecord
100
AcDbLayerTableRecord
  2
05__ASM_DEF_DTM_CSYS
 70
0
 62
7
  6
CONTINUOUS
370
-3
390
F
  0
LAYER
  5
20E
100
AcDbSymbolTableRecord
100
AcDbLayerTableRecord
  2
05___PRT_ALL_DTM_CSYS
 70
0
 62
7
  6
CONTINUOUS
370
-3
390
F
  0
LAYER
  5
20F
100
AcDbSymbolTableRecord
100
AcDbLayerTableRecord
  2
05___PRT_DEF_DTM_CSYS
 70
0
 62
7
  6
CONTINUOUS
370
-3
390
F
  0
LAYER
  5
210
100
AcDbSymbolTableRecord
100
AcDbLayerTableRecord
  2
06_ALL_SURFS
 70
0
 62
7
  6
CONTINUOUS
370
-3
390
F
  0
LAYER
  5
211
100
AcDbSymbolTableRecord
100
AcDbLayerTableRecord
  2
06__ASM_ALL_SURFS
 70
0
 62
7
  6
CONTINUOUS
370
-3
390
F
  0
LAYER
  5
212
100
AcDbSymbolTableRecord
100
AcDbLayerTableRecord
  2
06___PRT_ALL_SURFS
 70
0
 62
7
  6
CONTINUOUS
370
-3
390
F
  0
LAYER
  5
213
100
AcDbSymbolTableRecord
100
AcDbLayerTableRecord
  2
07__ASM_ALL_SKELETONS
 70
0
 62
7
  6
CONTINUOUS
370
-3
390
F
  0
LAYER
  5
214
100
AcDbSymbolTableRecord
100
AcDbLayerTableRecord
  2
LAYER_AXIS
 70
0
 62
7
  6
CONTINUOUS
370
-3
390
F
  0
LAYER
  5
215
100
AcDbSymbolTableRecord
100
AcDbLayerTableRecord
  2
LAYER_CHAMFER_FEAT
 70
0
 62
7
  6
CONTINUOUS
370
-3
390
F
  0
LAYER
  5
216
100
AcDbSymbolTableRecord
100
AcDbLayerTableRecord
  2
LAYER_CUT_FEAT
 70
0
 62
7
  6
CONTINUOUS
370
-3
390
F
  0
LAYER
  5
217
100
AcDbSymbolTableRecord
100
AcDbLayerTableRecord
  2
LAYER_DATUM
 70
0
 62
7
  6
CONTINUOUS
370
-3
390
F
  0
LAYER
  5
218
100
AcDbSymbolTableRecord
100
AcDbLayerTableRecord
  2
LAYER_DIM
 70
0
 62
7
  6
CONTINUOUS
370
-3
390
F
  0
LAYER
  5
219
100
AcDbSymbolTableRecord
100
AcDbLayerTableRecord
  2
LAYER_FEATURE
 70
0
 62
7
  6
CONTINUOUS
370
-3
390
F
  0
LAYER
  5
21A
100
AcDbSymbolTableRecord
100
AcDbLayerTableRecord
  2
LAYER_GEOM_FEAT
 70
0
 62
7
  6
CONTINUOUS
370
-3
390
F
  0
LAYER
  5
21B
100
AcDbSymbolTableRecord
100
AcDbLayerTableRecord
  2
LAYER_NOGEOM_FEAT
 70
0
 62
7
  6
CONTINUOUS
370
-3
390
F
  0
LAYER
  5
21C
100
AcDbSymbolTableRecord
100
AcDbLayerTableRecord
  2
LAYER_PARAMETER_DIM
 70
0
 62
7
  6
CONTINUOUS
370
-3
390
F
  0
LAYER
  5
21D
100
AcDbSymbolTableRecord
100
AcDbLayerTableRecord
  2
LAYER_PROTRUSION_FEAT
 70
0
 62
7
  6
CONTINUOUS
370
-3
390
F
  0
LAYER
  5
21E
100
AcDbSymbolTableRecord
100
AcDbLayerTableRecord
  2
LAYER_QUILT
 70
0
 62
7
  6
CONTINUOUS
370
-3
390
F
  0
LAYER
  5
21F
100
AcDbSymbolTableRecord
100
AcDbLayerTableRecord
  2
LAYER_ROUND_FEAT
 70
0
 62
7
  6
CONTINUOUS
370
-3
390
F
  0
ENDTAB
  0
TABLE
  2
STYLE
  5
3
100
AcDbSymbolTable
 70
1
  0
STYLE
  5
11
100
AcDbSymbolTableRecord
100
AcDbTextStyleTableRecord
  2
STANDARD
 70
0
 40
0.0
 41
0.8
 50
0.0
 71
0
 42
0.2
  3
txt
  4

  0
STYLE
  5
220
100
AcDbSymbolTableRecord
100
AcDbTextStyleTableRecord
  2
TEXTSTYLE_1
 70
0
 40
0.0
 41
0.8
 50
0.0
 71
0
 42
0.2
  3
gdt
  4

  0
ENDTAB
  0
TABLE
  2
VIEW
  5
6
100
AcDbSymbolTable
 70
0
  0
ENDTAB
  0
TABLE
  2
UCS
  5
7
100
AcDbSymbolTable
 70
0
  0
ENDTAB
  0
TABLE
  2
APPID
  5
9
100
AcDbSymbolTable
 70
1
  0
APPID
  5
221
100
AcDbSymbolTableRecord
100
AcDbRegAppTableRecord
  2
ACAD
 70
0
  0
ENDTAB
  0
TABLE
  2
BLOCK_RECORD
  5
1
100
AcDbSymbolTable
 70
0
  0
BLOCK_RECORD
  5
222
100
AcDbSymbolTableRecord
100
AcDbBlockTableRecord
  2
*Model_Space
  0
BLOCK_RECORD
  5
223
100
AcDbSymbolTableRecord
100
AcDbBlockTableRecord
  2
*Paper_Space
  0
ENDTAB
  0
TABLE
  2
DIMSTYLE
  5
A
100
AcDbSymbolTable
 70
1
100
AcDbDimStyleTable
 71
0
  0
DIMSTYLE
105
224
100
AcDbSymbolTableRecord
100
AcDbDimStyleTableRecord
  2
STANDARD
 70
0
  3

  4

 40
1.0
 41
0.1875
 42
0.0625
 43
0.38
 44
0.125
 45
0.0
 46
0.0
 47
0.0001
 48
0.0001
140
0.15625
141
0.09
142
0.0
143
25.4
144
1.0
145
0.0
146
1.0
147
0.09
 71
0.0
 72
0.0
 73
1
 74
1
 75
0
 76
0
 77
0
 78
4
 79
1
170
0
171
3
172
0
173
0
174
0
175
0
176
0
177
0
178
0
270
2
179
4
271
4
272
4
273
2
274
2
275
0
280
0
281
0
282
0
283
1
284
4
285
0
286
0
287
3
288
0
340
11
278
46
  0
ENDTAB
  0
ENDSEC
  0
SECTION
  2
BLOCKS
  0
BLOCK
  5
20
100
AcDbEntity
  8
0
100
AcDbBlockBegin
  2
*Model_Space
 70
0
 10
0.0
 20
0.0
 30
0.0
  3
*Model_Space
  1

  0
ENDBLK
  5
21
100
AcDbEntity
  8
0
100
AcDbBlockEnd
  0
BLOCK
  5
1C
100
AcDbEntity
  8
0
100
AcDbBlockBegin
  2
*Paper_Space
 70
0
 10
0.0
 20
0.0
 30
0.0
  3
*Paper_Space
  1

  0
ENDBLK
  5
1D
100
AcDbEntity
  8
0
100
AcDbBlockEnd
  0
ENDSEC
  0
SECTION
  2
ENTITIES
  0
MTEXT
  5
225
100
AcDbEntity
  8
0
100
AcDbMText
 62
7
  6
CONTINUOUS
  7
STANDARD
 71
1
 72
1
 10
15.9560215477
 20
0.9479130325
 30
0.0
 11
1.0
 21
0.0
 31
0.0
 44
0.9
  1
SCALE: 1:3.000
 40
0.3
 41
3.36
  0
LINE
  5
226
100
AcDbEntity
  8
0
100
AcDbLine
 62
7
  6
CONTINUOUS
 10
0.0
 20
0.0
 11
0.0
 21
17.0
  0
LINE
  5
227
100
AcDbEntity
  8
0
100
AcDbLine
 62
7
  6
CONTINUOUS
 10
0.0
 20
0.0
 11
22.0
 21
0.0
  0
LINE
  5
228
100
AcDbEntity
  8
0
100
AcDbLine
 62
7
  6
CONTINUOUS
 10
0.0
 20
17.0
 11
22.0
 21
17.0
  0
LINE
  5
229
100
AcDbEntity
  8
0
100
AcDbLine
 62
7
  6
CONTINUOUS
 10
22.0
 20
0.0
 11
22.0
 21
17.0
  0
LINE
  5
22A
100
AcDbEntity
  8
LAYER_FEATURE
100
AcDbLine
 62
7
  6
CONTINUOUS
 10
5.9647672762
 20
6.1831198968
 11
5.9353641956
 21
6.1537168162
  0
LINE
  5
22B
100
AcDbEntity
  8
LAYER_FEATURE
100
AcDbLine
 62
7
  6
CONTINUOUS
 10
6.7933672762
 20
5.6857198968
 11
6.7933672762
 21
5.3545198968
  0
LINE
  5
22C
100
AcDbEntity
  8
LAYER_FEATURE
100
AcDbLine
 62
7
  6
CONTINUOUS
 10
6.7933672762
 20
5.3545198968
 11
6.7639641956
 21
5.3251168162
  0
LINE
  5
22D
100
AcDbEntity
  8
LAYER_FEATURE
100
AcDbLine
 62
7
  6
CONTINUOUS
 10
5.9647672762
 20
6.1831198968
 11
6.2959672762
 21
6.1831198968
  0
LINE
  5
22E
100
AcDbEntity
  8
LAYER_FEATURE
100
AcDbLine
 62
7
  6
CONTINUOUS
 10
6.2959672762
 20
6.1831198968
 11
6.3253703567
 21
6.1537168162
  0
LINE
  5
22F
100
AcDbEntity
  8
LAYER_FEATURE
100
AcDbLine
 62
7
  6
CONTINUOUS
 10
6.7933672762
 20
5.6857198968
 11
6.7639641956
 21
5.7151229773
  0
LINE
  5
230
100
AcDbEntity
  8
LAYER_FEATURE
100
AcDbLine
 62
7
  6
CONTINUOUS
 10
4.8903720839
 20
12.2743602814
 11
4.8903720839
 21
12.3703602814
  0
LINE
  5
231
100
AcDbEntity
  8
LAYER_FEATURE
100
AcDbLine
 62
7
  6
CONTINUOUS
 10
4.8903720839
 20
13.7203602814
 11
4.8903720839
 21
13.8163602814
  0
LINE
  5
232
100
AcDbEntity
  8
02___PRT_ALL_AXES
100
AcDbLine
 62
7
  6
CONTINUOUS
 10
5.4078720839
 20
11.3837352814
 11
6.7338720839
 21
11.3837352814
  0
LINE
  5
233
100
AcDbEntity
  8
LAYER_FEATURE
100
AcDbLine
 62
7
  6
CONTINUOUS
 10
5.2023445033
 20
12.4303602814
 11
5.2023445033
 21
13.6603602814
  0
LINE
  5
234
100
AcDbEntity
  8
LAYER_FEATURE
100
AcDbLine
 62
7
  6
CONTINUOUS
 10
5.2090969394
 20
12.4303602814
 11
5.2090969394
 21
13.6603602814
  0
LINE
  5
235
100
AcDbEntity
  8
LAYER_FEATURE
100
AcDbLine
 62
7
  6
CONTINUOUS
 10
5.2547807865
 20
12.4303602814
 11
5.2547807865
 21
13.6603602814
  0
LINE
  5
236
100
AcDbEntity
  8
LAYER_FEATURE
100
AcDbLine
 62
7
  6
CONTINUOUS
 10
5.2745779275
 20
12.4303602814
 11
5.2745779275
 21
13.6603602814
  0
LINE
  5
237
100
AcDbEntity
  8
LAYER_CUT_FEAT
100
AcDbLine
 62
7
  6
CONTINUOUS
 10
6.011116331
 20
11.7489852814
 11
6.1306278367
 21
11.7489852814
  0
LINE
  5
238
100
AcDbEntity
  8
LAYER_FEATURE
100
AcDbLine
 62
7
  6
CONTINUOUS
 10
5.3628323429
 20
12.4303602814
 11
5.3628323429
 21
13.6603602814
  0
LINE
  5
239
100
AcDbEntity
  8
LAYER_FEATURE
100
AcDbLine
 62
7
  6
CONTINUOUS
 10
5.3943250464
 20
12.4303602814
 11
5.3943250464
 21
13.6603602814
  0
LINE
  5
23A
100
AcDbEntity
  8
02___PRT_ALL_AXES
100
AcDbLine
 62
7
  6
CONTINUOUS
 10
5.4078720839
 20
11.3837352814
 11
5.4078720839
 21
12.2743602814
  0
LINE
  5
23B
100
AcDbEntity
  8
LAYER_CUT_FEAT
100
AcDbLine
 62
7
  6
CONTINUOUS
 10
5.5182878066
 20
13.6603602814
 11
5.5182878066
 21
12.4303602814
  0
LINE
  5
23C
100
AcDbEntity
  8
LAYER_FEATURE
100
AcDbLine
 62
7
  6
CONTINUOUS
 10
5.5191356376
 20
12.4303602814
 11
5.5191356376
 21
13.6603602814
  0
LINE
  5
23D
100
AcDbEntity
  8
LAYER_FEATURE
100
AcDbLine
 62
7
  6
CONTINUOUS
 10
7.144742395
 20
13.6763892757
 11
7.2513720839
 21
13.7203602814
  0
LINE
  5
23E
100
AcDbEntity
  8
LAYER_CUT_FEAT
100
AcDbLine
 62
7
  6
CONTINUOUS
 10
6.1306278367
 20
11.9559852814
 11
6.011116331
 21
11.9559852814
  0
LINE
  5
23F
100
AcDbEntity
  8
LAYER_FEATURE
100
AcDbLine
 62
7
  6
CONTINUOUS
 10
5.5601777278
 20
12.4303602814
 11
5.5601777278
 21
13.6603602814
  0
LINE
  5
240
100
AcDbEntity
  8
LAYER_CUT_FEAT
100
AcDbLine
 62
7
  6
CONTINUOUS
 10
5.9513605781
 20
11.8524852814
 11
6.011116331
 21
11.7489852814
  0
LINE
  5
241
100
AcDbEntity
  8
LAYER_CUT_FEAT
100
AcDbLine
 62
7
  6
CONTINUOUS
 10
5.7095624685
 20
13.6603602814
 11
5.7095624685
 21
12.4303602814
  0
LINE
  5
242
100
AcDbEntity
  8
LAYER_FEATURE
100
AcDbLine
 62
7
  6
CONTINUOUS
 10
5.7130388594
 20
12.4303602814
 11
5.7130388594
 21
13.6603602814
  0
LINE
  5
243
100
AcDbEntity
  8
LAYER_FEATURE
100
AcDbLine
 62
7
  6
CONTINUOUS
 10
4.8903720839
 20
12.2743602814
 11
7.2513720839
 21
12.2743602814
  0
LINE
  5
244
100
AcDbEntity
  8
LAYER_FEATURE
100
AcDbLine
 62
7
  6
CONTINUOUS
 10
5.7608333857
 20
12.4303602814
 11
5.7608333857
 21
13.6603602814
  0
LINE
  5
245
100
AcDbEntity
  8
LAYER_FEATURE
100
AcDbLine
 62
7
  6
CONTINUOUS
 10
4.8903720839
 20
12.3703602814
 11
4.9970017727
 21
12.4143312871
  0
LINE
  5
246
100
AcDbEntity
  8
LAYER_FEATURE
100
AcDbLine
 62
7
  6
CONTINUOUS
 10
4.8903720839
 20
12.3703602814
 11
7.2513720839
 21
12.3703602814
  0
LINE
  5
247
100
AcDbEntity
  8
LAYER_CUT_FEAT
100
AcDbLine
 62
7
  6
CONTINUOUS
 10
6.1903835896
 20
11.8524852814
 11
6.1306278367
 21
11.9559852814
  0
LINE
  5
248
100
AcDbEntity
  8
LAYER_CUT_FEAT
100
AcDbLine
 62
7
  6
CONTINUOUS
 10
5.9221560579
 20
13.6603602814
 11
5.9221560579
 21
12.4303602814
  0
LINE
  5
249
100
AcDbEntity
  8
LAYER_FEATURE
100
AcDbLine
 62
7
  6
CONTINUOUS
 10
5.931327824
 20
12.4303602814
 11
5.931327824
 21
13.6603602814
  0
LINE
  5
24A
100
AcDbEntity
  8
LAYER_FEATURE
100
AcDbLine
 62
7
  6
CONTINUOUS
 10
7.0638265164
 20
12.4303602814
 11
5.0779176514
 21
12.4303602814
  0
LINE
  5
24B
100
AcDbEntity
  8
LAYER_FEATURE
100
AcDbLine
 62
7
  6
CONTINUOUS
 10
5.9826176684
 20
12.4303602814
 11
5.9826176684
 21
13.6603602814
  0
LINE
  5
24C
100
AcDbEntity
  8
LAYER_FEATURE
100
AcDbLine
 62
7
  6
CONTINUOUS
 10
6.1591264993
 20
12.4303602814
 11
6.1591264993
 21
13.6603602814
  0
LINE
  5
24D
100
AcDbEntity
  8
LAYER_FEATURE
100
AcDbLine
 62
7
  6
CONTINUOUS
 10
6.7245649425
 20
12.0273924227
 11
6.7338720839
 21
12.0180852814
  0
LINE
  5
24E
100
AcDbEntity
  8
LAYER_FEATURE
100
AcDbLine
 62
7
  6
CONTINUOUS
 10
6.2104163437
 20
12.4303602814
 11
6.2104163437
 21
13.6603602814
  0
LINE
  5
24F
100
AcDbEntity
  8
LAYER_CUT_FEAT
100
AcDbLine
 62
7
  6
CONTINUOUS
 10
6.2195881098
 20
13.6603602814
 11
6.2195881098
 21
12.4303602814
  0
LINE
  5
250
100
AcDbEntity
  8
LAYER_FEATURE
100
AcDbLine
 62
7
  6
CONTINUOUS
 10
7.2513720839
 20
12.3703602814
 11
7.144742395
 21
12.4143312871
  0
LINE
  5
251
100
AcDbEntity
  8
LAYER_FEATURE
100
AcDbLine
 62
7
  6
CONTINUOUS
 10
6.3809107821
 20
12.4303602814
 11
6.3809107821
 21
13.6603602814
  0
LINE
  5
252
100
AcDbEntity
  8
LAYER_CUT_FEAT
100
AcDbLine
 62
7
  6
CONTINUOUS
 10
6.011116331
 20
11.9559852814
 11
5.9513605781
 21
11.8524852814
  0
LINE
  5
253
100
AcDbEntity
  8
LAYER_FEATURE
100
AcDbLine
 62
7
  6
CONTINUOUS
 10
6.4287053084
 20
12.4303602814
 11
6.4287053084
 21
13.6603602814
  0
LINE
  5
254
100
AcDbEntity
  8
LAYER_CUT_FEAT
100
AcDbLine
 62
7
  6
CONTINUOUS
 10
6.4321816992
 20
13.6603602814
 11
6.4321816992
 21
12.4303602814
  0
LINE
  5
255
100
AcDbEntity
  8
LAYER_FEATURE
100
AcDbLine
 62
7
  6
CONTINUOUS
 10
6.5815664399
 20
12.4303602814
 11
6.5815664399
 21
13.6603602814
  0
LINE
  5
256
100
AcDbEntity
  8
LAYER_FEATURE
100
AcDbLine
 62
7
  6
CONTINUOUS
 10
6.6226085301
 20
12.4303602814
 11
6.6226085301
 21
13.6603602814
  0
LINE
  5
257
100
AcDbEntity
  8
LAYER_CUT_FEAT
100
AcDbLine
 62
7
  6
CONTINUOUS
 10
6.6234563611
 20
13.6603602814
 11
6.6234563611
 21
12.4303602814
  0
LINE
  5
258
100
AcDbEntity
  8
LAYER_CUT_FEAT
100
AcDbLine
 62
7
  6
CONTINUOUS
 10
6.1306278367
 20
11.7489852814
 11
6.1903835896
 21
11.8524852814
  0
LINE
  5
259
100
AcDbEntity
  8
02___PRT_ALL_AXES
100
AcDbLine
 62
7
  6
CONTINUOUS
 10
6.7338720839
 20
11.3837352814
 11
6.7338720839
 21
11.6454852814
  0
LINE
  5
25A
100
AcDbEntity
  8
LAYER_FEATURE
100
AcDbLine
 62
7
  6
CONTINUOUS
 10
6.7338720839
 20
11.6868853735
 11
6.7338720839
 21
12.0180851892
  0
LINE
  5
25B
100
AcDbEntity
  8
02___PRT_ALL_AXES
100
AcDbLine
 62
7
  6
CONTINUOUS
 10
6.7338720839
 20
12.0594852814
 11
6.7338720839
 21
12.2743602814
  0
LINE
  5
25C
100
AcDbEntity
  8
LAYER_FEATURE
100
AcDbLine
 62
7
  6
CONTINUOUS
 10
6.7474191213
 20
12.4303602814
 11
6.7474191213
 21
13.6603602814
  0
LINE
  5
25D
100
AcDbEntity
  8
LAYER_FEATURE
100
AcDbLine
 62
7
  6
CONTINUOUS
 10
4.9970017727
 20
13.6763892757
 11
4.8903720839
 21
13.7203602814
  0
LINE
  5
25E
100
AcDbEntity
  8
LAYER_FEATURE
100
AcDbLine
 62
7
  6
CONTINUOUS
 10
6.7789118248
 20
12.4303602814
 11
6.7789118248
 21
13.6603602814
  0
LINE
  5
25F
100
AcDbEntity
  8
LAYER_FEATURE
100
AcDbLine
 62
7
  6
CONTINUOUS
 10
6.8671662402
 20
12.4303602814
 11
6.8671662402
 21
13.6603602814
  0
LINE
  5
260
100
AcDbEntity
  8
LAYER_FEATURE
100
AcDbLine
 62
7
  6
CONTINUOUS
 10
6.8869633812
 20
12.4303602814
 11
6.8869633812
 21
13.6603602814
  0
LINE
  5
261
100
AcDbEntity
  8
LAYER_FEATURE
100
AcDbLine
 62
7
  6
CONTINUOUS
 10
6.9326472283
 20
12.4303602814
 11
6.9326472283
 21
13.6603602814
  0
LINE
  5
262
100
AcDbEntity
  8
LAYER_FEATURE
100
AcDbLine
 62
7
  6
CONTINUOUS
 10
6.9393996644
 20
12.4303602814
 11
6.9393996644
 21
13.6603602814
  0
LINE
  5
263
100
AcDbEntity
  8
LAYER_FEATURE
100
AcDbLine
 62
7
  6
CONTINUOUS
 10
6.7245649399
 20
11.6775781374
 11
6.7338720839
 21
11.6868852814
  0
LINE
  5
264
100
AcDbEntity
  8
LAYER_FEATURE
100
AcDbLine
 62
7
  6
CONTINUOUS
 10
7.0638265164
 20
13.6603602814
 11
5.0779176514
 21
13.6603602814
  0
LINE
  5
265
100
AcDbEntity
  8
LAYER_FEATURE
100
AcDbLine
 62
7
  6
CONTINUOUS
 10
4.8903720839
 20
13.7203602814
 11
7.2513720839
 21
13.7203602814
  0
LINE
  5
266
100
AcDbEntity
  8
LAYER_FEATURE
100
AcDbLine
 62
7
  6
CONTINUOUS
 10
7.2513720839
 20
12.2743602814
 11
7.2513720839
 21
12.3703602814
  0
LINE
  5
267
100
AcDbEntity
  8
LAYER_FEATURE
100
AcDbLine
 62
7
  6
CONTINUOUS
 10
7.2513720839
 20
13.7203602814
 11
7.2513720839
 21
13.8163602814
  0
LINE
  5
268
100
AcDbEntity
  8
LAYER_FEATURE
100
AcDbLine
 62
7
  6
CONTINUOUS
 10
4.8903720839
 20
13.8163602814
 11
7.2513720839
 21
13.8163602814
  0
LINE
  5
269
100
AcDbEntity
  8
02___PRT_ALL_AXES
100
AcDbLine
 62
7
  6
CONTINUOUS
 10
14.3440427569
 20
6.1236247044
 11
14.3440427569
 21
4.7976247044
  0
LINE
  5
26A
100
AcDbEntity
  8
LAYER_FEATURE
100
AcDbLine
 62
7
  6
CONTINUOUS
 10
16.7766677569
 20
4.2801247044
 11
16.6806677569
 21
4.2801247044
  0
LINE
  5
26B
100
AcDbEntity
  8
LAYER_FEATURE
100
AcDbLine
 62
7
  6
CONTINUOUS
 10
15.3306677569
 20
4.2801247044
 11
15.2346677569
 21
4.2801247044
  0
LINE
  5
26C
100
AcDbEntity
  8
LAYER_FEATURE
100
AcDbLine
 62
7
  6
CONTINUOUS
 10
14.6378907345
 20
6.114322682
 11
14.6471927569
 21
6.1236247044
  0
LINE
  5
26D
100
AcDbEntity
  8
LAYER_CUT_FEAT
100
AcDbLine
 62
7
  6
CONTINUOUS
 10
14.7092927569
 20
5.5203804573
 11
14.7092927569
 21
5.4008689516
  0
LINE
  5
26E
100
AcDbEntity
  8
LAYER_FEATURE
100
AcDbLine
 62
7
  6
CONTINUOUS
 10
15.3906677569
 20
4.5920971239
 11
16.6206677569
 21
4.5920971239
  0
LINE
  5
26F
100
AcDbEntity
  8
LAYER_FEATURE
100
AcDbLine
 62
7
  6
CONTINUOUS
 10
15.3906677569
 20
4.59884956
 11
16.6206677569
 21
4.59884956
  0
LINE
  5
270
100
AcDbEntity
  8
LAYER_FEATURE
100
AcDbLine
 62
7
  6
CONTINUOUS
 10
15.3906677569
 20
4.6445334071
 11
16.6206677569
 21
4.6445334071
  0
LINE
  5
271
100
AcDbEntity
  8
LAYER_FEATURE
100
AcDbLine
 62
7
  6
CONTINUOUS
 10
15.3906677569
 20
4.6643305481
 11
16.6206677569
 21
4.6643305481
  0
LINE
  5
272
100
AcDbEntity
  8
LAYER_FEATURE
100
AcDbLine
 62
7
  6
CONTINUOUS
 10
15.3906677569
 20
4.7525849635
 11
16.6206677569
 21
4.7525849635
  0
LINE
  5
273
100
AcDbEntity
  8
LAYER_FEATURE
100
AcDbLine
 62
7
  6
CONTINUOUS
 10
15.3906677569
 20
4.784077667
 11
16.6206677569
 21
4.784077667
  0
LINE
  5
274
100
AcDbEntity
  8
02___PRT_ALL_AXES
100
AcDbLine
 62
7
  6
CONTINUOUS
 10
15.2346677569
 20
4.7976247044
 11
14.3440427569
 21
4.7976247044
  0
LINE
  5
275
100
AcDbEntity
  8
LAYER_CUT_FEAT
100
AcDbLine
 62
7
  6
CONTINUOUS
 10
14.9162927569
 20
5.4008689516
 11
14.9162927569
 21
5.5203804573
  0
LINE
  5
276
100
AcDbEntity
  8
LAYER_CUT_FEAT
100
AcDbLine
 62
7
  6
CONTINUOUS
 10
16.6206677569
 20
4.9080404272
 11
15.3906677569
 21
4.9080404272
  0
LINE
  5
277
100
AcDbEntity
  8
LAYER_FEATURE
100
AcDbLine
 62
7
  6
CONTINUOUS
 10
15.3906677569
 20
4.9088882582
 11
16.6206677569
 21
4.9088882582
  0
LINE
  5
278
100
AcDbEntity
  8
LAYER_CUT_FEAT
100
AcDbLine
 62
7
  6
CONTINUOUS
 10
14.8127927569
 20
5.5801362102
 11
14.7092927569
 21
5.5203804573
  0
LINE
  5
279
100
AcDbEntity
  8
LAYER_FEATURE
100
AcDbLine
 62
7
  6
CONTINUOUS
 10
15.3906677569
 20
4.9499303484
 11
16.6206677569
 21
4.9499303484
  0
LINE
  5
27A
100
AcDbEntity
  8
LAYER_CUT_FEAT
100
AcDbLine
 62
7
  6
CONTINUOUS
 10
14.7092927569
 20
5.4008689516
 11
14.8127927569
 21
5.3411131987
  0
LINE
  5
27B
100
AcDbEntity
  8
LAYER_FEATURE
100
AcDbLine
 62
7
  6
CONTINUOUS
 10
15.2346677569
 20
6.6411247044
 11
15.2346677569
 21
4.2801247044
  0
LINE
  5
27C
100
AcDbEntity
  8
LAYER_CUT_FEAT
100
AcDbLine
 62
7
  6
CONTINUOUS
 10
16.6206677569
 20
5.0993150891
 11
15.3906677569
 21
5.0993150891
  0
LINE
  5
27D
100
AcDbEntity
  8
LAYER_FEATURE
100
AcDbLine
 62
7
  6
CONTINUOUS
 10
15.3906677569
 20
5.1027914799
 11
16.6206677569
 21
5.1027914799
  0
LINE
  5
27E
100
AcDbEntity
  8
LAYER_FEATURE
100
AcDbLine
 62
7
  6
CONTINUOUS
 10
15.3306677569
 20
6.6411247044
 11
15.3306677569
 21
4.2801247044
  0
LINE
  5
27F
100
AcDbEntity
  8
LAYER_CUT_FEAT
100
AcDbLine
 62
7
  6
CONTINUOUS
 10
14.8127927569
 20
5.3411131987
 11
14.9162927569
 21
5.4008689516
  0
LINE
  5
280
100
AcDbEntity
  8
LAYER_FEATURE
100
AcDbLine
 62
7
  6
CONTINUOUS
 10
15.3906677569
 20
5.1505860062
 11
16.6206677569
 21
5.1505860062
  0
LINE
  5
281
100
AcDbEntity
  8
LAYER_CUT_FEAT
100
AcDbLine
 62
7
  6
CONTINUOUS
 10
14.9162927569
 20
5.5203804573
 11
14.8127927569
 21
5.5801362102
  0
LINE
  5
282
100
AcDbEntity
  8
LAYER_FEATURE
100
AcDbLine
 62
7
  6
CONTINUOUS
 10
15.3906677569
 20
4.4676702719
 11
15.3906677569
 21
6.4535791369
  0
LINE
  5
283
100
AcDbEntity
  8
LAYER_CUT_FEAT
100
AcDbLine
 62
7
  6
CONTINUOUS
 10
16.6206677569
 20
5.3119086785
 11
15.3906677569
 21
5.3119086785
  0
LINE
  5
284
100
AcDbEntity
  8
LAYER_FEATURE
100
AcDbLine
 62
7
  6
CONTINUOUS
 10
15.3906677569
 20
5.3210804446
 11
16.6206677569
 21
5.3210804446
  0
LINE
  5
285
100
AcDbEntity
  8
LAYER_FEATURE
100
AcDbLine
 62
7
  6
CONTINUOUS
 10
15.3906677569
 20
5.372370289
 11
16.6206677569
 21
5.372370289
  0
LINE
  5
286
100
AcDbEntity
  8
LAYER_FEATURE
100
AcDbLine
 62
7
  6
CONTINUOUS
 10
15.3906677569
 20
5.5488791199
 11
16.6206677569
 21
5.5488791199
  0
LINE
  5
287
100
AcDbEntity
  8
LAYER_FEATURE
100
AcDbLine
 62
7
  6
CONTINUOUS
 10
14.9876947795
 20
6.1143226818
 11
14.9783927569
 21
6.1236247044
  0
LINE
  5
288
100
AcDbEntity
  8
LAYER_FEATURE
100
AcDbLine
 62
7
  6
CONTINUOUS
 10
15.3746387626
 20
4.3867543933
 11
15.3306677569
 21
4.2801247044
  0
LINE
  5
289
100
AcDbEntity
  8
LAYER_FEATURE
100
AcDbLine
 62
7
  6
CONTINUOUS
 10
15.3906677569
 20
5.6001689643
 11
16.6206677569
 21
5.6001689643
  0
LINE
  5
28A
100
AcDbEntity
  8
LAYER_CUT_FEAT
100
AcDbLine
 62
7
  6
CONTINUOUS
 10
16.6206677569
 20
5.6093407304
 11
15.3906677569
 21
5.6093407304
  0
LINE
  5
28B
100
AcDbEntity
  8
LAYER_FEATURE
100
AcDbLine
 62
7
  6
CONTINUOUS
 10
15.3746387626
 20
6.5344950156
 11
15.3306677569
 21
6.6411247044
  0
LINE
  5
28C
100
AcDbEntity
  8
LAYER_FEATURE
100
AcDbLine
 62
7
  6
CONTINUOUS
 10
15.3906677569
 20
5.7706634026
 11
16.6206677569
 21
5.7706634026
  0
LINE
  5
28D
100
AcDbEntity
  8
LAYER_FEATURE
100
AcDbLine
 62
7
  6
CONTINUOUS
 10
15.3906677569
 20
5.8184579289
 11
16.6206677569
 21
5.8184579289
  0
LINE
  5
28E
100
AcDbEntity
  8
LAYER_CUT_FEAT
100
AcDbLine
 62
7
  6
CONTINUOUS
 10
16.6206677569
 20
5.8219343198
 11
15.3906677569
 21
5.8219343198
  0
LINE
  5
28F
100
AcDbEntity
  8
LAYER_FEATURE
100
AcDbLine
 62
7
  6
CONTINUOUS
 10
15.3906677569
 20
5.9713190605
 11
16.6206677569
 21
5.9713190605
  0
LINE
  5
290
100
AcDbEntity
  8
LAYER_FEATURE
100
AcDbLine
 62
7
  6
CONTINUOUS
 10
15.3906677569
 20
6.0123611507
 11
16.6206677569
 21
6.0123611507
  0
LINE
  5
291
100
AcDbEntity
  8
LAYER_CUT_FEAT
100
AcDbLine
 62
7
  6
CONTINUOUS
 10
16.6206677569
 20
6.0132089817
 11
15.3906677569
 21
6.0132089817
  0
LINE
  5
292
100
AcDbEntity
  8
LAYER_FEATURE
100
AcDbLine
 62
7
  6
CONTINUOUS
 10
16.6806677569
 20
6.6411247044
 11
16.6366967512
 21
6.5344950156
  0
LINE
  5
293
100
AcDbEntity
  8
02___PRT_ALL_AXES
100
AcDbLine
 62
7
  6
CONTINUOUS
 10
15.2346677569
 20
6.1236247044
 11
15.0197927569
 21
6.1236247044
  0
LINE
  5
294
100
AcDbEntity
  8
02___PRT_ALL_AXES
100
AcDbLine
 62
7
  6
CONTINUOUS
 10
14.6057927569
 20
6.1236247044
 11
14.3440427569
 21
6.1236247044
  0
LINE
  5
295
100
AcDbEntity
  8
LAYER_FEATURE
100
AcDbLine
 62
7
  6
CONTINUOUS
 10
14.6471928344
 20
6.1236247044
 11
14.9783926795
 21
6.1236247044
  0
LINE
  5
296
100
AcDbEntity
  8
LAYER_FEATURE
100
AcDbLine
 62
7
  6
CONTINUOUS
 10
15.3906677569
 20
6.1371717419
 11
16.6206677569
 21
6.1371717419
  0
LINE
  5
297
100
AcDbEntity
  8
LAYER_FEATURE
100
AcDbLine
 62
7
  6
CONTINUOUS
 10
16.6806677569
 20
4.2801247044
 11
16.6366967512
 21
4.3867543933
  0
LINE
  5
298
100
AcDbEntity
  8
LAYER_FEATURE
100
AcDbLine
 62
7
  6
CONTINUOUS
 10
15.3906677569
 20
6.1686644454
 11
16.6206677569
 21
6.1686644454
  0
LINE
  5
299
100
AcDbEntity
  8
LAYER_FEATURE
100
AcDbLine
 62
7
  6
CONTINUOUS
 10
15.3906677569
 20
6.2569188608
 11
16.6206677569
 21
6.2569188608
  0
LINE
  5
29A
100
AcDbEntity
  8
LAYER_FEATURE
100
AcDbLine
 62
7
  6
CONTINUOUS
 10
15.3906677569
 20
6.2767160018
 11
16.6206677569
 21
6.2767160018
  0
LINE
  5
29B
100
AcDbEntity
  8
LAYER_FEATURE
100
AcDbLine
 62
7
  6
CONTINUOUS
 10
15.3906677569
 20
6.3223998489
 11
16.6206677569
 21
6.3223998489
  0
LINE
  5
29C
100
AcDbEntity
  8
LAYER_FEATURE
100
AcDbLine
 62
7
  6
CONTINUOUS
 10
15.3906677569
 20
6.329152285
 11
16.6206677569
 21
6.329152285
  0
LINE
  5
29D
100
AcDbEntity
  8
LAYER_FEATURE
100
AcDbLine
 62
7
  6
CONTINUOUS
 10
16.6206677569
 20
4.4676702719
 11
16.6206677569
 21
6.4535791369
  0
LINE
  5
29E
100
AcDbEntity
  8
LAYER_FEATURE
100
AcDbLine
 62
7
  6
CONTINUOUS
 10
16.6806677569
 20
6.6411247044
 11
16.6806677569
 21
4.2801247044
  0
LINE
  5
29F
100
AcDbEntity
  8
LAYER_FEATURE
100
AcDbLine
 62
7
  6
CONTINUOUS
 10
16.7766677569
 20
6.6411247044
 11
16.7766677569
 21
4.2801247044
  0
LINE
  5
2A0
100
AcDbEntity
  8
LAYER_FEATURE
100
AcDbLine
 62
7
  6
CONTINUOUS
 10
16.7766677569
 20
6.6411247044
 11
16.6806677569
 21
6.6411247044
  0
LINE
  5
2A1
100
AcDbEntity
  8
LAYER_FEATURE
100
AcDbLine
 62
7
  6
CONTINUOUS
 10
15.3306677569
 20
6.6411247044
 11
15.2346677569
 21
6.6411247044
  0
LINE
  5
2A2
100
AcDbEntity
  8
LAYER_FEATURE
100
AcDbLine
 62
7
  6
CONTINUOUS
 10
14.1566050265
 20
12.4433831528
 11
14.1798433935
 21
12.5185825361
  0
LINE
  5
2A3
100
AcDbEntity
  8
LAYER_FEATURE
100
AcDbLine
 62
7
  6
CONTINUOUS
 10
14.5066329301
 20
13.5760738641
 11
14.5298712972
 21
13.6512732474
  0
LINE
  5
2A4
100
AcDbEntity
  8
LAYER_FEATURE
100
AcDbLine
 62
7
  6
CONTINUOUS
 10
14.6105336503
 20
12.8630082521
 11
14.7773936555
 21
13.4029674268
  0
LINE
  5
2A5
100
AcDbEntity
  8
LAYER_FEATURE
100
AcDbLine
 62
7
  6
CONTINUOUS
 10
14.6163162174
 20
12.8645852016
 11
14.8120523102
 21
13.4979874299
  0
LINE
  5
2A6
100
AcDbEntity
  8
LAYER_FEATURE
100
AcDbLine
 62
7
  6
CONTINUOUS
 10
14.6256618616
 20
12.8669874691
 11
14.8285394551
 21
13.5234996023
  0
LINE
  5
2A7
100
AcDbEntity
  8
LAYER_FEATURE
100
AcDbLine
 62
7
  6
CONTINUOUS
 10
14.6824287317
 20
12.879466382
 11
14.9054251666
 21
13.60108311
  0
LINE
  5
2A8
100
AcDbEntity
  8
LAYER_FEATURE
100
AcDbLine
 62
7
  6
CONTINUOUS
 10
14.7059309653
 20
12.8838545773
 11
14.9336208419
 21
13.6206592884
  0
LINE
  5
2A9
100
AcDbEntity
  8
LAYER_CUT_FEAT
100
AcDbLine
 62
7
  6
CONTINUOUS
 10
14.5621811749
 20
12.3180506436
 11
14.5767051543
 21
12.3650502582
  0
LINE
  5
2AA
100
AcDbEntity
  8
LAYER_CUT_FEAT
100
AcDbLine
 62
7
  6
CONTINUOUS
 10
15.8294770548
 20
11.6900880475
 11
15.7646376852
 21
11.6900880475
  0
LINE
  5
2AB
100
AcDbEntity
  8
LAYER_FEATURE
100
AcDbLine
 62
7
  6
CONTINUOUS
 10
14.8069996438
 20
12.8972791684
 11
15.0474939761
 21
13.6755191127
  0
LINE
  5
2AC
100
AcDbEntity
  8
02___PRT_ALL_AXES
100
AcDbLine
 62
7
  6
CONTINUOUS
 10
14.4354449941
 20
11.5929421091
 11
14.6510353134
 21
12.290592638
  0
LINE
  5
2AD
100
AcDbEntity
  8
LAYER_FEATURE
100
AcDbLine
 62
7
  6
CONTINUOUS
 10
14.8420564805
 20
12.9001171163
 11
15.0854766931
 21
13.6878252129
  0
LINE
  5
2AE
100
AcDbEntity
  8
LAYER_CUT_FEAT
100
AcDbLine
 62
7
  6
CONTINUOUS
 10
15.8363029128
 20
11.8083071542
 11
15.754812073
 21
11.8083071542
  0
LINE
  5
2AF
100
AcDbEntity
  8
LAYER_CUT_FEAT
100
AcDbLine
 62
7
  6
CONTINUOUS
 10
14.8700374591
 20
12.1765049997
 11
14.9098229642
 21
12.0954306646
  0
LINE
  5
2B0
100
AcDbEntity
  8
LAYER_CUT_FEAT
100
AcDbLine
 62
7
  6
CONTINUOUS
 10
14.8700374591
 20
12.1765049997
 11
14.9000222878
 21
12.0954306646
  0
LINE
  5
2B1
100
AcDbEntity
  8
LAYER_CUT_FEAT
100
AcDbLine
 62
7
  6
CONTINUOUS
 10
15.226311835
 20
13.7124524052
 11
14.9763161413
 21
12.9034660442
  0
LINE
  5
2B2
100
AcDbEntity
  8
LAYER_FEATURE
100
AcDbLine
 62
7
  6
CONTINUOUS
 10
14.9774115954
 20
12.9034512524
 11
15.228576984
 21
13.7162227477
  0
LINE
  5
2B3
100
AcDbEntity
  8
LAYER_FEATURE
100
AcDbLine
 62
7
  6
CONTINUOUS
 10
15.020875273
 20
12.9020904078
 11
15.2737582834
 21
13.7204201293
  0
LINE
  5
2B4
100
AcDbEntity
  8
LAYER_CUT_FEAT
100
AcDbLine
 62
7
  6
CONTINUOUS
 10
14.9501300167
 20
12.2575793348
 11
15.0132736831
 21
12.1289060714
  0
LINE
  5
2B5
100
AcDbEntity
  8
LAYER_CUT_FEAT
100
AcDbLine
 62
7
  6
CONTINUOUS
 10
15.4302249643
 20
13.7137504039
 11
15.1752402872
 21
12.8886196863
  0
LINE
  5
2B6
100
AcDbEntity
  8
LAYER_FEATURE
100
AcDbLine
 62
7
  6
CONTINUOUS
 10
15.1791183917
 20
12.8880711429
 11
15.4363336826
 21
13.7204201293
  0
LINE
  5
2B7
100
AcDbEntity
  8
LAYER_FEATURE
100
AcDbLine
 62
7
  6
CONTINUOUS
 10
15.4303194763
 20
13.7140497193
 11
15.4302250039
 21
13.7137503917
  0
LINE
  5
2B8
100
AcDbEntity
  8
LAYER_CUT_FEAT
100
AcDbLine
 62
7
  6
CONTINUOUS
 10
14.9000222878
 20
12.0954306646
 11
15.010099674
 21
12.0954306646
  0
LINE
  5
2B9
100
AcDbEntity
  8
LAYER_CUT_FEAT
100
AcDbLine
 62
7
  6
CONTINUOUS
 10
15.0901922316
 20
12.1765049997
 11
15.060207403
 21
12.2575793348
  0
LINE
  5
2BA
100
AcDbEntity
  8
LAYER_FEATURE
100
AcDbLine
 62
7
  6
CONTINUOUS
 10
15.2275298786
 20
12.8809957785
 11
15.4856345334
 21
13.7162227477
  0
LINE
  5
2BB
100
AcDbEntity
  8
LAYER_CUT_FEAT
100
AcDbLine
 62
7
  6
CONTINUOUS
 10
15.0431697072
 20
12.1289060714
 11
15.0132736831
 21
12.1289060714
  0
LINE
  5
2BC
100
AcDbEntity
  8
LAYER_CUT_FEAT
100
AcDbLine
 62
7
  6
CONTINUOUS
 10
15.060207403
 20
12.2575793348
 11
14.9501300167
 21
12.2575793348
  0
LINE
  5
2BD
100
AcDbEntity
  8
LAYER_CUT_FEAT
100
AcDbLine
 62
7
  6
CONTINUOUS
 10
15.6413913179
 20
13.6727630717
 11
15.3868058578
 21
12.8489242208
  0
LINE
  5
2BE
100
AcDbEntity
  8
LAYER_FEATURE
100
AcDbLine
 62
7
  6
CONTINUOUS
 10
15.3966376025
 20
12.8465678296
 11
15.6566057962
 21
13.6878252129
  0
LINE
  5
2BF
100
AcDbEntity
  8
LAYER_FEATURE
100
AcDbLine
 62
7
  6
CONTINUOUS
 10
15.4464755949
 20
12.8335412716
 11
15.706666427
 21
13.6755191127
  0
LINE
  5
2C0
100
AcDbEntity
  8
LAYER_CUT_FEAT
100
AcDbLine
 62
7
  6
CONTINUOUS
 10
14.9501300167
 20
12.2575793348
 11
14.8700374591
 21
12.1765049997
  0
LINE
  5
2C1
100
AcDbEntity
  8
LAYER_CUT_FEAT
100
AcDbLine
 62
7
  6
CONTINUOUS
 10
15.0132736831
 20
12.1289060714
 11
14.9802036499
 21
12.0954306646
  0
LINE
  5
2C2
100
AcDbEntity
  8
LAYER_CUT_FEAT
100
AcDbLine
 62
7
  6
CONTINUOUS
 10
15.010099674
 20
12.0954306646
 11
15.0901922316
 21
12.1765049997
  0
LINE
  5
2C3
100
AcDbEntity
  8
LAYER_FEATURE
100
AcDbLine
 62
7
  6
CONTINUOUS
 10
15.7889703077
 20
11.9519664106
 11
15.8202859947
 21
11.9144486466
  0
LINE
  5
2C4
100
AcDbEntity
  8
LAYER_CUT_FEAT
100
AcDbLine
 62
7
  6
CONTINUOUS
 10
15.7497391711
 20
11.7204480272
 11
15.7861951839
 21
11.646158484
  0
LINE
  5
2C5
100
AcDbEntity
  8
LAYER_FEATURE
100
AcDbLine
 62
7
  6
CONTINUOUS
 10
15.6143866496
 20
12.779313559
 11
15.8743821444
 21
13.6206592884
  0
LINE
  5
2C6
100
AcDbEntity
  8
LAYER_FEATURE
100
AcDbLine
 62
7
  6
CONTINUOUS
 10
15.6621691274
 20
12.7609464035
 11
15.9217910058
 21
13.60108311
  0
LINE
  5
2C7
100
AcDbEntity
  8
LAYER_CUT_FEAT
100
AcDbLine
 62
7
  6
CONTINUOUS
 10
15.9248233226
 20
13.5827466951
 11
15.669926796
 21
12.7579012328
  0
LINE
  5
2C8
100
AcDbEntity
  8
LAYER_CUT_FEAT
100
AcDbLine
 62
7
  6
CONTINUOUS
 10
15.8363029128
 20
11.8083071542
 11
15.7998469
 21
11.8825966975
  0
LINE
  5
2C9
100
AcDbEntity
  8
LAYER_FEATURE
100
AcDbLine
 62
7
  6
CONTINUOUS
 10
15.8175556832
 20
12.6909866975
 11
16.0748216287
 21
13.5234996023
  0
LINE
  5
2CA
100
AcDbEntity
  8
LAYER_CUT_FEAT
100
AcDbLine
 62
7
  6
CONTINUOUS
 10
15.7565650292
 20
11.838667134
 11
15.7497391711
 21
11.7204480272
  0
LINE
  5
2CB
100
AcDbEntity
  8
LAYER_CUT_FEAT
100
AcDbLine
 62
7
  6
CONTINUOUS
 10
15.8294770548
 20
11.6900880475
 11
15.8363029128
 21
11.8083071542
  0
LINE
  5
2CC
100
AcDbEntity
  8
LAYER_FEATURE
100
AcDbLine
 62
7
  6
CONTINUOUS
 10
15.8601252438
 20
12.6688506581
 11
16.1163478853
 21
13.4979874299
  0
LINE
  5
2CD
100
AcDbEntity
  8
LAYER_CUT_FEAT
100
AcDbLine
 62
7
  6
CONTINUOUS
 10
16.1171902147
 20
13.4901925627
 11
15.8629126785
 21
12.6673501542
  0
LINE
  5
2CE
100
AcDbEntity
  8
LAYER_FEATURE
100
AcDbLine
 62
7
  6
CONTINUOUS
 10
15.9930585844
 20
12.590064366
 11
16.2442646298
 21
13.4029674268
  0
LINE
  5
2CF
100
AcDbEntity
  8
LAYER_FEATURE
100
AcDbLine
 62
7
  6
CONTINUOUS
 10
16.02780728
 20
12.566616441
 11
16.2770783357
 21
13.3732578728
  0
LINE
  5
2D0
100
AcDbEntity
  8
LAYER_CUT_FEAT
100
AcDbLine
 62
7
  6
CONTINUOUS
 10
16.2767072115
 20
13.3698006213
 11
16.0283834153
 21
12.5662245223
  0
LINE
  5
2D1
100
AcDbEntity
  8
02___PRT_ALL_AXES
100
AcDbLine
 62
7
  6
CONTINUOUS
 10
15.7023330336
 20
11.2014440946
 11
15.9179233529
 21
11.8990946234
  0
LINE
  5
2D2
100
AcDbEntity
  8
LAYER_FEATURE
100
AcDbLine
 62
7
  6
CONTINUOUS
 10
16.1305841989
 20
12.4887606746
 11
16.371163887
 21
13.2672768304
  0
LINE
  5
2D3
100
AcDbEntity
  8
LAYER_FEATURE
100
AcDbLine
 62
7
  6
CONTINUOUS
 10
16.1556823449
 20
12.4673410044
 11
16.3930288424
 21
13.2353945519
  0
LINE
  5
2D4
100
AcDbEntity
  8
LAYER_CUT_FEAT
100
AcDbLine
 62
7
  6
CONTINUOUS
 10
15.7998469
 20
11.8825966975
 11
15.7565650292
 21
11.838667134
  0
LINE
  5
2D5
100
AcDbEntity
  8
LAYER_CUT_FEAT
100
AcDbLine
 62
7
  6
CONTINUOUS
 10
16.0067774914
 20
11.8716366179
 11
16.0213014708
 21
11.9186362325
  0
LINE
  5
2D6
100
AcDbEntity
  8
LAYER_FEATURE
100
AcDbLine
 62
7
  6
CONTINUOUS
 10
16.2237571835
 20
12.403676951
 11
16.4468714256
 21
13.1256749031
  0
LINE
  5
2D7
100
AcDbEntity
  8
LAYER_FEATURE
100
AcDbLine
 62
7
  6
CONTINUOUS
 10
16.2383335294
 20
12.3884607305
 11
16.45629757
 21
13.0937926245
  0
LINE
  5
2D8
100
AcDbEntity
  8
LAYER_FEATURE
100
AcDbLine
 62
7
  6
CONTINUOUS
 10
16.2702319507
 20
12.3535684508
 11
16.4662279021
 21
12.9878115821
  0
LINE
  5
2D9
100
AcDbEntity
  8
LAYER_FEATURE
100
AcDbLine
 62
7
  6
CONTINUOUS
 10
16.2743309998
 20
12.3489511478
 11
16.4625728593
 21
12.9581020282
  0
LINE
  5
2DA
100
AcDbEntity
  8
LAYER_FEATURE
100
AcDbLine
 62
7
  6
CONTINUOUS
 10
15.7889703077
 20
11.5767887709
 11
15.8202859947
 21
11.6143065349
  0
LINE
  5
2DB
100
AcDbEntity
  8
LAYER_CUT_FEAT
100
AcDbLine
 62
7
  6
CONTINUOUS
 10
15.7861951839
 20
11.646158484
 11
15.8294770548
 21
11.6900880475
  0
LINE
  5
2DC
100
AcDbEntity
  8
LAYER_FEATURE
100
AcDbLine
 62
7
  6
CONTINUOUS
 10
16.4123536398
 20
11.7463041087
 11
16.4355920068
 21
11.821503492
  0
LINE
  5
2DD
100
AcDbEntity
  8
LAYER_FEATURE
100
AcDbLine
 62
7
  6
CONTINUOUS
 10
16.7623815434
 20
12.87899482
 11
16.7856199105
 21
12.9541942034
  0
CIRCLE
  5
2DE
100
AcDbEntity
  8
LAYER_FEATURE
100
AcDbCircle
 62
7
  6
CONTINUOUS
 10
6.1303672762
 20
5.5201198968
 40
1.1805
  0
CIRCLE
  5
2DF
100
AcDbEntity
  8
LAYER_FEATURE
100
AcDbCircle
 62
7
  6
CONTINUOUS
 10
6.1303672762
 20
5.5201198968
 40
1.035
  0
CIRCLE
  5
2E0
100
AcDbEntity
  8
LAYER_CUT_FEAT
100
AcDbCircle
 62
7
  6
CONTINUOUS
 10
6.1303672762
 20
5.5201198968
 40
0.756
  0
CIRCLE
  5
2E1
100
AcDbEntity
  8
02___PRT_ALL_AXES
100
AcDbCircle
 62
7
  6
CONTINUOUS
 10
6.1303672762
 20
5.5201198968
 40
0.663
  0
CIRCLE
  5
2E2
100
AcDbEntity
  8
LAYER_CHAMFER_FEAT
100
AcDbCircle
 62
7
  6
CONTINUOUS
 10
6.1303672762
 20
5.5201198968
 40
0.43125
  0
CIRCLE
  5
2E3
100
AcDbEntity
  8
LAYER_CHAMFER_FEAT
100
AcDbCircle
 62
7
  6
CONTINUOUS
 10
6.1303672762
 20
5.5201198968
 40
0.375
  0
ARC
  5
2E4
100
AcDbEntity
  8
LAYER_FEATURE
100
AcDbCircle
 62
7
  6
CONTINUOUS
 10
7.0638265164
 20
12.2181102814
 40
0.21225
100
AcDbArc
 50
67.5901626285
 51
90.0
  0
ARC
  5
2E5
100
AcDbEntity
  8
LAYER_FEATURE
100
AcDbCircle
 62
7
  6
CONTINUOUS
 10
5.0779176514
 20
12.2181102814
 40
0.21225
100
AcDbArc
 50
90.0
 51
112.4098373715
  0
ARC
  5
2E6
100
AcDbEntity
  8
LAYER_FEATURE
100
AcDbCircle
 62
7
  6
CONTINUOUS
 10
7.0638265164
 20
13.8726102814
 40
0.21225
100
AcDbArc
 50
270.0
 51
292.4098373715
  0
ARC
  5
2E7
100
AcDbEntity
  8
LAYER_FEATURE
100
AcDbCircle
 62
7
  6
CONTINUOUS
 10
5.0779176514
 20
13.8726102814
 40
0.21225
100
AcDbArc
 50
247.5901626285
 51
270.0
  0
CIRCLE
  5
2E8
100
AcDbEntity
  8
02___PRT_ALL_AXES
100
AcDbCircle
 62
7
  6
CONTINUOUS
 10
6.0708720839
 20
11.8524852814
 40
0.207
  0
CIRCLE
  5
2E9
100
AcDbEntity
  8
LAYER_FEATURE
100
AcDbCircle
 62
7
  6
CONTINUOUS
 10
6.0708720839
 20
11.8524852814
 40
0.1656
  0
ARC
  5
2EA
100
AcDbEntity
  8
LAYER_FEATURE
100
AcDbCircle
 62
7
  6
CONTINUOUS
 10
15.1784177569
 20
4.4676702719
 40
0.21225
100
AcDbArc
 50
337.5901626285
 51
360.0
  0
ARC
  5
2EB
100
AcDbEntity
  8
LAYER_FEATURE
100
AcDbCircle
 62
7
  6
CONTINUOUS
 10
15.1784177569
 20
6.4535791369
 40
0.21225
100
AcDbArc
 50
0.0
 51
22.4098373715
  0
ARC
  5
2EC
100
AcDbEntity
  8
LAYER_FEATURE
100
AcDbCircle
 62
7
  6
CONTINUOUS
 10
16.8329177569
 20
4.4676702719
 40
0.21225
100
AcDbArc
 50
180.0
 51
202.4098373715
  0
ARC
  5
2ED
100
AcDbEntity
  8
LAYER_FEATURE
100
AcDbCircle
 62
7
  6
CONTINUOUS
 10
16.8329177569
 20
6.4535791369
 40
0.21225
100
AcDbArc
 50
157.5901626285
 51
180.0
  0
CIRCLE
  5
2EE
100
AcDbEntity
  8
02___PRT_ALL_AXES
100
AcDbCircle
 62
7
  6
CONTINUOUS
 10
14.8127927569
 20
5.4606247044
 40
0.207
  0
CIRCLE
  5
2EF
100
AcDbEntity
  8
LAYER_FEATURE
100
AcDbCircle
 62
7
  6
CONTINUOUS
 10
14.8127927569
 20
5.4606247044
 40
0.1656
  0
ARC
  5
2F0
100
AcDbEntity
  8
LAYER_FEATURE
100
AcDbCircle
 62
7
  6
CONTINUOUS
 10
15.3219428014
 20
12.2184568708
 40
1.5069978915
100
AcDbArc
 50
75.209146405
 51
77.1692018721
  0
ARC
  5
2F1
100
AcDbEntity
  8
LAYER_FEATURE
100
AcDbCircle
 62
7
  6
CONTINUOUS
 10
15.3301638612
 20
12.2354970731
 40
1.4882365075
100
AcDbArc
 50
66.5757865783
 51
68.5505647229
  0
ARC
  5
2F2
100
AcDbEntity
  8
LAYER_FEATURE
100
AcDbCircle
 62
7
  6
CONTINUOUS
 10
15.347847033
 20
12.3894563066
 40
1.3339020145
100
AcDbArc
 50
84.0709665742
 51
86.1963942639
  0
ARC
  5
2F3
100
AcDbEntity
  8
LAYER_FEATURE
100
AcDbCircle
 62
7
  6
CONTINUOUS
 10
15.4284049947
 20
12.4247725703
 40
1.2747766689
100
AcDbArc
 50
57.3396682091
 51
59.5303247773
  0
ARC
  5
2F4
100
AcDbEntity
  8
LAYER_FEATURE
100
AcDbCircle
 62
7
  6
CONTINUOUS
 10
15.3463119569
 20
12.6941724429
 40
1.02880919
100
AcDbArc
 50
94.043969258
 51
96.571216811
  0
ARC
  5
2F5
100
AcDbEntity
  8
LAYER_FEATURE
100
AcDbCircle
 62
7
  6
CONTINUOUS
 10
15.6198087042
 20
12.6802904205
 40
0.9550954185
100
AcDbArc
 50
46.5144437589
 51
49.1701250531
  0
ARC
  5
2F6
100
AcDbEntity
  8
LAYER_FEATURE
100
AcDbCircle
 62
7
  6
CONTINUOUS
 10
15.2824338402
 20
13.015148174
 40
0.700918338
100
AcDbArc
 50
106.3198197276
 51
109.5840094183
  0
ARC
  5
2F7
100
AcDbEntity
  8
LAYER_FEATURE
100
AcDbCircle
 62
7
  6
CONTINUOUS
 10
15.8575858063
 20
12.8916248899
 40
0.6362993206
100
AcDbArc
 50
32.7016171831
 51
36.1832589534
  0
ARC
  5
2F8
100
AcDbEntity
  8
LAYER_FEATURE
100
AcDbCircle
 62
7
  6
CONTINUOUS
 10
15.1733788497
 20
13.2452412555
 40
0.4454465194
100
AcDbArc
 50
122.5640414647
 51
126.9802370132
  0
ARC
  5
2F9
100
AcDbEntity
  8
LAYER_CUT_FEAT
100
AcDbCircle
 62
7
  6
CONTINUOUS
 10
14.9840752047
 20
12.2891368425
 40
0.4410225634
100
AcDbArc
 50
206.1390829685
 51
206.554575068
  0
ARC
  5
2FA
100
AcDbEntity
  8
LAYER_FEATURE
100
AcDbCircle
 62
7
  6
CONTINUOUS
 10
16.0637424578
 20
12.9950664558
 40
0.4047794121
100
AcDbArc
 50
14.1169050923
 51
18.8242141985
  0
ARC
  5
2FB
100
AcDbEntity
  8
LAYER_FEATURE
100
AcDbCircle
 62
7
  6
CONTINUOUS
 10
15.0793309819
 20
13.3433430626
 40
0.3087924363
100
AcDbArc
 50
144.3083558203
 51
149.9468192347
  0
ARC
  5
2FC
100
AcDbEntity
  8
LAYER_FEATURE
100
AcDbCircle
 62
7
  6
CONTINUOUS
 10
16.1714773444
 20
13.0089939079
 40
0.2955107142
100
AcDbArc
 50
350.0832722933
 51
355.8894905294
  0
ARC
  5
2FD
100
AcDbEntity
  8
LAYER_FEATURE
100
AcDbCircle
 62
7
  6
CONTINUOUS
 10
14.8177770455
 20
13.3903376935
 40
0.1351623212
100
AcDbArc
 50
70.1639096528
 51
79.7848843255
  0
ARC
  5
2FE
100
AcDbEntity
  8
LAYER_FEATURE
100
AcDbCircle
 62
7
  6
CONTINUOUS
 10
16.4701852507
 20
13.1241398696
 40
0.1256660656
100
AcDbArc
 50
250.8625441297
 51
253.5912399016
  0
ARC
  5
2FF
100
AcDbEntity
  8
LAYER_FEATURE
100
AcDbCircle
 62
7
  6
CONTINUOUS
 10
14.9061720814
 20
13.6354839333
 40
0.1254334783
100
AcDbArc
 50
250.1800278653
 51
257.1483207597
  0
ARC
  5
300
100
AcDbEntity
  8
LAYER_FEATURE
100
AcDbCircle
 62
7
  6
CONTINUOUS
 10
14.9042560114
 20
12.1073034171
 40
0.1084141479
100
AcDbArc
 50
199.2265479424
 51
202.0575097063
  0
ARC
  5
301
100
AcDbEntity
  8
LAYER_FEATURE
100
AcDbCircle
 62
7
  6
CONTINUOUS
 10
15.0813173615
 20
12.1941997462
 40
0.1083529442
100
AcDbArc
 50
29.2738218042
 51
33.0424667444
  0
SPLINE
  5
302
100
AcDbEntity
  8
02___PRT_ALL_AXES
100
AcDbSpline
 62
7
  6
CONTINUOUS
 70
0
 71
3
 72
31
 73
27
 74
0
 42
0.0000001
 43
0.0000001
 44
0.0000000001
 40
0.0
 40
0.0
 40
0.0
 40
0.0
 40
0.0100062693
 40
0.0394194409
 40
0.0866011986
 40
0.1492744909
 40
0.1856233475
 40
0.2248643015
 40
0.2666461526
 40
0.3106012328
 40
0.3563403029
 40
0.4034492725
 40
0.4514890346
 40
0.5000000003
 40
0.548510966
 40
0.5965507282
 40
0.6436596977
 40
0.6893987678
 40
0.733353848
 40
0.7751356991
 40
0.814376653
 40
0.8507255096
 40
0.913398802
 40
0.9605805595
 40
0.9899937309
 40
1.0
 40
1.0
 40
1.0
 40
1.0
 10
6.7338720839
 20
11.6454852814
 30
0.0
 10
6.7334536972
 20
11.6468253272
 30
0.0
 10
6.7318186322
 20
11.6521085316
 30
0.0
 10
6.7283417761
 20
11.6637507582
 30
0.0
 10
6.7231230624
 20
11.6825817289
 30
0.0
 10
6.71823539
 20
11.7025076254
 30
0.0
 10
6.7141503545
 20
11.7214716992
 30
0.0
 10
6.7110420853
 20
11.7376440969
 30
0.0
 10
6.708156431
 20
11.7549409081
 30
0.0
 10
6.7056075579
 20
11.7732119597
 30
0.0
 10
6.7035001281
 20
11.7922916985
 30
0.0
 10
6.7019240644
 20
11.8119979815
 30
0.0
 10
6.7009489358
 20
11.8321327496
 30
0.0
 10
6.7006188117
 20
11.8524852815
 30
0.0
 10
6.7009489358
 20
11.8728378134
 30
0.0
 10
6.7019240644
 20
11.8929725815
 30
0.0
 10
6.7035001281
 20
11.9126788645
 30
0.0
 10
6.7056075579
 20
11.9317586033
 30
0.0
 10
6.708156431
 20
11.9500296549
 30
0.0
 10
6.7110420854
 20
11.9673264661
 30
0.0
 10
6.7141503546
 20
11.9834988638
 30
0.0
 10
6.7182353901
 20
12.0024629375
 30
0.0
 10
6.7231230624
 20
12.0223888341
 30
0.0
 10
6.7283417761
 20
12.0412198047
 30
0.0
 10
6.7318186322
 20
12.0528620312
 30
0.0
 10
6.7334536972
 20
12.0581452356
 30
0.0
 10
6.7338720839
 20
12.0594852814
 30
0.0
  0
SPLINE
  5
303
100
AcDbEntity
  8
02___PRT_ALL_AXES
100
AcDbSpline
 62
7
  6
CONTINUOUS
 70
0
 71
3
 72
31
 73
27
 74
0
 42
0.0000001
 43
0.0000001
 44
0.0000000001
 40
0.0
 40
0.0
 40
0.0
 40
0.0
 40
0.0100062726
 40
0.039419431
 40
0.0866011822
 40
0.1492744787
 40
0.1856233628
 40
0.2248643106
 40
0.2666461837
 40
0.3106012604
 40
0.3563403258
 40
0.4034492979
 40
0.4514890453
 40
0.5000000002
 40
0.548510955
 40
0.5965507024
 40
0.6436596746
 40
0.6893987399
 40
0.7333538165
 40
0.7751356897
 40
0.8143766374
 40
0.8507255215
 40
0.913398818
 40
0.9605805692
 40
0.9899937274
 40
1.0
 40
1.0
 40
1.0
 40
1.0
 10
15.0197927569
 20
6.1236247044
 30
0.0
 10
15.0184527109
 20
6.1232063169
 30
0.0
 10
15.0131695083
 20
6.1215712505
 30
0.0
 10
15.0015272828
 20
6.1180943987
 30
0.0
 10
14.982696314
 20
6.1128756868
 30
0.0
 10
14.9627704148
 20
6.1079880099
 30
0.0
 10
14.9438063369
 20
6.1039029771
 30
0.0
 10
14.9276339344
 20
6.1007947005
 30
0.0
 10
14.9103371203
 20
6.0979090527
 30
0.0
 10
14.8920660671
 20
6.0953601783
 30
0.0
 10
14.8729863299
 20
6.0932527389
 30
0.0
 10
14.853280048
 20
6.0916766927
 30
0.0
 10
14.8331452839
 20
6.090701549
 30
0.0
 10
14.8127927569
 20
6.090371436
 30
0.0
 10
14.7924402298
 20
6.090701549
 30
0.0
 10
14.7723054658
 20
6.0916766927
 30
0.0
 10
14.7525991838
 20
6.093252739
 30
0.0
 10
14.7335194467
 20
6.0953601783
 30
0.0
 10
14.7152483935
 20
6.0979090527
 30
0.0
 10
14.6979515794
 20
6.1007947005
 30
0.0
 10
14.6817791769
 20
6.1039029771
 30
0.0
 10
14.662815099
 20
6.10798801
 30
0.0
 10
14.6428891998
 20
6.1128756869
 30
0.0
 10
14.624058231
 20
6.1180943988
 30
0.0
 10
14.6124160055
 20
6.1215712505
 30
0.0
 10
14.607132803
 20
6.1232063169
 30
0.0
 10
14.6057927569
 20
6.1236247044
 30
0.0
  0
SPLINE
  5
304
100
AcDbEntity
  8
02___PRT_ALL_AXES
100
AcDbSpline
 62
7
  6
CONTINUOUS
 70
0
 71
3
 72
72
 73
68
 74
0
 42
0.0000001
 43
0.0000001
 44
0.0000000001
 40
0.0
 40
0.0
 40
0.0
 40
0.0
 40
0.0134934349
 40
0.0275057845
 40
0.04201453
 40
0.0569981795
 40
0.0724331948
 40
0.0882947932
 40
0.1045574605
 40
0.1211950089
 40
0.1381807561
 40
0.1554876717
 40
0.1730886051
 40
0.1909563735
 40
0.2090639072
 40
0.2273843393
 40
0.2458911082
 40
0.2645580248
 40
0.2833593192
 40
0.3022696879
 40
0.3212642959
 40
0.3403188303
 40
0.3594094832
 40
0.3785129743
 40
0.3976065252
 40
0.4166678805
 40
0.4356752842
 40
0.4546075016
 40
0.4734438448
 40
0.4921641315
 40
0.5107487866
 40
0.5291788092
 40
0.5474358694
 40
0.5655023648
 40
0.5833614377
 40
0.6009971299
 40
0.618394417
 40
0.6355393172
 40
0.6524189824
 40
0.6690217947
 40
0.7013524329
 40
0.7170685429
 40
0.7324752299
 40
0.7475681065
 40
0.7623443858
 40
0.7768028094
 40
0.7909437113
 40
0.8182747255
 40
0.8314800852
 40
0.8443840928
 40
0.8569942791
 40
0.8693195284
 40
0.8813699731
 40
0.8931570535
 40
0.9046934672
 40
0.9159931836
 40
0.9270715117
 40
0.9379450699
 40
0.9486318748
 40
0.9539119798
 40
0.9591528102
 40
0.9695258365
 40
0.9797747594
 40
0.9848608396
 40
0.9899249357
 40
0.9949702342
 40
1.0
 40
1.0
 40
1.0
 40
1.0
 10
15.742913313
 20
11.6022289204
 30
0.0
 10
15.7420789077
 20
11.6039292597
 30
0.0
 10
15.7404080972
 20
11.6074101614
 30
0.0
 10
15.7379401885
 20
11.6127666662
 30
0.0
 10
15.7354668445
 20
11.6183502454
 30
0.0
 10
15.7329930885
 20
11.6241513637
 30
0.0
 10
15.730524206
 20
11.6301603716
 30
0.0
 10
15.7280658036
 20
11.636367188
 30
0.0
 10
15.7256237667
 20
11.6427614781
 30
0.0
 10
15.7232042192
 20
11.6493327226
 30
0.0
 10
15.7208134768
 20
11.6560702392
 30
0.0
 10
15.7184580741
 20
11.662963256
 30
0.0
 10
15.7161446819
 20
11.670000933
 30
0.0
 10
15.7138801128
 20
11.6771724166
 30
0.0
 10
15.7116713102
 20
11.6844668668
 30
0.0
 10
15.7095252863
 20
11.6918734716
 30
0.0
 10
15.7074491556
 20
11.6993814793
 30
0.0
 10
15.7054500745
 20
11.706980196
 30
0.0
 10
15.7035352464
 20
11.7146589949
 30
0.0
 10
15.7017119047
 20
11.7224073079
 30
0.0
 10
15.6999872839
 20
11.7302146166
 30
0.0
 10
15.6983686201
 20
11.7380704393
 30
0.0
 10
15.6968631063
 20
11.7459643123
 30
0.0
 10
15.6954779089
 20
11.7538857701
 30
0.0
 10
15.6942200889
 20
11.7618243143
 30
0.0
 10
15.6930966402
 20
11.7697693962
 30
0.0
 10
15.6921143995
 20
11.7777103846
 30
0.0
 10
15.6912800278
 20
11.7856365481
 30
0.0
 10
15.6906000219
 20
11.7935370351
 30
0.0
 10
15.6900805381
 20
11.8014008504
 30
0.0
 10
15.689727518
 20
11.8092168511
 30
0.0
 10
15.6895464771
 20
11.8169737367
 30
0.0
 10
15.689542501
 20
11.8246600563
 30
0.0
 10
15.6897202844
 20
11.8322642144
 30
0.0
 10
15.6900838277
 20
11.8397744997
 30
0.0
 10
15.6906366514
 20
11.8471790991
 30
0.0
 10
15.6913815641
 20
11.854466164
 30
0.0
 10
15.6923205539
 20
11.861623787
 30
0.0
 10
15.693455042
 20
11.8686403135
 30
0.0
 10
15.6952130975
 20
11.8777105482
 30
0.0
 10
15.6973697212
 20
11.8865338485
 30
0.0
 10
15.6999431724
 20
11.8950624088
 30
0.0
 10
15.7020441704
 20
11.9012016065
 30
0.0
 10
15.7043301873
 20
11.9071331883
 30
0.0
 10
15.7067963381
 20
11.9128475307
 30
0.0
 10
15.7094372571
 20
11.9183356437
 30
0.0
 10
15.7131401414
 20
11.9252601891
 30
0.0
 10
15.7172004143
 20
11.9317882309
 30
0.0
 10
15.721609016
 20
11.9378601936
 30
0.0
 10
15.7250143741
 20
11.9420990319
 30
0.0
 10
15.7285468727
 20
11.9460685547
 30
0.0
 10
15.7321969712
 20
11.9497638011
 30
0.0
 10
15.7359548128
 20
11.9531800492
 30
0.0
 10
15.7398102156
 20
11.9563131935
 30
0.0
 10
15.743752853
 20
11.9591594973
 30
0.0
 10
15.7477722292
 20
11.9617156164
 30
0.0
 10
15.7518577362
 20
11.963978647
 30
0.0
 10
15.7559985734
 20
11.9659458796
 30
0.0
 10
15.7595007693
 20
11.9673425452
 30
0.0
 10
15.7623174799
 20
11.9683073181
 30
0.0
 10
15.7651225658
 20
11.9691650815
 30
0.0
 10
15.7686460238
 20
11.9700514885
 30
0.0
 10
15.7722008713
 20
11.9706897389
 30
0.0
 10
15.7750424225
 20
11.9710465697
 30
0.0
 10
15.7771672912
 20
11.971237422
 30
0.0
 10
15.7792896702
 20
11.9713520354
 30
0.0
 10
15.7807040133
 20
11.9713775882
 30
0.0
 10
15.7814100289
 20
11.9713775865
 30
0.0
  0
SPLINE
  5
305
100
AcDbEntity
  8
02___PRT_ALL_AXES
100
AcDbSpline
 62
7
  6
CONTINUOUS
 70
0
 71
3
 72
38
 73
34
 74
0
 42
0.0000001
 43
0.0000001
 44
0.0000000001
 40
0.0
 40
0.0
 40
0.0
 40
0.0
 40
0.0391686614
 40
0.0778745036
 40
0.1160887365
 40
0.1537908731
 40
0.1909627517
 40
0.2275870667
 40
0.2636483953
 40
0.2991345214
 40
0.3340355398
 40
0.3683445248
 40
0.4020571562
 40
0.4351724407
 40
0.4676922594
 40
0.4996219935
 40
0.5309701322
 40
0.5617488368
 40
0.5919735466
 40
0.6216634711
 40
0.6795224678
 40
0.7077585051
 40
0.7355721256
 40
0.7630001159
 40
0.7900827263
 40
0.8168631433
 40
0.8433875138
 40
0.8697043803
 40
0.8958644891
 40
0.921920223
 40
0.9479251834
 40
0.9739336625
 40
1.0
 40
1.0
 40
1.0
 40
1.0
 10
14.9300071164
 20
12.0143563294
 30
0.0
 10
14.9280706297
 20
12.0143563294
 30
0.0
 10
14.9242204233
 20
12.0143938578
 30
0.0
 10
14.9184832035
 20
12.0145648968
 30
0.0
 10
14.9128230935
 20
12.0148503464
 30
0.0
 10
14.9072459211
 20
12.015250047
 30
0.0
 10
14.9017570213
 20
12.0157638309
 30
0.0
 10
14.8963616084
 20
12.016391458
 30
0.0
 10
14.8910647439
 20
12.017132695
 30
0.0
 10
14.8858712678
 20
12.0179872066
 30
0.0
 10
14.8807857757
 20
12.0189546768
 30
0.0
 10
14.8758126493
 20
12.0200347107
 30
0.0
 10
14.8709560423
 20
12.0212269358
 30
0.0
 10
14.8662198834
 20
12.0225309075
 30
0.0
 10
14.861607874
 20
12.0239462125
 30
0.0
 10
14.8571234981
 20
12.0254723746
 30
0.0
 10
14.8527700151
 20
12.0271089613
 30
0.0
 10
14.8485505176
 20
12.0288554611
 30
0.0
 10
14.8444677454
 20
12.0307114963
 30
0.0
 10
14.8392554961
 20
12.0333088251
 30
0.0
 10
14.8342745349
 20
12.0361436772
 30
0.0
 10
14.8295561914
 20
12.0392204368
 30
0.0
 10
14.8261942989
 20
12.0416165242
 30
0.0
 10
14.8229829152
 20
12.0441191023
 30
0.0
 10
14.8199237233
 20
12.0467276506
 30
0.0
 10
14.8170184296
 20
12.0494416198
 30
0.0
 10
14.8142685659
 20
12.0522603824
 30
0.0
 10
14.8116756223
 20
12.0551833183
 30
0.0
 10
14.8092409339
 20
12.0582096976
 30
0.0
 10
14.8069658157
 20
12.061338773
 30
0.0
 10
14.8048514018
 20
12.0645697023
 30
0.0
 10
14.8028988899
 20
12.0679014737
 30
0.0
 10
14.8017078038
 20
12.0701853359
 30
0.0
 10
14.8011400724
 20
12.0713422539
 30
0.0
  0
SPLINE
  5
306
100
AcDbEntity
  8
LAYER_CUT_FEAT
100
AcDbSpline
 62
7
  6
CONTINUOUS
 70
0
 71
3
 72
23
 73
19
 74
0
 42
0.0000001
 43
0.0000001
 44
0.0000000001
 40
0.0
 40
0.0
 40
0.0
 40
0.0
 40
0.0696910344
 40
0.138141676
 40
0.205386594
 40
0.271473319
 40
0.3364539513
 40
0.4003877722
 40
0.4633414323
 40
0.5253884235
 40
0.5866090836
 40
0.6470902522
 40
0.7069248621
 40
0.7662114206
 40
0.8250532911
 40
0.8835579089
 40
0.9418358884
 40
1.0
 40
1.0
 40
1.0
 40
1.0
 10
14.5881572217
 20
12.0948436307
 30
0.0
 10
14.5858009155
 20
12.0996452777
 30
0.0
 10
14.5813039356
 20
12.1092496451
 30
0.0
 10
14.5751696324
 20
12.1237742052
 30
0.0
 10
14.5697137622
 20
12.1382722467
 30
0.0
 10
14.5649417784
 20
12.1527295333
 30
0.0
 10
14.5608583011
 20
12.1671324652
 30
0.0
 10
14.5574673882
 20
12.1814672478
 30
0.0
 10
14.554772448
 20
12.1957201764
 30
0.0
 10
14.5527762219
 20
12.2098776034
 30
0.0
 10
14.5514807626
 20
12.2239259329
 30
0.0
 10
14.5508874954
 20
12.2378516488
 30
0.0
 10
14.5509971575
 20
12.2516413109
 30
0.0
 10
14.5518097566
 20
12.2652815893
 30
0.0
 10
14.5533246313
 20
12.2787592223
 30
0.0
 10
14.5555404807
 20
12.2920612403
 30
0.0
 10
14.5584550449
 20
12.305174209
 30
0.0
 10
14.5608631963
 20
12.313785668
 30
0.0
 10
14.562181175
 20
12.3180506435
 30
0.0
  0
SPLINE
  5
307
100
AcDbEntity
  8
LAYER_CHAMFER_FEAT
100
AcDbSpline
 62
7
  6
CONTINUOUS
 70
0
 71
3
 72
28
 73
24
 74
0
 42
0.0000001
 43
0.0000001
 44
0.0000000001
 40
0.0
 40
0.0
 40
0.0
 40
0.0
 40
0.0739317613
 40
0.146068861
 40
0.2164157817
 40
0.2849915908
 40
0.3518309674
 40
0.4169851208
 40
0.4805226768
 40
0.542530453
 40
0.6031139968
 40
0.6623976945
 40
0.7205244939
 40
0.7492080278
 40
0.7776640535
 40
0.8059151691
 40
0.8339848845
 40
0.8618975423
 40
0.889678151
 40
0.9173523775
 40
0.9449463653
 40
0.9724866407
 40
1.0
 40
1.0
 40
1.0
 40
1.0
 10
14.849139934
 20
11.6580332118
 30
0.0
 10
14.8451215283
 20
11.6567995427
 30
0.0
 10
14.8372308064
 20
11.6542000063
 30
0.0
 10
14.8257179457
 20
11.6498463509
 30
0.0
 10
14.8146941727
 20
11.6450939026
 30
0.0
 10
14.8041807544
 20
11.6399516148
 30
0.0
 10
14.7941976802
 20
11.6344290627
 30
0.0
 10
14.784764061
 20
11.6285365345
 30
0.0
 10
14.7758979976
 20
11.6222849791
 30
0.0
 10
14.7676166059
 20
11.6156860485
 30
0.0
 10
14.7599358744
 20
11.6087519885
 30
0.0
 10
14.7528710017
 20
11.6014960656
 30
0.0
 10
14.7474840982
 20
11.595163896
 30
0.0
 10
14.7435045776
 20
11.5899553682
 30
0.0
 10
14.7406947708
 20
11.5859947242
 30
0.0
 10
14.7380483289
 20
11.5819648307
 30
0.0
 10
14.735566503
 20
11.5778675602
 30
0.0
 10
14.7332504541
 20
11.5737049215
 30
0.0
 10
14.731101368
 20
11.5694788686
 30
0.0
 10
14.7291202445
 20
11.5651914646
 30
0.0
 10
14.727308033
 20
11.560844746
 30
0.0
 10
14.7256656886
 20
11.5564408715
 30
0.0
 10
14.7246842954
 20
11.5534675846
 30
0.0
 10
14.724222431
 20
11.5519730039
 30
0.0
  0
SPLINE
  5
308
100
AcDbEntity
  8
LAYER_CHAMFER_FEAT
100
AcDbSpline
 62
7
  6
CONTINUOUS
 70
0
 71
3
 72
30
 73
26
 74
0
 42
0.0000001
 43
0.0000001
 44
0.0000000001
 40
0.0
 40
0.0
 40
0.0
 40
0.0
 40
0.073887585
 40
0.1459851053
 40
0.2162977223
 40
0.2848450376
 40
0.3516621139
 40
0.4168005098
 40
0.4803290976
 40
0.5423347602
 40
0.6029228885
 40
0.6327273645
 40
0.6622255696
 40
0.6914359157
 40
0.7203778385
 40
0.7490719323
 40
0.7775397435
 40
0.8058037722
 40
0.8338874451
 40
0.8618149261
 40
0.8896111321
 40
0.9173015701
 40
0.9449122275
 40
0.972469496
 40
1.0
 40
1.0
 40
1.0
 40
1.0
 10
15.3978980444
 20
11.4880630315
 30
0.0
 10
15.4005011323
 20
11.4847864473
 30
0.0
 10
15.4055131368
 20
11.478207004
 30
0.0
 10
15.412510417
 20
11.468146995
 30
0.0
 10
15.4188823946
 20
11.4580348728
 30
0.0
 10
15.424616731
 20
11.4478898447
 30
0.0
 10
15.4297024514
 20
11.4377308913
 30
0.0
 10
15.4341297309
 20
11.4275771339
 30
0.0
 10
15.4378899603
 20
11.4174475625
 30
0.0
 10
15.4409756569
 20
11.4073615526
 30
0.0
 10
15.4429908118
 20
11.3989623297
 30
0.0
 10
15.4442536164
 20
11.3922895493
 30
0.0
 10
15.4450238866
 20
11.3873350371
 30
0.0
 10
15.4456220694
 20
11.3824060405
 30
0.0
 10
15.4460478071
 20
11.3775048382
 30
0.0
 10
15.446300943
 20
11.372633786
 30
0.0
 10
15.4463813264
 20
11.3677951964
 30
0.0
 10
15.4462888691
 20
11.3629913794
 30
0.0
 10
15.4460236747
 20
11.358224626
 30
0.0
 10
15.4455857896
 20
11.3534972157
 30
0.0
 10
15.4449754445
 20
11.348811407
 30
0.0
 10
15.4441929492
 20
11.3441694417
 30
0.0
 10
15.4432385959
 20
11.3395735313
 30
0.0
 10
15.4421129369
 20
11.3350259474
 30
0.0
 10
15.4412484217
 20
11.3320272012
 30
0.0
 10
15.4407880581
 20
11.3305374771
 30
0.0
  0
SPLINE
  5
309
100
AcDbEntity
  8
LAYER_FEATURE
100
AcDbSpline
 62
7
  6
CONTINUOUS
 70
0
 71
3
 72
46
 73
42
 74
0
 42
0.0000001
 43
0.0000001
 44
0.0000000001
 40
0.0
 40
0.0
 40
0.0
 40
0.0
 40
0.0099899822
 40
0.0202817141
 40
0.03087838
 40
0.0417818272
 40
0.0529929025
 40
0.0645114442
 40
0.0763362808
 40
0.0884655308
 40
0.1008963707
 40
0.1136253526
 40
0.12664833
 40
0.1399604624
 40
0.1535564525
 40
0.1674303108
 40
0.195984504
 40
0.2255672325
 40
0.2561148265
 40
0.2875577565
 40
0.3198213463
 40
0.3528264007
 40
0.3864898201
 40
0.420725159
 40
0.4554431386
 40
0.4905521349
 40
0.5259586466
 40
0.5615677724
 40
0.5972836717
 40
0.6330100093
 40
0.6686503965
 40
0.7041088395
 40
0.7392902007
 40
0.7741006448
 40
0.8084481078
 40
0.8422427415
 40
0.8753974139
 40
0.9078284233
 40
0.9394551154
 40
0.9702032994
 40
1.0
 40
1.0
 40
1.0
 40
1.0
 10
15.8202859943
 20
11.9144486443
 30
0.0
 10
15.8208437334
 20
11.9137804406
 30
0.0
 10
15.8219512287
 20
11.9124029488
 30
0.0
 10
15.8235648413
 20
11.9102497056
 30
0.0
 10
15.8251541046
 20
11.9079805529
 30
0.0
 10
15.8267177844
 20
11.9055973487
 30
0.0
 10
15.828254642
 20
11.9031019559
 30
0.0
 10
15.8297634548
 20
11.9004963482
 30
0.0
 10
15.8312430692
 20
11.8977826024
 30
0.0
 10
15.832692268
 20
11.8949628465
 30
0.0
 10
15.8341099489
 20
11.8920393324
 30
0.0
 10
15.835494966
 20
11.8890143674
 30
0.0
 10
15.8368462184
 20
11.8858903484
 30
0.0
 10
15.8381626609
 20
11.8826697635
 30
0.0
 10
15.8394432144
 20
11.8793551459
 30
0.0
 10
15.8411174734
 20
11.8747698847
 30
0.0
 10
15.8431098876
 20
11.8688192162
 30
0.0
 10
15.8453197111
 20
11.8614139329
 30
0.0
 10
15.8473638066
 20
11.8537005927
 30
0.0
 10
15.8492356612
 20
11.8457036946
 30
0.0
 10
15.8509293106
 20
11.8374485577
 30
0.0
 10
15.8524393602
 20
11.8289613686
 30
0.0
 10
15.8537609985
 20
11.8202690566
 30
0.0
 10
15.8548900106
 20
11.8113992126
 30
0.0
 10
15.8558227938
 20
11.8023799979
 30
0.0
 10
15.8565563673
 20
11.7932400551
 30
0.0
 10
15.8570883918
 20
11.7840084167
 30
0.0
 10
15.8574171735
 20
11.7747144104
 30
0.0
 10
15.8575416641
 20
11.765387563
 30
0.0
 10
15.8574614654
 20
11.7560575063
 30
0.0
 10
15.8571768292
 20
11.7467538838
 30
0.0
 10
15.8566886631
 20
11.7375062537
 30
0.0
 10
15.8559985292
 20
11.7283439941
 30
0.0
 10
15.8551086311
 20
11.7192962072
 30
0.0
 10
15.8540218071
 20
11.7103916284
 30
0.0
 10
15.8527415211
 20
11.7016585364
 30
0.0
 10
15.8512718562
 20
11.6931246401
 30
0.0
 10
15.8496174961
 20
11.6848170687
 30
0.0
 10
15.8477837254
 20
11.6767620358
 30
0.0
 10
15.8457763806
 20
11.6689853118
 30
0.0
 10
15.8443024548
 20
11.6639193092
 30
0.0
 10
15.8435359751
 20
11.66143898
 30
0.0
  0
SPLINE
  5
30A
100
AcDbEntity
  8
LAYER_FEATURE
100
AcDbSpline
 62
7
  6
CONTINUOUS
 70
0
 71
3
 72
23
 73
19
 74
0
 42
0.0000001
 43
0.0000001
 44
0.0000000001
 40
0.0
 40
0.0
 40
0.0
 40
0.0
 40
0.0507376325
 40
0.1030493655
 40
0.156951615
 40
0.2124539789
 40
0.2695607251
 40
0.3282697812
 40
0.3885747679
 40
0.4504643815
 40
0.5139231973
 40
0.5789318968
 40
0.6454662017
 40
0.7134994777
 40
0.7830037441
 40
0.8539493403
 40
0.9262977957
 40
1.0
 40
1.0
 40
1.0
 40
1.0
 10
15.8202859933
 20
11.6143065428
 30
0.0
 10
15.8208590511
 20
11.6149930982
 30
0.0
 10
15.8219967349
 20
11.6164095768
 30
0.0
 10
15.8236529592
 20
11.6186260149
 30
0.0
 10
15.8252834415
 20
11.6209645968
 30
0.0
 10
15.8268868322
 20
11.6234233163
 30
0.0
 10
15.828461763
 20
11.6260001589
 30
0.0
 10
15.8300069771
 20
11.6286929428
 30
0.0
 10
15.8315211491
 20
11.6314994411
 30
0.0
 10
15.8330030381
 20
11.6344173052
 30
0.0
 10
15.8344514149
 20
11.6374441008
 30
0.0
 10
15.8358650346
 20
11.6405772984
 30
0.0
 10
15.8372427581
 20
11.6438142396
 30
0.0
 10
15.8385833935
 20
11.6471522445
 30
0.0
 10
15.8398858712
 20
11.6505885851
 30
0.0
 10
15.8411490867
 20
11.6541204249
 30
0.0
 10
15.8423719184
 20
11.6577446024
 30
0.0
 10
15.8431524318
 20
11.6601978333
 30
0.0
 10
15.8435359751
 20
11.66143898
 30
0.0
  0
SPLINE
  5
30B
100
AcDbEntity
  8
02___PRT_ALL_AXES
100
AcDbSpline
 62
7
  6
CONTINUOUS
 70
0
 71
3
 72
36
 73
32
 74
0
 42
0.0000001
 43
0.0000001
 44
0.0000000001
 40
0.0
 40
0.0
 40
0.0
 40
0.0
 40
0.0174198403
 40
0.0350794598
 40
0.0531016799
 40
0.0716015871
 40
0.090685339
 40
0.1104495397
 40
0.130980076
 40
0.1523528078
 40
0.1746345158
 40
0.1978825135
 40
0.2221460134
 40
0.247467532
 40
0.273882389
 40
0.3014200407
 40
0.3301054425
 40
0.3599581806
 40
0.3909936502
 40
0.4232242733
 40
0.4566582889
 40
0.4913008588
 40
0.527155141
 40
0.564220911
 40
0.6024956654
 40
0.6419754448
 40
0.6826530728
 40
0.7245195059
 40
0.8117756601
 40
0.9036486414
 40
1.0
 40
1.0
 40
1.0
 40
1.0
 10
15.7814100286
 20
11.5573775949
 30
0.0
 10
15.7810541329
 20
11.5573775967
 30
0.0
 10
15.7803370942
 20
11.5574080638
 30
0.0
 10
15.7792595931
 20
11.5575439633
 30
0.0
 10
15.7781748261
 20
11.5577702053
 30
0.0
 10
15.7770826488
 20
11.5580866366
 30
0.0
 10
15.7759827552
 20
11.558493089
 30
0.0
 10
15.7748748692
 20
11.5589894039
 30
0.0
 10
15.7737586871
 20
11.5595753771
 30
0.0
 10
15.7726339169
 20
11.5602508089
 30
0.0
 10
15.7715002989
 20
11.5610155082
 30
0.0
 10
15.7703575864
 20
11.5618692416
 30
0.0
 10
15.7692055675
 20
11.5628117613
 30
0.0
 10
15.7680440774
 20
11.5638428042
 30
0.0
 10
15.7668729762
 20
11.5649620571
 30
0.0
 10
15.7656921644
 20
11.5661691745
 30
0.0
 10
15.7645015895
 20
11.5674637767
 30
0.0
 10
15.7633012282
 20
11.5688454304
 30
0.0
 10
15.762091099
 20
11.5703136599
 30
0.0
 10
15.7608712628
 20
11.5718679434
 30
0.0
 10
15.7596418146
 20
11.5735077045
 30
0.0
 10
15.758402891
 20
11.5752323187
 30
0.0
 10
15.7571546665
 20
11.5770411088
 30
0.0
 10
15.7558973537
 20
11.5789333474
 30
0.0
 10
15.7546312061
 20
11.5809082564
 30
0.0
 10
15.7533565156
 20
11.5829649957
 30
0.0
 10
15.7520736122
 20
11.5851026683
 30
0.0
 10
15.7503285332
 20
11.5881009933
 30
0.0
 10
15.7481323111
 20
11.5920464448
 30
0.0
 10
15.7455058433
 20
11.5970246644
 30
0.0
 10
15.7437805233
 20
11.6004617316
 30
0.0
 10
15.742913313
 20
11.6022289204
 30
0.0
  0
SPLINE
  5
30C
100
AcDbEntity
  8
LAYER_FEATURE
100
AcDbSpline
 62
7
  6
CONTINUOUS
 70
0
 71
3
 72
45
 73
41
 74
0
 42
0.0000001
 43
0.0000001
 44
0.0000000001
 40
0.0
 40
0.0
 40
0.0
 40
0.0
 40
0.0127357992
 40
0.0254776493
 40
0.0382315854
 40
0.0510036162
 40
0.0637997077
 40
0.0766257677
 40
0.0894876404
 40
0.1023910821
 40
0.1153417585
 40
0.1283452327
 40
0.1414069437
 40
0.1545322141
 40
0.1809920044
 40
0.2077663754
 40
0.2348924961
 40
0.2624048329
 40
0.2903350259
 40
0.3187118065
 40
0.3475609489
 40
0.3769052749
 40
0.406764687
 40
0.437156219
 40
0.4680940968
 40
0.4995898329
 40
0.5316523304
 40
0.564287987
 40
0.5975007912
 40
0.6312924402
 40
0.6656624589
 40
0.7006083096
 40
0.7361254874
 40
0.7722076295
 40
0.8088466265
 40
0.8460327191
 40
0.8837545823
 40
0.9219994168
 40
0.9607530463
 40
1.0
 40
1.0
 40
1.0
 40
1.0
 10
14.1566050317
 20
12.4433831512
 30
0.0
 10
14.1555922485
 20
12.440105793
 30
0.0
 10
14.1536532942
 20
12.4335222393
 30
0.0
 10
14.1510074478
 20
12.4235694202
 30
0.0
 10
14.1486244119
 20
12.4135403213
 30
0.0
 10
14.146504814
 20
12.403437357
 30
0.0
 10
14.1446491251
 20
12.3932628592
 30
0.0
 10
14.143057746
 20
12.3830192067
 30
0.0
 10
14.1417311001
 20
12.3727087736
 30
0.0
 10
14.1406694394
 20
12.3623339682
 30
0.0
 10
14.1398730234
 20
12.3518971955
 30
0.0
 10
14.1393420567
 20
12.3414009037
 30
0.0
 10
14.1390766103
 20
12.3308474561
 30
0.0
 10
14.1390768145
 20
12.3166662679
 30
0.0
 10
14.1397468974
 20
12.2987975495
 30
0.0
 10
14.1416115216
 20
12.2772255009
 30
0.0
 10
14.1445367658
 20
12.2554854789
 30
0.0
 10
14.1485196882
 20
12.2335980797
 30
0.0
 10
14.1535563607
 20
12.2115835227
 30
0.0
 10
14.1596419094
 20
12.189462241
 30
0.0
 10
14.166770476
 20
12.1672546942
 30
0.0
 10
14.174935264
 20
12.1449814077
 30
0.0
 10
14.1841285496
 20
12.1226629471
 30
0.0
 10
14.194341691
 20
12.1003199139
 30
0.0
 10
14.2055650993
 20
12.0779729157
 30
0.0
 10
14.2177882722
 20
12.0556425601
 30
0.0
 10
14.2309998107
 20
12.0333494412
 30
0.0
 10
14.245187427
 20
12.011114127
 30
0.0
 10
14.2603379248
 20
11.9889571268
 30
0.0
 10
14.2764372256
 20
11.966898881
 30
0.0
 10
14.2934703923
 20
11.9449597484
 30
0.0
 10
14.3114216405
 20
11.9231599905
 30
0.0
 10
14.3302743279
 20
11.9015197383
 30
0.0
 10
14.3500109773
 20
11.8800589772
 30
0.0
 10
14.3706133049
 20
11.8587975386
 30
0.0
 10
14.3920622398
 20
11.8377550793
 30
0.0
 10
14.4143379056
 20
11.8169510628
 30
0.0
 10
14.4374197061
 20
11.7964046899
 30
0.0
 10
14.4612861077
 20
11.7761350867
 30
0.0
 10
14.4776048994
 20
11.7629005452
 30
0.0
 10
14.4858877798
 20
11.7563327205
 30
0.0
  0
SPLINE
  5
30D
100
AcDbEntity
  8
LAYER_FEATURE
100
AcDbSpline
 62
7
  6
CONTINUOUS
 70
0
 71
3
 72
38
 73
34
 74
0
 42
0.0000001
 43
0.0000001
 44
0.0000000001
 40
0.0
 40
0.0
 40
0.0
 40
0.0
 40
0.0271883998
 40
0.0544066767
 40
0.081684546
 40
0.1090513986
 40
0.1365361573
 40
0.164167113
 40
0.1919718105
 40
0.2199769048
 40
0.2482080599
 40
0.2766898572
 40
0.3054456884
 40
0.3344977276
 40
0.3638668266
 40
0.3935725221
 40
0.4236329731
 40
0.4540649544
 40
0.4848838681
 40
0.5161037005
 40
0.5797883919
 40
0.6122813666
 40
0.6452177265
 40
0.6786048129
 40
0.712448751
 40
0.7467544238
 40
0.7815255894
 40
0.8167648423
 40
0.8524737131
 40
0.88865268
 40
0.9253011993
 40
0.9624177898
 40
1.0
 40
1.0
 40
1.0
 40
1.0
 10
14.5066329353
 20
13.5760738625
 30
0.0
 10
14.5050919496
 20
13.5710872454
 30
0.0
 10
14.5022099309
 20
13.5610449295
 30
0.0
 10
14.4984961679
 20
13.5458061001
 30
0.0
 10
14.4953925618
 20
13.5303962058
 30
0.0
 10
14.4929008037
 20
13.5148239322
 30
0.0
 10
14.4910222648
 20
13.4990976164
 30
0.0
 10
14.4897578564
 20
13.4832258036
 30
0.0
 10
14.4891082719
 20
13.467217067
 30
0.0
 10
14.4890737895
 20
13.4510800614
 30
0.0
 10
14.4896543636
 20
13.4348234945
 30
0.0
 10
14.4908496693
 20
13.4184561358
 30
0.0
 10
14.4926589386
 20
13.4019867932
 30
0.0
 10
14.4950812136
 20
13.3854243379
 30
0.0
 10
14.4981150677
 20
13.3687776601
 30
0.0
 10
14.5017588545
 20
13.3520557103
 30
0.0
 10
14.5060105554
 20
13.3352674436
 30
0.0
 10
14.5108677923
 20
13.3184219129
 30
0.0
 10
14.5163280433
 20
13.3015279346
 30
0.0
 10
14.5244614199
 20
13.2788016763
 30
0.0
 10
14.5337519575
 20
13.2561604753
 30
0.0
 10
14.5441335455
 20
13.2336512224
 30
0.0
 10
14.5525574461
 20
13.2166517909
 30
0.0
 10
14.5615615623
 20
13.1996587832
 30
0.0
 10
14.5711412247
 20
13.1826809974
 30
0.0
 10
14.5812911868
 20
13.1657275687
 30
0.0
 10
14.5920060505
 20
13.1488075751
 30
0.0
 10
14.6032800175
 20
13.1319300506
 30
0.0
 10
14.6151070497
 20
13.1151040324
 30
0.0
 10
14.6274807979
 20
13.0983385374
 30
0.0
 10
14.6403946143
 20
13.0816424902
 30
0.0
 10
14.6538415319
 20
13.0650249558
 30
0.0
 10
14.6630994663
 20
13.0540725537
 30
0.0
 10
14.6678138713
 20
13.0486113891
 30
0.0
  0
SPLINE
  5
30E
100
AcDbEntity
  8
LAYER_FEATURE
100
AcDbSpline
 62
7
  6
CONTINUOUS
 70
0
 71
3
 72
45
 73
41
 74
0
 42
0.0000001
 43
0.0000001
 44
0.0000000001
 40
0.0
 40
0.0
 40
0.0
 40
0.0
 40
0.0127361167
 40
0.0254782824
 40
0.0382325335
 40
0.0510048755
 40
0.0638012739
 40
0.0766276385
 40
0.0894898066
 40
0.10239354
 40
0.1153445008
 40
0.1283482478
 40
0.1545336827
 40
0.1809939581
 40
0.2077687638
 40
0.2348952681
 40
0.2624079401
 40
0.2903384145
 40
0.3187154129
 40
0.3475647122
 40
0.3769091422
 40
0.3917740709
 40
0.4067700003
 40
0.4371615173
 40
0.4680993211
 40
0.4995949355
 40
0.5316572656
 40
0.5642927004
 40
0.5975052345
 40
0.6312965787
 40
0.6656662627
 40
0.7006117415
 40
0.7361285158
 40
0.7722102378
 40
0.8088488052
 40
0.8460344517
 40
0.8837558613
 40
0.9220002438
 40
0.9607534235
 40
1.0
 40
1.0
 40
1.0
 40
1.0
 10
16.4123536346
 20
11.7463041103
 30
0.0
 10
16.4113409446
 20
11.7430270541
 30
0.0
 10
16.4092278045
 20
11.7364979907
 30
0.0
 10
16.4057976576
 20
11.7267885296
 30
0.0
 10
16.4021074745
 20
11.7171643627
 30
0.0
 10
16.3981581993
 20
11.7076277996
 30
0.0
 10
16.3939507105
 20
11.6981810469
 30
0.0
 10
16.38948599
 20
11.6888263126
 30
0.0
 10
16.384765114
 20
11.6795657451
 30
0.0
 10
16.3797891455
 20
11.6704015419
 30
0.0
 10
16.374559234
 20
11.6613357459
 30
0.0
 10
16.3672327364
 20
11.649355277
 30
0.0
 10
16.357435109
 20
11.6346284357
 30
0.0
 10
16.3447103064
 20
11.6174261732
 30
0.0
 10
16.3310022381
 20
11.6006679853
 30
0.0
 10
16.3163240587
 20
11.5843696984
 30
0.0
 10
16.300689548
 20
11.5685462621
 30
0.0
 10
16.2841134394
 20
11.5532122652
 30
0.0
 10
16.2666112361
 20
11.5383817434
 30
0.0
 10
16.2481994797
 20
11.524068418
 30
0.0
 10
16.2321820809
 20
11.5126321335
 30
0.0
 10
16.2189381974
 20
11.5037520671
 30
0.0
 10
16.205287763
 20
11.4949773446
 30
0.0
 10
16.1876812787
 20
11.4843594062
 30
0.0
 10
16.165810461
 20
11.4722406658
 30
0.0
 10
16.1431235177
 20
11.4606994903
 30
0.0
 10
16.1196416795
 20
11.4497465799
 30
0.0
 10
16.0953866461
 20
11.4393919228
 30
0.0
 10
16.0703808883
 20
11.4296450212
 30
0.0
 10
16.0446475401
 20
11.4205148217
 30
0.0
 10
16.0182104137
 20
11.41200971
 30
0.0
 10
15.991093975
 20
11.4041374849
 30
0.0
 10
15.9633233128
 20
11.3969053801
 30
0.0
 10
15.934924116
 20
11.3903200522
 30
0.0
 10
15.9059226602
 20
11.3843875669
 30
0.0
 10
15.8763457793
 20
11.3791133706
 30
0.0
 10
15.8462208572
 20
11.3745023204
 30
0.0
 10
15.8155757198
 20
11.3705586649
 30
0.0
 10
15.7844389108
 20
11.3672860551
 30
0.0
 10
15.7635014109
 20
11.3655642981
 30
0.0
 10
15.7529585927
 20
11.3648138933
 30
0.0
  0
SPLINE
  5
30F
100
AcDbEntity
  8
LAYER_FEATURE
100
AcDbSpline
 62
7
  6
CONTINUOUS
 70
0
 71
3
 72
38
 73
34
 74
0
 42
0.0000001
 43
0.0000001
 44
0.0000000001
 40
0.0
 40
0.0
 40
0.0
 40
0.0
 40
0.0271891635
 40
0.0544081969
 40
0.0816868067
 40
0.1090543827
 40
0.1365398316
 40
0.1641714484
 40
0.1919767639
 40
0.2199824296
 40
0.2482141109
 40
0.2766963691
 40
0.3054526144
 40
0.3345049921
 40
0.3638743726
 40
0.3935802781
 40
0.4236408646
 40
0.4540729215
 40
0.4848918216
 40
0.5161115862
 40
0.5797959031
 40
0.6122885874
 40
0.6452245792
 40
0.6786112465
 40
0.7124546794
 40
0.7467598048
 40
0.7815303473
 40
0.8167689279
 40
0.8524770756
 40
0.8886552579
 40
0.9253029661
 40
0.9624186822
 40
1.0
 40
1.0
 40
1.0
 40
1.0
 10
16.7623815382
 20
12.8789948216
 30
0.0
 10
16.7608407588
 20
12.8740088723
 30
0.0
 10
16.7575552274
 20
12.8640927166
 30
0.0
 10
16.7520250516
 20
12.8494173975
 30
0.0
 10
16.7458948119
 20
12.8349449861
 30
0.0
 10
16.7391678706
 20
12.8206836655
 30
0.0
 10
16.7318479387
 20
12.8066410226
 30
0.0
 10
16.7239389661
 20
12.7928246838
 30
0.0
 10
16.7154452855
 20
12.7792420786
 30
0.0
 10
16.7063715347
 20
12.7659005103
 30
0.0
 10
16.6967226182
 20
12.7528071757
 30
0.0
 10
16.6865038363
 20
12.739969059
 30
0.0
 10
16.6757206805
 20
12.7273930891
 30
0.0
 10
16.6643790504
 20
12.7150859526
 30
0.0
 10
16.6524850556
 20
12.7030542581
 30
0.0
 10
16.6400451427
 20
12.6913044264
 30
0.0
 10
16.6270660308
 20
12.6798427011
 30
0.0
 10
16.6135547445
 20
12.6686752695
 30
0.0
 10
16.5995184053
 20
12.6578078941
 30
0.0
 10
16.5799857555
 20
12.6436333663
 30
0.0
 10
16.5595458992
 20
12.630181627
 30
0.0
 10
16.538279788
 20
12.6174541977
 30
0.0
 10
16.5217375503
 20
12.6081712736
 30
0.0
 10
16.504719954
 20
12.5992209397
 30
0.0
 10
16.4872358639
 20
12.5906077173
 30
0.0
 10
16.4692947111
 20
12.5823363016
 30
0.0
 10
16.4509061096
 20
12.5744110446
 30
0.0
 10
16.4320799152
 20
12.5668361919
 30
0.0
 10
16.4128262116
 20
12.559615789
 30
0.0
 10
16.3931553352
 20
12.5527536548
 30
0.0
 10
16.3730777807
 20
12.5462534933
 30
0.0
 10
16.3526044398
 20
12.5401187431
 30
0.0
 10
16.3387844252
 20
12.536298363
 30
0.0
 10
16.3318123708
 20
12.5344487527
 30
0.0
  0
SPLINE
  5
310
100
AcDbEntity
  8
LAYER_CUT_FEAT
100
AcDbSpline
 62
7
  6
CONTINUOUS
 70
0
 71
3
 72
23
 73
19
 74
0
 42
0.0000001
 43
0.0000001
 44
0.0000000001
 40
0.0
 40
0.0
 40
0.0
 40
0.0
 40
0.0580756112
 40
0.116267699
 40
0.1746915882
 40
0.2334603452
 40
0.2926837159
 40
0.3524671768
 40
0.4129111289
 40
0.4741101778
 40
0.5361525484
 40
0.5991197081
 40
0.6630860646
 40
0.7281187328
 40
0.7942775229
 40
0.8616149761
 40
0.930176389
 40
1.0
 40
1.0
 40
1.0
 40
1.0
 10
16.0067774913
 20
11.8716366179
 30
0.0
 10
16.005443445
 20
11.8673196477
 30
0.0
 10
16.0025354988
 20
11.8587483064
 30
0.0
 10
15.9974702939
 20
11.8461291797
 30
0.0
 10
15.9917048778
 20
11.8337543108
 30
0.0
 10
15.985245202
 20
11.821636518
 30
0.0
 10
15.9780977588
 20
11.8097876664
 30
0.0
 10
15.9702697924
 20
11.7982194791
 30
0.0
 10
15.9617691679
 20
11.7869433356
 30
0.0
 10
15.9526044143
 20
11.7759703023
 30
0.0
 10
15.9427847294
 20
11.7653110829
 30
0.0
 10
15.9323199045
 20
11.7549760656
 30
0.0
 10
15.9212203293
 20
11.7449753162
 30
0.0
 10
15.9094970226
 20
11.7353185156
 30
0.0
 10
15.8971615939
 20
11.7260150238
 30
0.0
 10
15.8842261293
 20
11.7170738286
 30
0.0
 10
15.8707036163
 20
11.7085037146
 30
0.0
 10
15.8613918192
 20
11.70309301
 30
0.0
 10
15.8566453794
 20
11.7004505798
 30
0.0
  0
SPLINE
  5
311
100
AcDbEntity
  8
02___PRT_ALL_AXES
100
AcDbSpline
 62
7
  6
CONTINUOUS
 70
0
 71
3
 72
57
 73
53
 74
0
 42
0.0000001
 43
0.0000001
 44
0.0000000001
 40
0.0
 40
0.0
 40
0.0
 40
0.0
 40
0.0141420914
 40
0.0282499612
 40
0.0423264602
 40
0.0563747462
 40
0.0703983523
 40
0.0844011995
 40
0.0983876346
 40
0.1123624372
 40
0.1263308459
 40
0.1402985531
 40
0.1542717064
 40
0.1682568851
 40
0.1822610518
 40
0.1962915517
 40
0.2103560043
 40
0.2244622926
 40
0.238618419
 40
0.2528324891
 40
0.267112578
 40
0.2814666372
 40
0.2959024367
 40
0.3104273943
 40
0.3250486008
 40
0.339772618
 40
0.3546054924
 40
0.3695526407
 40
0.3846188102
 40
0.39980806
 40
0.4305635682
 40
0.4618410622
 40
0.4776792461
 40
0.4936483506
 40
0.5259691774
 40
0.5587857124
 40
0.5920639298
 40
0.6257576625
 40
0.6598089082
 40
0.6941481871
 40
0.7286949322
 40
0.7633581227
 40
0.7980370688
 40
0.8326226714
 40
0.8669990598
 40
0.9010457632
 40
0.9179081168
 40
0.9346422233
 40
0.951232813
 40
0.9676654872
 40
0.9839265324
 40
1.0
 40
1.0
 40
1.0
 40
1.0
 10
15.1728009765
 20
12.2537269352
 30
0.0
 10
15.1736454891
 20
12.2520059961
 30
0.0
 10
15.175262589
 20
12.2485334664
 30
0.0
 10
15.1774694744
 20
12.2432357783
 30
0.0
 10
15.1794507866
 20
12.2378630854
 30
0.0
 10
15.1812027716
 20
12.2324233027
 30
0.0
 10
15.1827219378
 20
12.226924289
 30
0.0
 10
15.1840049785
 20
12.2213740219
 30
0.0
 10
15.1850489308
 20
12.2157805648
 30
0.0
 10
15.1858509908
 20
12.210152027
 30
0.0
 10
15.1864088405
 20
12.2044965949
 30
0.0
 10
15.1867203317
 20
12.198822465
 30
0.0
 10
15.1867838638
 20
12.1931378588
 30
0.0
 10
15.1865981309
 20
12.1874509749
 30
0.0
 10
15.1861623074
 20
12.1817699714
 30
0.0
 10
15.1854760823
 20
12.1761029221
 30
0.0
 10
15.1845394863
 20
12.1704578055
 30
0.0
 10
15.1833532618
 20
12.1648424238
 30
0.0
 10
15.181918421
 20
12.159264438
 30
0.0
 10
15.1802367047
 20
12.1537312458
 30
0.0
 10
15.1783102205
 20
12.1482500235
 30
0.0
 10
15.1761416165
 20
12.1428276573
 30
0.0
 10
15.173734097
 20
12.1374706898
 30
0.0
 10
15.171091169
 20
12.1321853951
 30
0.0
 10
15.1682169939
 20
12.1269775911
 30
0.0
 10
15.1651159223
 20
12.1218528347
 30
0.0
 10
15.1617928612
 20
12.1168162017
 30
0.0
 10
15.1582529609
 20
12.111872468
 30
0.0
 10
15.1545016459
 20
12.107025939
 30
0.0
 10
15.1492043207
 20
12.100673079
 30
0.0
 10
15.1420757002
 20
12.0929957328
 30
0.0
 10
15.1343866641
 20
12.0857526569
 30
0.0
 10
15.1278923796
 20
12.0801877822
 30
0.0
 10
15.1211208652
 20
12.0747352671
 30
0.0
 10
15.1122532546
 20
12.0682250729
 30
0.0
 10
15.1010714571
 20
12.0609379819
 30
0.0
 10
15.0893623496
 20
12.054153977
 30
0.0
 10
15.077183732
 20
12.0478811949
 30
0.0
 10
15.0645941747
 20
12.0421263395
 30
0.0
 10
15.0516536648
 20
12.0368954725
 30
0.0
 10
15.0384237387
 20
12.0321942558
 30
0.0
 10
15.0249677254
 20
12.0280281732
 30
0.0
 10
15.0113508664
 20
12.0244025978
 30
0.0
 10
14.9976402268
 20
12.0213227435
 30
0.0
 10
14.9839047093
 20
12.0187935945
 30
0.0
 10
14.9724592564
 20
12.0171432931
 30
0.0
 10
14.9633486983
 20
12.0161040031
 30
0.0
 10
14.9565751165
 20
12.0154675432
 30
0.0
 10
14.9498481941
 20
12.0149719388
 30
0.0
 10
14.9431765461
 20
12.0146174771
 30
0.0
 10
14.9365690415
 20
12.014404391
 30
0.0
 10
14.9321859031
 20
12.0143563294
 30
0.0
 10
14.9300071164
 20
12.0143563294
 30
0.0
  0
SPLINE
  5
312
100
AcDbEntity
  8
02___PRT_ALL_AXES
100
AcDbSpline
 62
7
  6
CONTINUOUS
 70
0
 71
3
 72
76
 73
72
 74
0
 42
0.0000001
 43
0.0000001
 44
0.0000000001
 40
0.0
 40
0.0
 40
0.0
 40
0.0
 40
0.0053117654
 40
0.010626366
 40
0.0159466294
 40
0.0212753687
 40
0.026615374
 40
0.0319694072
 40
0.0373401928
 40
0.0427304136
 40
0.0535786481
 40
0.0645355054
 40
0.0756203215
 40
0.086851248
 40
0.0982451425
 40
0.1098174869
 40
0.1215823328
 40
0.1335522726
 40
0.1396180406
 40
0.1457391294
 40
0.1581511724
 40
0.1707973341
 40
0.1836844511
 40
0.1968180084
 40
0.2102021899
 40
0.223839934
 40
0.237732991
 40
0.2518819816
 40
0.2662864559
 40
0.2809449509
 40
0.295855047
 40
0.3110134231
 40
0.326415909
 40
0.3420575363
 40
0.3579325872
 40
0.3740346409
 40
0.3903566181
 40
0.4068908239
 40
0.4236289881
 40
0.4405623048
 40
0.4576814697
 40
0.4749767164
 40
0.4924378511
 40
0.5100542861
 40
0.5278150727
 40
0.5457089327
 40
0.5637242895
 40
0.5818492975
 40
0.6000718724
 40
0.6183797193
 40
0.6367603617
 40
0.6552011689
 40
0.6736893842
 40
0.6922121518
 40
0.7107565442
 40
0.7293095891
 40
0.7478582962
 40
0.7663896844
 40
0.7848908084
 40
0.8033487854
 40
0.8217508228
 40
0.8400842451
 40
0.8583365215
 40
0.8764952936
 40
0.8945484037
 40
0.9124839248
 40
0.9302901844
 40
0.9479558104
 40
0.9654697189
 40
0.982821248
 40
1.0
 40
1.0
 40
1.0
 40
1.0
 10
14.4354449963
 20
11.5929421084
 30
0.0
 10
14.4348420589
 20
11.5909910022
 30
0.0
 10
14.433690818
 20
11.5870705206
 30
0.0
 10
14.4321297034
 20
11.581141025
 30
0.0
 10
14.4307344938
 20
11.5751635636
 30
0.0
 10
14.4295055959
 20
11.5691397576
 30
0.0
 10
14.4284433022
 20
11.5630711676
 30
0.0
 10
14.4275479084
 20
11.5569593977
 30
0.0
 10
14.4268196315
 20
11.5508059914
 30
0.0
 10
14.4260701167
 20
11.5425311906
 30
0.0
 10
14.4255542193
 20
11.5320829197
 30
0.0
 10
14.4256079081
 20
11.5194325243
 30
0.0
 10
14.4263327037
 20
11.5066554334
 30
0.0
 10
14.4277277127
 20
11.4937653197
 30
0.0
 10
14.4297912876
 20
11.4807756246
 30
0.0
 10
14.432521114
 20
11.4676998985
 30
0.0
 10
14.4359141285
 20
11.4545519051
 30
0.0
 10
14.4392763021
 20
11.4435950716
 30
0.0
 10
14.4422885918
 20
11.4348092839
 30
0.0
 10
14.4455469001
 20
11.425930417
 30
0.0
 10
14.4500323989
 20
11.4148101692
 30
0.0
 10
14.4560347115
 20
11.4015097683
 30
0.0
 10
14.4626751929
 20
11.3882055392
 30
0.0
 10
14.4699467965
 20
11.3749114222
 30
0.0
 10
14.4778419121
 20
11.3616411395
 30
0.0
 10
14.4863522721
 20
11.348408447
 30
0.0
 10
14.4954689863
 20
11.335227049
 30
0.0
 10
14.505182541
 20
11.3221106049
 30
0.0
 10
14.51548281
 20
11.3090727098
 30
0.0
 10
14.5263590623
 20
11.296126883
 30
0.0
 10
14.5377999727
 20
11.2832865527
 30
0.0
 10
14.5497936321
 20
11.2705650426
 30
0.0
 10
14.5623275589
 20
11.2579755576
 30
0.0
 10
14.5753887113
 20
11.2455311699
 30
0.0
 10
14.5889634999
 20
11.2332448047
 30
0.0
 10
14.6030378017
 20
11.2211292267
 30
0.0
 10
14.6175969741
 20
11.2091970266
 30
0.0
 10
14.6326258696
 20
11.1974606069
 30
0.0
 10
14.6481088519
 20
11.1859321696
 30
0.0
 10
14.6640298115
 20
11.1746237023
 30
0.0
 10
14.6803721825
 20
11.163546966
 30
0.0
 10
14.6971189598
 20
11.1527134825
 30
0.0
 10
14.7142527165
 20
11.1421345218
 30
0.0
 10
14.7317556224
 20
11.1318210905
 30
0.0
 10
14.7496094621
 20
11.1217839199
 30
0.0
 10
14.7677956543
 20
11.1120334551
 30
0.0
 10
14.7862952709
 20
11.1025798431
 30
0.0
 10
14.8050890572
 20
11.0934329231
 30
0.0
 10
14.8241574513
 20
11.0846022153
 30
0.0
 10
14.8434806051
 20
11.0760969112
 30
0.0
 10
14.8630384048
 20
11.0679258643
 30
0.0
 10
14.8828104918
 20
11.06009758
 30
0.0
 10
14.9027762841
 20
11.0526202073
 30
0.0
 10
14.9229149979
 20
11.04550153
 30
0.0
 10
14.9432056688
 20
11.0387489587
 30
0.0
 10
14.9636271745
 20
11.0323695225
 30
0.0
 10
14.9841582562
 20
11.0263698627
 30
0.0
 10
15.0047775411
 20
11.0207562246
 30
0.0
 10
15.0254635646
 20
11.015534452
 30
0.0
 10
15.0461947932
 20
11.0107099806
 30
0.0
 10
15.0669496461
 20
11.0062878326
 30
0.0
 10
15.0877065187
 20
11.0022726111
 30
0.0
 10
15.1084438047
 20
10.9986684958
 30
0.0
 10
15.1291399186
 20
10.9954792385
 30
0.0
 10
15.1497733189
 20
10.9927081587
 30
0.0
 10
15.1703225285
 20
10.990358142
 30
0.0
 10
15.1907661649
 20
10.9884316332
 30
0.0
 10
15.2110829364
 20
10.9869306417
 30
0.0
 10
15.2312517475
 20
10.9858567253
 30
0.0
 10
15.2512514682
 20
10.9852110111
 30
0.0
 10
15.2645272868
 20
10.9850656929
 30
0.0
 10
15.2711317714
 20
10.9850656929
 30
0.0
  0
SPLINE
  5
313
100
AcDbEntity
  8
02___PRT_ALL_AXES
100
AcDbSpline
 62
7
  6
CONTINUOUS
 70
0
 71
3
 72
46
 73
42
 74
0
 42
0.0000001
 43
0.0000001
 44
0.0000000001
 40
0.0
 40
0.0
 40
0.0
 40
0.0
 40
0.0123992807
 40
0.0248057419
 40
0.0372265429
 40
0.0496688033
 40
0.06213958
 40
0.0746458518
 40
0.0871944955
 40
0.0997922745
 40
0.1124458139
 40
0.1251615939
 40
0.1379459249
 40
0.1508049455
 40
0.1767683032
 40
0.2030991919
 40
0.2298392362
 40
0.2570263764
 40
0.2846947448
 40
0.3128746082
 40
0.3271656231
 40
0.3415940887
 40
0.370872331
 40
0.4007299079
 40
0.431182054
 40
0.4622405203
 40
0.4939137219
 40
0.5262068949
 40
0.5591222569
 40
0.5926591685
 40
0.6268142922
 40
0.6615817486
 40
0.6969532676
 40
0.7329183335
 40
0.7694643246
 40
0.8065766476
 40
0.8442388626
 40
0.8824328131
 40
0.9211387188
 40
0.9603353452
 40
1.0
 40
1.0
 40
1.0
 40
1.0
 10
15.7023330313
 20
11.2014440953
 30
0.0
 10
15.7017049897
 20
11.1994117518
 30
0.0
 10
15.7003887593
 20
11.1953640855
 30
0.0
 10
15.6982361028
 20
11.1893504539
 30
0.0
 10
15.695905504
 20
11.183395545
 30
0.0
 10
15.6933976224
 20
11.177501129
 30
0.0
 10
15.6907131918
 20
11.1716688493
 30
0.0
 10
15.6878529545
 20
11.1659003772
 30
0.0
 10
15.684817749
 20
11.1601973351
 30
0.0
 10
15.6816084188
 20
11.1545613529
 30
0.0
 10
15.6782258974
 20
11.1489940116
 30
0.0
 10
15.6746711389
 20
11.1434969119
 30
0.0
 10
15.670945136
 20
11.1380715537
 30
0.0
 10
15.6657339655
 20
11.1309131056
 30
0.0
 10
15.6587885105
 20
11.1221480099
 30
0.0
 10
15.6498140657
 20
11.1119763653
 30
0.0
 10
15.640183025
 20
11.102128324
 30
0.0
 10
15.6299065896
 20
11.0926151255
 30
0.0
 10
15.61899663
 20
11.0834474334
 30
0.0
 10
15.6094323576
 20
11.0761384794
 30
0.0
 10
15.6014827843
 20
11.0704725725
 30
0.0
 10
15.5932552706
 20
11.0648760016
 30
0.0
 10
15.5825925928
 20
11.0581169492
 30
0.0
 10
15.5692794197
 20
11.0504291754
 30
0.0
 10
15.5554013847
 20
11.0431337439
 30
0.0
 10
15.5409743342
 20
11.0362388845
 30
0.0
 10
15.5260145174
 20
11.0297522493
 30
0.0
 10
15.5105388305
 20
11.0236810786
 30
0.0
 10
15.4945647291
 20
11.0180321446
 30
0.0
 10
15.4781102304
 20
11.0128117565
 30
0.0
 10
15.4611938897
 20
11.0080257489
 30
0.0
 10
15.4438347823
 20
11.0036794751
 30
0.0
 10
15.4260524831
 20
10.9997778005
 30
0.0
 10
15.4078670452
 20
10.9963250953
 30
0.0
 10
15.3892989781
 20
10.9933252293
 30
0.0
 10
15.3703692258
 20
10.9907815664
 30
0.0
 10
15.3510991391
 20
10.9886969594
 30
0.0
 10
15.3315104688
 20
10.9870737482
 30
0.0
 10
15.3116252782
 20
10.9859137521
 30
0.0
 10
15.2914661457
 20
10.9852182739
 30
0.0
 10
15.2779364807
 20
10.9850656929
 30
0.0
 10
15.2711317714
 20
10.9850656929
 30
0.0
  0
SPLINE
  5
314
100
AcDbEntity
  8
LAYER_CHAMFER_FEAT
100
AcDbSpline
 62
7
  6
CONTINUOUS
 70
0
 71
3
 72
15
 73
11
 74
0
 42
0.0000001
 43
0.0000001
 44
0.0000000001
 40
0.0
 40
0.0
 40
0.0
 40
0.0
 40
0.1317643827
 40
0.2617724462
 40
0.389918581
 40
0.5161211385
 40
0.6402989294
 40
0.7623789342
 40
0.882297557
 40
1.0
 40
1.0
 40
1.0
 40
1.0
 10
14.9373397089
 20
11.6652624007
 30
0.0
 10
14.9323604284
 20
11.6652624007
 30
0.0
 10
14.9224677338
 20
11.6651368789
 30
0.0
 10
14.9077424799
 20
11.6645639579
 30
0.0
 10
14.8932475559
 20
11.6636083129
 30
0.0
 10
14.8790040311
 20
11.6622713662
 30
0.0
 10
14.8650320714
 20
11.6605550017
 30
0.0
 10
14.8513516381
 20
11.6584616484
 30
0.0
 10
14.8379824833
 20
11.6559943083
 30
0.0
 10
14.8292065375
 20
11.6540842584
 30
0.0
 10
14.8248767731
 20
11.6530659925
 30
0.0
  0
SPLINE
  5
315
100
AcDbEntity
  8
LAYER_CHAMFER_FEAT
100
AcDbSpline
 62
7
  6
CONTINUOUS
 70
0
 71
3
 72
39
 73
35
 74
0
 42
0.0000001
 43
0.0000001
 44
0.0000000001
 40
0.0
 40
0.0
 40
0.0
 40
0.0
 40
0.0305399336
 40
0.0614591835
 40
0.0927264505
 40
0.1243126438
 40
0.1561858715
 40
0.1883135668
 40
0.2206623642
 40
0.253198071
 40
0.2858858952
 40
0.3186905379
 40
0.3515763201
 40
0.384507299
 40
0.4174473809
 40
0.4503604468
 40
0.4832104652
 40
0.5159616048
 40
0.5485783613
 40
0.581025675
 40
0.613269043
 40
0.645274645
 40
0.6770094812
 40
0.7084414872
 40
0.739539658
 40
0.7702741997
 40
0.8006166748
 40
0.8305401295
 40
0.8600192432
 40
0.8890305163
 40
0.9175524266
 40
0.9455655883
 40
0.9730529455
 40
1.0
 40
1.0
 40
1.0
 40
1.0
 10
14.9373397089
 20
11.6652624007
 30
0.0
 10
14.9427229737
 20
11.6652624007
 30
0.0
 10
14.9535568975
 20
11.6651137947
 30
0.0
 10
14.9698902846
 20
11.6644557114
 30
0.0
 10
14.9863851912
 20
11.6633619783
 30
0.0
 10
15.0030143792
 20
11.6618344747
 30
0.0
 10
15.019750964
 20
11.6598756274
 30
0.0
 10
15.0365676119
 20
11.6574886583
 30
0.0
 10
15.0534369288
 20
11.6546774644
 30
0.0
 10
15.0703314274
 20
11.6514466065
 30
0.0
 10
15.0872235719
 20
11.6478013536
 30
0.0
 10
15.1040858356
 20
11.6437476598
 30
0.0
 10
15.1208907367
 20
11.6392921297
 30
0.0
 10
15.1376108817
 20
11.6344420089
 30
0.0
 10
15.1542190213
 20
11.6292052119
 30
0.0
 10
15.1706880899
 20
11.6235902827
 30
0.0
 10
15.186991244
 20
11.6176063677
 30
0.0
 10
15.2031019066
 20
11.6112632053
 30
0.0
 10
15.2189938268
 20
11.6045711484
 30
0.0
 10
15.2346411078
 20
11.5975411071
 30
0.0
 10
15.2500182457
 20
11.5901845283
 30
0.0
 10
15.2651001783
 20
11.5825133919
 30
0.0
 10
15.2798623383
 20
11.5745402112
 30
0.0
 10
15.294280675
 20
11.5662779763
 30
0.0
 10
15.3083316893
 20
11.5577401321
 30
0.0
 10
15.3219924913
 20
11.548940584
 30
0.0
 10
15.335240838
 20
11.539893671
 30
0.0
 10
15.3480551504
 20
11.5306141174
 30
0.0
 10
15.3604145459
 20
11.5211170104
 30
0.0
 10
15.3722989078
 20
11.5114178043
 30
0.0
 10
15.3836888794
 20
11.5015322911
 30
0.0
 10
15.3945659549
 20
11.4914764849
 30
0.0
 10
15.4049122434
 20
11.481266887
 30
0.0
 10
15.4115115397
 20
11.4742984193
 30
0.0
 10
15.4147157284
 20
11.4707919693
 30
0.0
  0
SPLINE
  5
316
100
AcDbEntity
  8
LAYER_FEATURE
100
AcDbSpline
 62
7
  6
CONTINUOUS
 70
0
 71
3
 72
80
 73
76
 74
0
 42
0.0000001
 43
0.0000001
 44
0.0000000001
 40
0.0
 40
0.0
 40
0.0
 40
0.0
 40
0.0171786082
 40
0.034530198
 40
0.0520439838
 40
0.0697095606
 40
0.0875157518
 40
0.105451206
 40
0.1235042506
 40
0.1416629551
 40
0.1599151638
 40
0.1782485183
 40
0.196650488
 40
0.215108397
 40
0.2336094524
 40
0.252140772
 40
0.2706894107
 40
0.289242387
 40
0.3077867108
 40
0.3263094098
 40
0.3447975567
 40
0.363238296
 40
0.3816188704
 40
0.3999266494
 40
0.4181491568
 40
0.4362740982
 40
0.4542893888
 40
0.4721831827
 40
0.4899439032
 40
0.5075602729
 40
0.5250213434
 40
0.5423165268
 40
0.5594356282
 40
0.5763688815
 40
0.5931069834
 40
0.6096411284
 40
0.625963046
 40
0.6420650398
 40
0.6579400312
 40
0.6735816004
 40
0.68898403
 40
0.7041423511
 40
0.719052392
 40
0.733710832
 40
0.7481152528
 40
0.7622641919
 40
0.7761571985
 40
0.789794892
 40
0.8031790231
 40
0.8163125314
 40
0.8291996013
 40
0.8418457169
 40
0.8542577138
 40
0.8603787795
 40
0.8664445246
 40
0.8784144197
 40
0.8901792225
 40
0.8959889946
 40
0.9017523407
 40
0.913146193
 40
0.9243770775
 40
0.929937084
 40
0.9354627808
 40
0.9409564793
 40
0.9464205594
 40
0.9518574751
 40
0.9572697446
 40
0.962659945
 40
0.9680307113
 40
0.9733847243
 40
0.97872471
 40
0.9840534296
 40
0.9893736732
 40
0.9946882543
 40
1.0
 40
1.0
 40
1.0
 40
1.0
 10
15.2976436803
 20
14.0365442929
 30
0.0
 10
15.309403194
 20
14.0365442929
 30
0.0
 10
15.3330413899
 20
14.0362855377
 30
0.0
 10
15.3686517438
 20
14.0351358323
 30
0.0
 10
15.4045632348
 20
14.0332236597
 30
0.0
 10
15.4407380902
 20
14.0305510935
 30
0.0
 10
15.4771388725
 20
14.0271208618
 30
0.0
 10
15.5137276218
 20
14.0229365539
 30
0.0
 10
15.5504662777
 20
14.018002525
 30
0.0
 10
15.5873165984
 20
14.0123239149
 30
0.0
 10
15.6242402274
 20
14.0059066358
 30
0.0
 10
15.6611987319
 20
13.9987573643
 30
0.0
 10
15.6981536394
 20
13.9908835369
 30
0.0
 10
15.7350664824
 20
13.982293355
 30
0.0
 10
15.7718988364
 20
13.9729957639
 30
0.0
 10
15.8086123599
 20
13.9630004421
 30
0.0
 10
15.8451688341
 20
13.9523177924
 30
0.0
 10
15.881530202
 20
13.9409589296
 30
0.0
 10
15.9176586126
 20
13.9289356829
 30
0.0
 10
15.9535164576
 20
13.9162605716
 30
0.0
 10
15.98906641
 20
13.9029467905
 30
0.0
 10
16.0242714623
 20
13.889008197
 30
0.0
 10
16.0590949645
 20
13.874459295
 30
0.0
 10
16.0935006691
 20
13.8593152332
 30
0.0
 10
16.1274527643
 20
13.8435917782
 30
0.0
 10
16.1609159103
 20
13.8273052963
 30
0.0
 10
16.1938552751
 20
13.810472737
 30
0.0
 10
16.2262365711
 20
13.7931116136
 30
0.0
 10
16.2580260981
 20
13.7752399974
 30
0.0
 10
16.2891907739
 20
13.7568764892
 30
0.0
 10
16.3196981659
 20
13.7380401966
 30
0.0
 10
16.349516525
 20
13.7187507161
 30
0.0
 10
16.3786148176
 20
13.6990281093
 30
0.0
 10
16.4069627673
 20
13.6788928946
 30
0.0
 10
16.4345308816
 20
13.6583660157
 30
0.0
 10
16.4612904776
 20
13.6374688173
 30
0.0
 10
16.4872137124
 20
13.6162230245
 30
0.0
 10
16.5122736102
 20
13.594650716
 30
0.0
 10
16.5364441014
 20
13.5727743124
 30
0.0
 10
16.5597000438
 20
13.5506165448
 30
0.0
 10
16.582017242
 20
13.5282004271
 30
0.0
 10
16.6033724724
 20
13.505549234
 30
0.0
 10
16.6237435044
 20
13.4826864732
 30
0.0
 10
16.6431091357
 20
13.4596358702
 30
0.0
 10
16.6614492065
 20
13.4364213374
 30
0.0
 10
16.6787446112
 20
13.4130669457
 30
0.0
 10
16.6949773173
 20
13.3895969019
 30
0.0
 10
16.710130378
 20
13.3660355234
 30
0.0
 10
16.7241879658
 20
13.342407213
 30
0.0
 10
16.7371353666
 20
13.3187364661
 30
0.0
 10
16.7489590316
 20
13.2950477146
 30
0.0
 10
16.7596464117
 20
13.2713657817
 30
0.0
 10
16.7676330337
 20
13.2515656981
 30
0.0
 10
16.7734345883
 20
13.2357565006
 30
0.0
 10
16.7787981002
 20
13.2201130016
 30
0.0
 10
16.7847845523
 20
13.2006040816
 30
0.0
 10
16.789840071
 20
13.1810137499
 30
0.0
 10
16.7932854969
 20
13.1654125042
 30
0.0
 10
16.7963106241
 20
13.1499830842
 30
0.0
 10
16.7993608889
 20
13.1307827959
 30
0.0
 10
16.8014376493
 20
13.1115923341
 30
0.0
 10
16.8024960138
 20
13.0963509179
 30
0.0
 10
16.8029889295
 20
13.0850109616
 30
0.0
 10
16.8031834818
 20
13.0737276815
 30
0.0
 10
16.8030795645
 20
13.0625039414
 30
0.0
 10
16.8026772252
 20
13.0513426962
 30
0.0
 10
16.8019765699
 20
13.0402468551
 30
0.0
 10
16.8009777276
 20
13.0292193239
 30
0.0
 10
16.799681019
 20
13.0182629803
 30
0.0
 10
16.7980867156
 20
13.0073806966
 30
0.0
 10
16.7961952629
 20
12.9965753148
 30
0.0
 10
16.7940071599
 20
12.9858496674
 30
0.0
 10
16.7915229222
 20
12.9752065425
 30
0.0
 10
16.7887432954
 20
12.9646488195
 30
0.0
 10
16.7866934641
 20
12.9576682326
 30
0.0
 10
16.7856199053
 20
12.954194205
 30
0.0
  0
SPLINE
  5
317
100
AcDbEntity
  8
LAYER_FEATURE
100
AcDbSpline
 62
7
  6
CONTINUOUS
 70
0
 71
3
 72
48
 73
44
 74
0
 42
0.0000001
 43
0.0000001
 44
0.0000000001
 40
0.0
 40
0.0
 40
0.0
 40
0.0
 40
0.0396643164
 40
0.0788610285
 40
0.1175666373
 40
0.1557604662
 40
0.1934225072
 40
0.2305346717
 40
0.2670805032
 40
0.3030454104
 40
0.3384167745
 40
0.3731840801
 40
0.4073390569
 40
0.4408758239
 40
0.473791042
 40
0.5060840726
 40
0.5377571353
 40
0.5688154668
 40
0.5992674822
 40
0.6291249306
 40
0.6584030448
 40
0.6728314457
 40
0.6871223987
 40
0.7153021386
 40
0.7429703868
 40
0.7566230099
 40
0.7701594372
 40
0.7968993662
 40
0.8232301401
 40
0.8362561141
 40
0.8491957112
 40
0.8620546759
 40
0.8748389507
 40
0.8875546761
 40
0.9002081598
 40
0.912805884
 40
0.9253544735
 40
0.9378606901
 40
0.9503314134
 40
0.9627736188
 40
0.9751943663
 40
0.9876007731
 40
1.0
 40
1.0
 40
1.0
 40
1.0
 10
14.9476157766
 20
12.9038535816
 30
0.0
 10
14.9354997498
 20
12.9038535816
 30
0.0
 10
14.9114095723
 20
12.9035818952
 30
0.0
 10
14.8755153812
 20
12.9023435833
 30
0.0
 10
14.840108893
 20
12.9002781392
 30
0.0
 10
14.8052304513
 20
12.8973879553
 30
0.0
 10
14.7709192222
 20
12.8936762204
 30
0.0
 10
14.7372139864
 20
12.8891471235
 30
0.0
 10
14.7041527449
 20
12.8838057308
 30
0.0
 10
14.6717727927
 20
12.877658038
 30
0.0
 10
14.6401106456
 20
12.8707109374
 30
0.0
 10
14.6092020081
 20
12.8629722113
 30
0.0
 10
14.5790817343
 20
12.8544505217
 30
0.0
 10
14.5497837903
 20
12.845155399
 30
0.0
 10
14.521341217
 20
12.8350972275
 30
0.0
 10
14.4937860936
 20
12.8242872444
 30
0.0
 10
14.4671494981
 20
12.8127375104
 30
0.0
 10
14.4414615138
 20
12.8004609177
 30
0.0
 10
14.416751073
 20
12.7874710911
 30
0.0
 10
14.3930463947
 20
12.773782682
 30
0.0
 10
14.3740610354
 20
12.7617478973
 30
0.0
 10
14.359411604
 20
12.751782961
 30
0.0
 10
14.3452570244
 20
12.7416945537
 30
0.0
 10
14.3282275888
 20
12.7286807916
 30
0.0
 10
14.3119677044
 20
12.7150174872
 30
0.0
 10
14.2995358504
 20
12.7037794486
 30
0.0
 10
14.2875878326
 20
12.69243646
 30
0.0
 10
14.2733557174
 20
12.6778837964
 30
0.0
 10
14.2599914984
 20
12.6627365961
 30
0.0
 10
14.2499064079
 20
12.650345798
 30
0.0
 10
14.2426681127
 20
12.6409495057
 30
0.0
 10
14.2357308618
 20
12.6314200349
 30
0.0
 10
14.2290966006
 20
12.6217599917
 30
0.0
 10
14.2227671814
 20
12.6119721628
 30
0.0
 10
14.2167444651
 20
12.6020592718
 30
0.0
 10
14.2110301155
 20
12.5920241619
 30
0.0
 10
14.2056257914
 20
12.5818696558
 30
0.0
 10
14.2005330355
 20
12.5715986336
 30
0.0
 10
14.1957532643
 20
12.5612140216
 30
0.0
 10
14.1912879031
 20
12.5507187475
 30
0.0
 10
14.1871381445
 20
12.5401157874
 30
0.0
 10
14.1833052678
 20
12.52940825
 30
0.0
 10
14.1809616569
 20
12.5222012085
 30
0.0
 10
14.1798433987
 20
12.5185825345
 30
0.0
  0
SPLINE
  5
318
100
AcDbEntity
  8
LAYER_FEATURE
100
AcDbSpline
 62
7
  6
CONTINUOUS
 70
0
 71
3
 72
48
 73
44
 74
0
 42
0.0000001
 43
0.0000001
 44
0.0000000001
 40
0.0
 40
0.0
 40
0.0
 40
0.0
 40
0.0396643164
 40
0.0788610285
 40
0.1175666373
 40
0.1557604662
 40
0.1934225072
 40
0.2305346717
 40
0.2670805032
 40
0.3030454104
 40
0.3384167745
 40
0.3731840801
 40
0.4073390569
 40
0.4408758239
 40
0.473791042
 40
0.5060840726
 40
0.5377571353
 40
0.5688154668
 40
0.5992674822
 40
0.6291249306
 40
0.6584030448
 40
0.6728314457
 40
0.6871223987
 40
0.7153021386
 40
0.7429703868
 40
0.7566230099
 40
0.7701594372
 40
0.7968993662
 40
0.8232301401
 40
0.8362561141
 40
0.8491957112
 40
0.8620546759
 40
0.8748389507
 40
0.8875546761
 40
0.9002081598
 40
0.912805884
 40
0.9253544735
 40
0.9378606901
 40
0.9503314134
 40
0.9627736188
 40
0.9751943663
 40
0.9876007731
 40
1.0
 40
1.0
 40
1.0
 40
1.0
 10
15.2976436803
 20
14.0365442929
 30
0.0
 10
15.2855276534
 20
14.0365442929
 30
0.0
 10
15.261437476
 20
14.0362726065
 30
0.0
 10
15.2255432849
 20
14.0350342946
 30
0.0
 10
15.1901367967
 20
14.0329688505
 30
0.0
 10
15.155258355
 20
14.0300786667
 30
0.0
 10
15.1209471258
 20
14.0263669317
 30
0.0
 10
15.08724189
 20
14.0218378348
 30
0.0
 10
15.0541806485
 20
14.0164964421
 30
0.0
 10
15.0218006964
 20
14.0103487493
 30
0.0
 10
14.9901385493
 20
14.0034016488
 30
0.0
 10
14.9592299117
 20
13.9956629226
 30
0.0
 10
14.9291096379
 20
13.9871412331
 30
0.0
 10
14.899811694
 20
13.9778461103
 30
0.0
 10
14.8713691207
 20
13.9677879389
 30
0.0
 10
14.8438139973
 20
13.9569779558
 30
0.0
 10
14.8171774018
 20
13.9454282217
 30
0.0
 10
14.7914894175
 20
13.9331516291
 30
0.0
 10
14.7667789766
 20
13.9201618024
 30
0.0
 10
14.7430742984
 20
13.9064733934
 30
0.0
 10
14.7240889391
 20
13.8944386087
 30
0.0
 10
14.7094395077
 20
13.8844736723
 30
0.0
 10
14.695284928
 20
13.874385265
 30
0.0
 10
14.6782554925
 20
13.8613715029
 30
0.0
 10
14.661995608
 20
13.8477081986
 30
0.0
 10
14.649563754
 20
13.83647016
 30
0.0
 10
14.6376157363
 20
13.8251271714
 30
0.0
 10
14.623383621
 20
13.8105745077
 30
0.0
 10
14.610019402
 20
13.7954273075
 30
0.0
 10
14.5999343115
 20
13.7830365094
 30
0.0
 10
14.5926960164
 20
13.773640217
 30
0.0
 10
14.5857587655
 20
13.7641107462
 30
0.0
 10
14.5791245042
 20
13.754450703
 30
0.0
 10
14.572795085
 20
13.7446628741
 30
0.0
 10
14.5667723688
 20
13.7347499832
 30
0.0
 10
14.5610580192
 20
13.7247148732
 30
0.0
 10
14.5556536951
 20
13.7145603671
 30
0.0
 10
14.5505609391
 20
13.704289345
 30
0.0
 10
14.5457811679
 20
13.6939047329
 30
0.0
 10
14.5413158067
 20
13.6834094588
 30
0.0
 10
14.5371660481
 20
13.6728064987
 30
0.0
 10
14.5333331714
 20
13.6620989613
 30
0.0
 10
14.5309895605
 20
13.6548919198
 30
0.0
 10
14.5298713024
 20
13.6512732458
 30
0.0
  0
SPLINE
  5
319
100
AcDbEntity
  8
LAYER_FEATURE
100
AcDbSpline
 62
7
  6
CONTINUOUS
 70
0
 71
3
 72
80
 73
76
 74
0
 42
0.0000001
 43
0.0000001
 44
0.0000000001
 40
0.0
 40
0.0
 40
0.0
 40
0.0
 40
0.0171786082
 40
0.034530198
 40
0.0520439838
 40
0.0697095606
 40
0.0875157518
 40
0.105451206
 40
0.1235042506
 40
0.1416629551
 40
0.1599151638
 40
0.1782485183
 40
0.196650488
 40
0.215108397
 40
0.2336094524
 40
0.252140772
 40
0.2706894107
 40
0.289242387
 40
0.3077867108
 40
0.3263094098
 40
0.3447975567
 40
0.363238296
 40
0.3816188704
 40
0.3999266494
 40
0.4181491568
 40
0.4362740982
 40
0.4542893888
 40
0.4721831827
 40
0.4899439032
 40
0.5075602729
 40
0.5250213434
 40
0.5423165268
 40
0.5594356282
 40
0.5763688815
 40
0.5931069834
 40
0.6096411284
 40
0.625963046
 40
0.6420650398
 40
0.6579400312
 40
0.6735816004
 40
0.68898403
 40
0.7041423511
 40
0.719052392
 40
0.733710832
 40
0.7481152528
 40
0.7622641919
 40
0.7761571985
 40
0.789794892
 40
0.8031790231
 40
0.8163125314
 40
0.8291996013
 40
0.8418457169
 40
0.8542577138
 40
0.8603787795
 40
0.8664445246
 40
0.8784144197
 40
0.8901792225
 40
0.8959889946
 40
0.9017523407
 40
0.913146193
 40
0.9243770775
 40
0.929937084
 40
0.9354627808
 40
0.9409564793
 40
0.9464205594
 40
0.9518574751
 40
0.9572697446
 40
0.962659945
 40
0.9680307113
 40
0.9733847243
 40
0.97872471
 40
0.9840534296
 40
0.9893736732
 40
0.9946882543
 40
1.0
 40
1.0
 40
1.0
 40
1.0
 10
14.9476157766
 20
12.9038535816
 30
0.0
 10
14.9593752904
 20
12.9038535816
 30
0.0
 10
14.9830134863
 20
12.9035948264
 30
0.0
 10
15.0186238401
 20
12.902445121
 30
0.0
 10
15.0545353311
 20
12.9005329483
 30
0.0
 10
15.0907101865
 20
12.8978603821
 30
0.0
 10
15.1271109689
 20
12.8944301504
 30
0.0
 10
15.1636997181
 20
12.8902458426
 30
0.0
 10
15.2004383741
 20
12.8853118137
 30
0.0
 10
15.2372886947
 20
12.8796332036
 30
0.0
 10
15.2742123238
 20
12.8732159244
 30
0.0
 10
15.3111708283
 20
12.8660666529
 30
0.0
 10
15.3481257358
 20
12.8581928256
 30
0.0
 10
15.3850385788
 20
12.8496026437
 30
0.0
 10
15.4218709328
 20
12.8403050526
 30
0.0
 10
15.4585844562
 20
12.8303097308
 30
0.0
 10
15.4951409304
 20
12.8196270811
 30
0.0
 10
15.5315022983
 20
12.8082682183
 30
0.0
 10
15.5676307089
 20
12.7962449716
 30
0.0
 10
15.603488554
 20
12.7835698603
 30
0.0
 10
15.6390385064
 20
12.7702560792
 30
0.0
 10
15.6742435586
 20
12.7563174857
 30
0.0
 10
15.7090670609
 20
12.7417685837
 30
0.0
 10
15.7434727654
 20
12.7266245218
 30
0.0
 10
15.7774248607
 20
12.7109010669
 30
0.0
 10
15.8108880066
 20
12.694614585
 30
0.0
 10
15.8438273715
 20
12.6777820257
 30
0.0
 10
15.8762086675
 20
12.6604209022
 30
0.0
 10
15.9079981945
 20
12.6425492861
 30
0.0
 10
15.9391628702
 20
12.6241857779
 30
0.0
 10
15.9696702623
 20
12.6053494853
 30
0.0
 10
15.9994886214
 20
12.5860600047
 30
0.0
 10
16.0285869139
 20
12.566337398
 30
0.0
 10
16.0569348637
 20
12.5462021832
 30
0.0
 10
16.0845029779
 20
12.5256753043
 30
0.0
 10
16.111262574
 20
12.504778106
 30
0.0
 10
16.1371858088
 20
12.4835323132
 30
0.0
 10
16.1622457065
 20
12.4619600047
 30
0.0
 10
16.1864161978
 20
12.4400836011
 30
0.0
 10
16.2096721402
 20
12.4179258335
 30
0.0
 10
16.2319893383
 20
12.3955097158
 30
0.0
 10
16.2533445687
 20
12.3728585227
 30
0.0
 10
16.2737156007
 20
12.3499957618
 30
0.0
 10
16.293081232
 20
12.3269451589
 30
0.0
 10
16.3114213028
 20
12.3037306261
 30
0.0
 10
16.3287167075
 20
12.2803762344
 30
0.0
 10
16.3449494137
 20
12.2569061906
 30
0.0
 10
16.3601024743
 20
12.2333448121
 30
0.0
 10
16.3741600621
 20
12.2097165017
 30
0.0
 10
16.387107463
 20
12.1860457548
 30
0.0
 10
16.3989311279
 20
12.1623570032
 30
0.0
 10
16.4096185081
 20
12.1386750703
 30
0.0
 10
16.4176051301
 20
12.1188749868
 30
0.0
 10
16.4234066847
 20
12.1030657893
 30
0.0
 10
16.4287701966
 20
12.0874222903
 30
0.0
 10
16.4347566487
 20
12.0679133703
 30
0.0
 10
16.4398121673
 20
12.0483230386
 30
0.0
 10
16.4432575932
 20
12.0327217929
 30
0.0
 10
16.4462827205
 20
12.0172923729
 30
0.0
 10
16.4493329853
 20
11.9980920846
 30
0.0
 10
16.4514097456
 20
11.9789016228
 30
0.0
 10
16.4524681102
 20
11.9636602066
 30
0.0
 10
16.4529610259
 20
11.9523202503
 30
0.0
 10
16.4531555782
 20
11.9410369702
 30
0.0
 10
16.4530516609
 20
11.9298132301
 30
0.0
 10
16.4526493215
 20
11.9186519849
 30
0.0
 10
16.4519486662
 20
11.9075561438
 30
0.0
 10
16.4509498239
 20
11.8965286126
 30
0.0
 10
16.4496531154
 20
11.885572269
 30
0.0
 10
16.4480588119
 20
11.8746899853
 30
0.0
 10
16.4461673592
 20
11.8638846035
 30
0.0
 10
16.4439792563
 20
11.8531589561
 30
0.0
 10
16.4414950186
 20
11.8425158311
 30
0.0
 10
16.4387153917
 20
11.8319581082
 30
0.0
 10
16.4366655605
 20
11.8249775213
 30
0.0
 10
16.4355920016
 20
11.8215034936
 30
0.0
  0
SPLINE
  5
31A
100
AcDbEntity
  8
LAYER_FEATURE
100
AcDbSpline
 62
7
  6
CONTINUOUS
 70
0
 71
3
 72
81
 73
77
 74
0
 42
0.0000001
 43
0.0000001
 44
0.0000000001
 40
0.0
 40
0.0
 40
0.0
 40
0.0
 40
0.00535409
 40
0.0107128691
 40
0.0160810069
 40
0.0214631311
 40
0.0268638117
 40
0.0322875382
 40
0.0377387057
 40
0.0432215961
 40
0.0487403628
 40
0.0542990208
 40
0.0599014275
 40
0.0655512828
 40
0.0712521065
 40
0.0770072482
 40
0.0828198617
 40
0.0886929221
 40
0.1006300285
 40
0.1128397961
 40
0.1190528518
 40
0.1253401061
 40
0.1381425009
 40
0.1446613591
 40
0.1512598121
 40
0.1646981004
 40
0.1784635933
 40
0.192559043
 40
0.2069848346
 40
0.2217391447
 40
0.2368180959
 40
0.2522159063
 40
0.2679250315
 40
0.2839362997
 40
0.3002390396
 40
0.3168212011
 40
0.3336694693
 40
0.3507693726
 40
0.3681053851
 40
0.385661024
 40
0.4034189431
 40
0.4213610218
 40
0.4394684514
 40
0.4577218181
 40
0.4761011837
 40
0.4945861641
 40
0.5131560062
 40
0.5317896638
 40
0.5504658716
 40
0.5691632194
 40
0.5878602252
 40
0.6065354079
 40
0.6251673606
 40
0.6437348242
 40
0.6622167603
 40
0.6805924266
 40
0.6988414519
 40
0.7169439136
 40
0.7348804158
 40
0.7526321704
 40
0.7701810804
 40
0.7875098255
 40
0.8046019521
 40
0.8214419661
 40
0.838015431
 40
0.8543090705
 40
0.8703108766
 40
0.8860102238
 40
0.9013979903
 40
0.9164666853
 40
0.9312105868
 40
0.9456258753
 40
0.9597108115
 40
0.9734658098
 40
0.9868937982
 40
1.0
 40
1.0
 40
1.0
 40
1.0
 10
14.5767051544
 20
12.3650502581
 30
0.0
 10
14.577586044
 20
12.3679008147
 30
0.0
 10
14.5794518179
 20
12.3735731128
 30
0.0
 10
14.5825577825
 20
12.3819807197
 30
0.0
 10
14.5859703655
 20
12.3902856229
 30
0.0
 10
14.5896879708
 20
12.3984841311
 30
0.0
 10
14.5937090626
 20
12.4065727291
 30
0.0
 10
14.5980318486
 20
12.4145479524
 30
0.0
 10
14.6026544864
 20
12.4224063641
 30
0.0
 10
14.6075749622
 20
12.4301445974
 30
0.0
 10
14.6127911395
 20
12.4377593423
 30
0.0
 10
14.6183007845
 20
12.4452473205
 30
0.0
 10
14.6241014791
 20
12.4526053599
 30
0.0
 10
14.6301907651
 20
12.4598302745
 30
0.0
 10
14.6365659644
 20
12.4669190342
 30
0.0
 10
14.6432243704
 20
12.4738685442
 30
0.0
 10
14.6501631265
 20
12.4806759568
 30
0.0
 10
14.6598362836
 20
12.4896067798
 30
0.0
 10
14.6726307875
 20
12.5003996987
 30
0.0
 10
14.6861682787
 20
12.5105615689
 30
0.0
 10
14.6975070273
 20
12.5183766385
 30
0.0
 10
14.7093255667
 20
12.5260687047
 30
0.0
 10
14.721586648
 20
12.5333840522
 30
0.0
 10
14.7342548725
 20
12.5403243511
 30
0.0
 10
14.7474013742
 20
12.5471207492
 30
0.0
 10
14.7644363385
 20
12.5551759878
 30
0.0
 10
14.7856671357
 20
12.5640766817
 30
0.0
 10
14.8077739044
 20
12.5722551851
 30
0.0
 10
14.8307186491
 20
12.5796976301
 30
0.0
 10
14.8544623552
 20
12.5863915481
 30
0.0
 10
14.8789645416
 20
12.592325661
 30
0.0
 10
14.9041834636
 20
12.5974899699
 30
0.0
 10
14.9300761417
 20
12.6018757592
 30
0.0
 10
14.9565984423
 20
12.6054756211
 30
0.0
 10
14.9837051484
 20
12.6082834701
 30
0.0
 10
15.0113500371
 20
12.6102945584
 30
0.0
 10
15.0394859573
 20
12.6115054861
 30
0.0
 10
15.0680649106
 20
12.6119142101
 30
0.0
 10
15.0970381337
 20
12.6115200498
 30
0.0
 10
15.1263561817
 20
12.6103236908
 30
0.0
 10
15.1559690137
 20
12.6083271844
 30
0.0
 10
15.1858260788
 20
12.6055339451
 30
0.0
 10
15.2158764033
 20
12.6019487461
 30
0.0
 10
15.2460686786
 20
12.5975777114
 30
0.0
 10
15.2763513492
 20
12.5924283065
 30
0.0
 10
15.3066727014
 20
12.5865093258
 30
0.0
 10
15.3369809529
 20
12.5798308779
 30
0.0
 10
15.3672243409
 20
12.5724043687
 30
0.0
 10
15.3973512121
 20
12.5642424816
 30
0.0
 10
15.4273101108
 20
12.5553591567
 30
0.0
 10
15.4570498675
 20
12.5457695659
 30
0.0
 10
15.4865196872
 20
12.5354900883
 30
0.0
 10
15.5156692368
 20
12.5245382812
 30
0.0
 10
15.5444487309
 20
12.5129328498
 30
0.0
 10
15.5728090183
 20
12.5006936149
 30
0.0
 10
15.6007016653
 20
12.4878414783
 30
0.0
 10
15.6280790396
 20
12.474398387
 30
0.0
 10
15.6548943915
 20
12.4603872947
 30
0.0
 10
15.6811019345
 20
12.4458321219
 30
0.0
 10
15.7066569234
 20
12.4307577146
 30
0.0
 10
15.731515731
 20
12.4151897999
 30
0.0
 10
15.7556359225
 20
12.3991549421
 30
0.0
 10
15.778976328
 20
12.3826804948
 30
0.0
 10
15.8014971125
 20
12.3657945533
 30
0.0
 10
15.823159844
 20
12.3485259047
 30
0.0
 10
15.8439275576
 20
12.3309039773
 30
0.0
 10
15.863764817
 20
12.312958787
 30
0.0
 10
15.8826377736
 20
12.2947208841
 30
0.0
 10
15.9005142196
 20
12.2762212991
 30
0.0
 10
15.9173636435
 20
12.2574914863
 30
0.0
 10
15.9331572659
 20
12.238563273
 30
0.0
 10
15.9478681146
 20
12.2194687811
 30
0.0
 10
15.9614709721
 20
12.2002404615
 30
0.0
 10
15.9739426624
 20
12.1809107117
 30
0.0
 10
15.9852613737
 20
12.1615129621
 30
0.0
 10
15.9921079563
 20
12.1483997552
 30
0.0
 10
15.995325424
 20
12.1418432453
 30
0.0
  0
SPLINE
  5
31B
100
AcDbEntity
  8
LAYER_CUT_FEAT
100
AcDbSpline
 62
7
  6
CONTINUOUS
 70
0
 71
3
 72
81
 73
77
 74
0
 42
0.0000001
 43
0.0000001
 44
0.0000000001
 40
0.0
 40
0.0
 40
0.0
 40
0.0
 40
0.00535409
 40
0.0107128691
 40
0.0160810069
 40
0.0214631311
 40
0.0268638117
 40
0.0322875382
 40
0.0377387057
 40
0.0432215961
 40
0.0487403628
 40
0.0542990208
 40
0.0599014275
 40
0.0655512828
 40
0.0712521065
 40
0.0770072482
 40
0.0828198617
 40
0.0886929221
 40
0.1006300285
 40
0.1128397961
 40
0.1190528518
 40
0.1253401061
 40
0.1381425009
 40
0.1446613591
 40
0.1512598121
 40
0.1646981004
 40
0.1784635933
 40
0.192559043
 40
0.2069848346
 40
0.2217391447
 40
0.2368180959
 40
0.2522159063
 40
0.2679250315
 40
0.2839362997
 40
0.3002390396
 40
0.3168212011
 40
0.3336694693
 40
0.3507693726
 40
0.3681053851
 40
0.385661024
 40
0.4034189431
 40
0.4213610218
 40
0.4394684514
 40
0.4577218181
 40
0.4761011837
 40
0.4945861641
 40
0.5131560062
 40
0.5317896638
 40
0.5504658716
 40
0.5691632194
 40
0.5878602252
 40
0.6065354079
 40
0.6251673606
 40
0.6437348242
 40
0.6622167603
 40
0.6805924266
 40
0.6988414519
 40
0.7169439136
 40
0.7348804158
 40
0.7526321704
 40
0.7701810804
 40
0.7875098255
 40
0.8046019521
 40
0.8214419661
 40
0.838015431
 40
0.8543090705
 40
0.8703108766
 40
0.8860102238
 40
0.9013979903
 40
0.9164666853
 40
0.9312105868
 40
0.9456258753
 40
0.9597108115
 40
0.9734658098
 40
0.9868937982
 40
1.0
 40
1.0
 40
1.0
 40
1.0
 10
14.562181175
 20
12.3180506435
 30
0.0
 10
14.5630620646
 20
12.3209012001
 30
0.0
 10
14.5649278384
 20
12.3265734982
 30
0.0
 10
14.5680338031
 20
12.3349811051
 30
0.0
 10
14.5714463861
 20
12.3432860083
 30
0.0
 10
14.5751639914
 20
12.3514845166
 30
0.0
 10
14.5791850832
 20
12.3595731146
 30
0.0
 10
14.5835078692
 20
12.3675483379
 30
0.0
 10
14.588130507
 20
12.3754067495
 30
0.0
 10
14.5930509828
 20
12.3831449829
 30
0.0
 10
14.5982671601
 20
12.3907597277
 30
0.0
 10
14.6037768051
 20
12.398247706
 30
0.0
 10
14.6095774997
 20
12.4056057454
 30
0.0
 10
14.6156667857
 20
12.4128306599
 30
0.0
 10
14.622041985
 20
12.4199194196
 30
0.0
 10
14.628700391
 20
12.4268689297
 30
0.0
 10
14.6356391471
 20
12.4336763422
 30
0.0
 10
14.6453123042
 20
12.4426071652
 30
0.0
 10
14.6581068081
 20
12.4534000842
 30
0.0
 10
14.6716442993
 20
12.4635619543
 30
0.0
 10
14.6829830479
 20
12.4713770239
 30
0.0
 10
14.6948015873
 20
12.4790690901
 30
0.0
 10
14.7070626686
 20
12.4863844376
 30
0.0
 10
14.7197308931
 20
12.4933247365
 30
0.0
 10
14.7328773948
 20
12.5001211347
 30
0.0
 10
14.7499123591
 20
12.5081763733
 30
0.0
 10
14.7711431563
 20
12.5170770671
 30
0.0
 10
14.793249925
 20
12.5252555705
 30
0.0
 10
14.8161946696
 20
12.5326980155
 30
0.0
 10
14.8399383758
 20
12.5393919336
 30
0.0
 10
14.8644405621
 20
12.5453260464
 30
0.0
 10
14.8896594842
 20
12.5504903553
 30
0.0
 10
14.9155521623
 20
12.5548761447
 30
0.0
 10
14.9420744629
 20
12.5584760065
 30
0.0
 10
14.969181169
 20
12.5612838556
 30
0.0
 10
14.9968260577
 20
12.5632949438
 30
0.0
 10
15.0249619779
 20
12.5645058715
 30
0.0
 10
15.0535409312
 20
12.5649145955
 30
0.0
 10
15.0825141543
 20
12.5645204352
 30
0.0
 10
15.1118322023
 20
12.5633240763
 30
0.0
 10
15.1414450343
 20
12.5613275698
 30
0.0
 10
15.1713020994
 20
12.5585343306
 30
0.0
 10
15.2013524239
 20
12.5549491315
 30
0.0
 10
15.2315446992
 20
12.5505780968
 30
0.0
 10
15.2618273698
 20
12.5454286919
 30
0.0
 10
15.292148722
 20
12.5395097112
 30
0.0
 10
15.3224569735
 20
12.5328312634
 30
0.0
 10
15.3527003615
 20
12.5254047541
 30
0.0
 10
15.3828272327
 20
12.517242867
 30
0.0
 10
15.4127861314
 20
12.5083595421
 30
0.0
 10
15.4425258881
 20
12.4987699513
 30
0.0
 10
15.4719957078
 20
12.4884904737
 30
0.0
 10
15.5011452574
 20
12.4775386666
 30
0.0
 10
15.5299247515
 20
12.4659332352
 30
0.0
 10
15.5582850389
 20
12.4536940003
 30
0.0
 10
15.5861776859
 20
12.4408418637
 30
0.0
 10
15.6135550601
 20
12.4273987724
 30
0.0
 10
15.6403704121
 20
12.4133876801
 30
0.0
 10
15.6665779551
 20
12.3988325074
 30
0.0
 10
15.692132944
 20
12.3837581
 30
0.0
 10
15.7169917516
 20
12.3681901854
 30
0.0
 10
15.741111943
 20
12.3521553275
 30
0.0
 10
15.7644523486
 20
12.3356808803
 30
0.0
 10
15.7869731331
 20
12.3187949387
 30
0.0
 10
15.8086358646
 20
12.3015262902
 30
0.0
 10
15.8294035782
 20
12.2839043627
 30
0.0
 10
15.8492408376
 20
12.2659591724
 30
0.0
 10
15.8681137942
 20
12.2477212695
 30
0.0
 10
15.8859902402
 20
12.2292216846
 30
0.0
 10
15.9028396641
 20
12.2104918718
 30
0.0
 10
15.9186332865
 20
12.1915636584
 30
0.0
 10
15.9333441352
 20
12.1724691666
 30
0.0
 10
15.9469469927
 20
12.1532408469
 30
0.0
 10
15.959418683
 20
12.1339110971
 30
0.0
 10
15.9707373943
 20
12.1145133475
 30
0.0
 10
15.9775839769
 20
12.1014001406
 30
0.0
 10
15.9808014446
 20
12.0948436307
 30
0.0
  0
SPLINE
  5
31C
100
AcDbEntity
  8
LAYER_FEATURE
100
AcDbSpline
 62
7
  6
CONTINUOUS
 70
0
 71
3
 72
21
 73
17
 74
0
 42
0.0000001
 43
0.0000001
 44
0.0000000001
 40
0.0
 40
0.0
 40
0.0
 40
0.0
 40
0.0594167101
 40
0.1190368674
 40
0.1789124335
 40
0.2390937391
 40
0.2996290528
 40
0.3605644451
 40
0.4219434352
 40
0.4838068275
 40
0.5461924825
 40
0.6091353699
 40
0.6726674104
 40
0.7368165848
 40
0.8670428061
 40
1.0
 40
1.0
 40
1.0
 40
1.0
 10
14.801888783
 20
12.0716021842
 30
0.0
 10
14.8013635617
 20
12.0731079445
 30
0.0
 10
14.8003774783
 20
12.0761481592
 30
0.0
 10
14.7990962691
 20
12.0807775497
 30
0.0
 10
14.7980119788
 20
12.0854781211
 30
0.0
 10
14.7971257952
 20
12.0902449703
 30
0.0
 10
14.7964385523
 20
12.0950732547
 30
0.0
 10
14.7959509701
 20
12.0999580454
 30
0.0
 10
14.7956635084
 20
12.1048943623
 30
0.0
 10
14.7955764476
 20
12.1098771733
 30
0.0
 10
14.7956898633
 20
12.1149014089
 30
0.0
 10
14.7960036009
 20
12.1199619466
 30
0.0
 10
14.7965173735
 20
12.1250536936
 30
0.0
 10
14.7974729867
 20
12.1319110295
 30
0.0
 10
14.7991725722
 20
12.1405389785
 30
0.0
 10
14.8010303497
 20
12.1473608858
 30
0.0
 10
14.8020839529
 20
12.150770347
 30
0.0
  0
SPLINE
  5
31D
100
AcDbEntity
  8
02___PRT_ALL_AXES
100
AcDbSpline
 62
7
  6
CONTINUOUS
 70
0
 71
3
 72
56
 73
52
 74
0
 42
0.0000001
 43
0.0000001
 44
0.0000000001
 40
0.0
 40
0.0
 40
0.0
 40
0.0
 40
0.0108173531
 40
0.0217130463
 40
0.032713191
 40
0.0438426375
 40
0.0551247543
 40
0.0665811993
 40
0.0782316307
 40
0.0900937331
 40
0.1145066606
 40
0.1270871051
 40
0.1399272369
 40
0.1530333616
 40
0.166409565
 40
0.1800579052
 40
0.1939782678
 40
0.2081687946
 40
0.222625711
 40
0.2373437151
 40
0.252315987
 40
0.2675343702
 40
0.2829896107
 40
0.2986713898
 40
0.3145686372
 40
0.3306695371
 40
0.3469617974
 40
0.3634327252
 40
0.3800693863
 40
0.3968587048
 40
0.4137875915
 40
0.4480098622
 40
0.4826365254
 40
0.5175700424
 40
0.5527186895
 40
0.5879973295
 40
0.623327826
 40
0.6586391328
 40
0.6938672541
 40
0.7289550955
 40
0.7638524011
 40
0.7985156205
 40
0.8329079363
 40
0.8499949344
 40
0.8670035199
 40
0.88393096
 40
0.9007749827
 40
0.9175337389
 40
0.9342057458
 40
0.9672802823
 40
1.0
 40
1.0
 40
1.0
 40
1.0
 10
14.8011400724
 20
12.0713422539
 30
0.0
 10
14.8005059192
 20
12.0726345256
 30
0.0
 10
14.799303812
 20
12.0752638373
 30
0.0
 10
14.7977096022
 20
12.0793167572
 30
0.0
 10
14.7963200826
 20
12.0834882159
 30
0.0
 10
14.7951361675
 20
12.0877758796
 30
0.0
 10
14.794158545
 20
12.0921773893
 30
0.0
 10
14.7933877931
 20
12.0966900285
 30
0.0
 10
14.7928242676
 20
12.1013109691
 30
0.0
 10
14.7923450047
 20
12.1076722516
 30
0.0
 10
14.7922934775
 20
12.1141828378
 30
0.0
 10
14.7926445275
 20
12.1208061432
 30
0.0
 10
14.7931169588
 20
12.1259125471
 30
0.0
 10
14.7937951382
 20
12.1311022859
 30
0.0
 10
14.7946780542
 20
12.1363701927
 30
0.0
 10
14.7957645109
 20
12.1417104512
 30
0.0
 10
14.797053004
 20
12.1471169948
 30
0.0
 10
14.7985418617
 20
12.1525833665
 30
0.0
 10
14.8002291108
 20
12.1581028322
 30
0.0
 10
14.8021125844
 20
12.1636683461
 30
0.0
 10
14.8041898775
 20
12.1692726118
 30
0.0
 10
14.8064583579
 20
12.1749081114
 30
0.0
 10
14.8089152249
 20
12.1805671155
 30
0.0
 10
14.8115574529
 20
12.1862417626
 30
0.0
 10
14.8143818906
 20
12.1919240396
 30
0.0
 10
14.8173852066
 20
12.1976058666
 30
0.0
 10
14.8205639598
 20
12.2032790886
 30
0.0
 10
14.8239145985
 20
12.2089355322
 30
0.0
 10
14.8274334612
 20
12.2145670128
 30
0.0
 10
14.831116861
 20
12.220165404
 30
0.0
 10
14.8362606183
 20
12.2276013187
 30
0.0
 10
14.8430788841
 20
12.236761282
 30
0.0
 10
14.8518269601
 20
12.2474538896
 30
0.0
 10
14.861139759
 20
12.2578250737
 30
0.0
 10
14.8709854868
 20
12.2678141348
 30
0.0
 10
14.8813318927
 20
12.2773620863
 30
0.0
 10
14.8921457492
 20
12.2864114167
 30
0.0
 10
14.903392488
 20
12.2949061965
 30
0.0
 10
14.9150356952
 20
12.3027921776
 30
0.0
 10
14.9270365488
 20
12.3100170245
 30
0.0
 10
14.9393534586
 20
12.3165307408
 30
0.0
 10
14.9519410501
 20
12.3222860505
 30
0.0
 10
14.9626400163
 20
12.3264231011
 30
0.0
 10
14.9712858825
 20
12.3293098626
 30
0.0
 10
14.9777920957
 20
12.3312555976
 30
0.0
 10
14.9843263243
 20
12.3329824988
 30
0.0
 10
14.9908812765
 20
12.334486851
 30
0.0
 10
14.9974494379
 20
12.3357655393
 30
0.0
 10
15.0061900149
 20
12.3371619216
 30
0.0
 10
15.0171102621
 20
12.3383351169
 30
0.0
 10
15.025868502
 20
12.33865367
 30
0.0
 10
15.0302225743
 20
12.33865367
 30
0.0
  0
SPLINE
  5
31E
100
AcDbEntity
  8
02___PRT_ALL_AXES
100
AcDbSpline
 62
7
  6
CONTINUOUS
 70
0
 71
3
 72
46
 73
42
 74
0
 42
0.0000001
 43
0.0000001
 44
0.0000000001
 40
0.0
 40
0.0
 40
0.0
 40
0.0
 40
0.0396646548
 40
0.0788612812
 40
0.1175671869
 40
0.1557611374
 40
0.1934233524
 40
0.2305356754
 40
0.2670816665
 40
0.3030467324
 40
0.3384182514
 40
0.3731857078
 40
0.4073408315
 40
0.4408777431
 40
0.4737931051
 40
0.5060862781
 40
0.5377594797
 40
0.568817946
 40
0.5992700921
 40
0.629127669
 40
0.6584059113
 40
0.6728343769
 40
0.6871253918
 40
0.7153052552
 40
0.7429736236
 40
0.7701607638
 40
0.7969008081
 40
0.8232316968
 40
0.8491950545
 40
0.8620540751
 40
0.8748384061
 40
0.8875541861
 40
0.9002077255
 40
0.9128055045
 40
0.9253541482
 40
0.93786042
 40
0.9503311967
 40
0.9627734571
 40
0.9751942581
 40
0.9876007193
 40
1.0
 40
1.0
 40
1.0
 40
1.0
 10
14.8666462563
 20
11.8093205108
 30
0.0
 10
14.859841547
 20
11.8093205108
 30
0.0
 10
14.846311882
 20
11.8091679298
 30
0.0
 10
14.8261527495
 20
11.8084724516
 30
0.0
 10
14.8062675589
 20
11.8073124555
 30
0.0
 10
14.7866788886
 20
11.8056892443
 30
0.0
 10
14.7674088019
 20
11.8036046373
 30
0.0
 10
14.7484790496
 20
11.8010609744
 30
0.0
 10
14.7299109825
 20
11.7980611084
 30
0.0
 10
14.7117255446
 20
11.7946084032
 30
0.0
 10
14.6939432454
 20
11.7907067286
 30
0.0
 10
14.676584138
 20
11.7863604548
 30
0.0
 10
14.6596677973
 20
11.7815744472
 30
0.0
 10
14.6432132986
 20
11.7763540591
 30
0.0
 10
14.6272391972
 20
11.7707051251
 30
0.0
 10
14.6117635103
 20
11.7646339544
 30
0.0
 10
14.5968036935
 20
11.7581473192
 30
0.0
 10
14.582376643
 20
11.7512524598
 30
0.0
 10
14.568498608
 20
11.7439570283
 30
0.0
 10
14.5551854348
 20
11.7362692545
 30
0.0
 10
14.5445227571
 20
11.7295102021
 30
0.0
 10
14.5362952434
 20
11.7239136312
 30
0.0
 10
14.5283456701
 20
11.7182477243
 30
0.0
 10
14.5187813977
 20
11.7109387703
 30
0.0
 10
14.5078714381
 20
11.7017710782
 30
0.0
 10
14.4975950027
 20
11.6922578797
 30
0.0
 10
14.4879639619
 20
11.6824098384
 30
0.0
 10
14.4789895172
 20
11.6722381938
 30
0.0
 10
14.4720440622
 20
11.6634730981
 30
0.0
 10
14.4668328917
 20
11.65631465
 30
0.0
 10
14.4631068888
 20
11.6508892918
 30
0.0
 10
14.4595521303
 20
11.6453921921
 30
0.0
 10
14.4561696089
 20
11.6398248508
 30
0.0
 10
14.4529602787
 20
11.6341888686
 30
0.0
 10
14.4499250731
 20
11.6284858265
 30
0.0
 10
14.4470648359
 20
11.6227173544
 30
0.0
 10
14.4443804053
 20
11.6168850747
 30
0.0
 10
14.4418725236
 20
11.6109906587
 30
0.0
 10
14.4395419249
 20
11.6050357498
 30
0.0
 10
14.4373892684
 20
11.5990221182
 30
0.0
 10
14.436073038
 20
11.5949744519
 30
0.0
 10
14.4354449963
 20
11.5929421084
 30
0.0
  0
SPLINE
  5
31F
100
AcDbEntity
  8
LAYER_FEATURE
100
AcDbSpline
 62
7
  6
CONTINUOUS
 70
0
 71
3
 72
15
 73
11
 74
0
 42
0.0000001
 43
0.0000001
 44
0.0000000001
 40
0.0
 40
0.0
 40
0.0
 40
0.0
 40
0.1216333747
 40
0.2453960719
 40
0.370724231
 40
0.4970311166
 40
0.6237157383
 40
0.7501723892
 40
0.8757968634
 40
1.0
 40
1.0
 40
1.0
 40
1.0
 10
16.3672973213
 20
13.1522004408
 30
0.0
 10
16.3689742103
 20
13.1512155214
 30
0.0
 10
16.3724116375
 20
13.1493194883
 30
0.0
 10
16.3777440694
 20
13.1467258683
 30
0.0
 10
16.3832679312
 20
13.1443718444
 30
0.0
 10
16.3889438814
 20
13.1422742133
 30
0.0
 10
16.3947317276
 20
13.140447809
 30
0.0
 10
16.4005904661
 20
13.1389055949
 30
0.0
 10
16.4064783742
 20
13.1376585101
 30
0.0
 10
16.410424245
 20
13.137025139
 30
0.0
 10
16.4123924087
 20
13.1367608494
 30
0.0
  0
SPLINE
  5
320
100
AcDbEntity
  8
LAYER_FEATURE
100
AcDbSpline
 62
7
  6
CONTINUOUS
 70
0
 71
3
 72
11
 73
7
 74
0
 42
0.0000001
 43
0.0000001
 44
0.0000000001
 40
0.0
 40
0.0
 40
0.0
 40
0.0
 40
0.2461875476
 40
0.4939265308
 40
0.7447486403
 40
1.0
 40
1.0
 40
1.0
 40
1.0
 10
16.2767072061
 20
13.369800623
 30
0.0
 10
16.2767919243
 20
13.3700747728
 30
0.0
 10
16.2769351849
 20
13.370633457
 30
0.0
 10
16.2770686562
 20
13.3714924685
 30
0.0
 10
16.2771206464
 20
13.3723707774
 30
0.0
 10
16.2771011525
 20
13.3729612436
 30
0.0
 10
16.2770783357
 20
13.3732578728
 30
0.0
  0
SPLINE
  5
321
100
AcDbEntity
  8
LAYER_CHAMFER_FEAT
100
AcDbSpline
 62
7
  6
CONTINUOUS
 70
0
 71
3
 72
67
 73
63
 74
0
 42
0.0000001
 43
0.0000001
 44
0.0000000001
 40
0.0
 40
0.0
 40
0.0
 40
0.0
 40
0.0357308604
 40
0.0531877841
 40
0.0703689129
 40
0.0872735229
 40
0.1039017405
 40
0.1202546996
 40
0.136334485
 40
0.1676838011
 40
0.1829674097
 40
0.1979971585
 40
0.2273218479
 40
0.2416414681
 40
0.255745714
 40
0.2696473516
 40
0.2833604304
 40
0.2969001984
 40
0.3102831169
 40
0.3235267321
 40
0.3366496514
 40
0.3496713797
 40
0.3626122442
 40
0.3754932084
 40
0.388335743
 40
0.4011616331
 40
0.4139928063
 40
0.4268511478
 40
0.4397583086
 40
0.4527355417
 40
0.4658035176
 40
0.4789821889
 40
0.4922906401
 40
0.5057469795
 40
0.5193682433
 40
0.5331703087
 40
0.5471678615
 40
0.5613743212
 40
0.575801872
 40
0.5904613899
 40
0.6053625304
 40
0.6205136517
 40
0.635921945
 40
0.6675283681
 40
0.6837393931
 40
0.7002247376
 40
0.7169859959
 40
0.7340238345
 40
0.7513379454
 40
0.7689271688
 40
0.7867894739
 40
0.8049220517
 40
0.8233213269
 40
0.8419829977
 40
0.8609020844
 40
0.880072992
 40
0.8994895549
 40
0.9191448358
 40
0.9390313951
 40
0.9591419254
 40
0.979468482
 40
1.0
 40
1.0
 40
1.0
 40
1.0
 10
15.4147157284
 20
11.4707919693
 30
0.0
 10
15.419184079
 20
11.4659021051
 30
0.0
 10
15.4256567402
 20
11.4584559427
 30
0.0
 10
15.4338103093
 20
11.4482711133
 30
0.0
 10
15.4395741548
 20
11.4406483653
 30
0.0
 10
15.4450288324
 20
11.4329892974
 30
0.0
 10
15.4501697743
 20
11.4253001658
 30
0.0
 10
15.4549928319
 20
11.4175872439
 30
0.0
 10
15.4609432495
 20
11.4073677673
 30
0.0
 10
15.4663039257
 20
11.3970395536
 30
0.0
 10
15.4710279963
 20
11.3866276499
 30
0.0
 10
15.4752302032
 20
11.3763994433
 30
0.0
 10
15.4788029299
 20
11.3661119451
 30
0.0
 10
15.4817005221
 20
11.3558033627
 30
0.0
 10
15.4835121994
 20
11.3481664091
 30
0.0
 10
15.4849776273
 20
11.3405700472
 30
0.0
 10
15.4860956401
 20
11.3330204708
 30
0.0
 10
15.4868651433
 20
11.3255240269
 30
0.0
 10
15.4872855226
 20
11.3180870002
 30
0.0
 10
15.4873562583
 20
11.3107156341
 30
0.0
 10
15.4870773426
 20
11.3034161372
 30
0.0
 10
15.4864488401
 20
11.2961946706
 30
0.0
 10
15.485471354
 20
11.2890573296
 30
0.0
 10
15.4841455556
 20
11.2820101708
 30
0.0
 10
15.482472654
 20
11.275059146
 30
0.0
 10
15.4804539458
 20
11.2682101727
 30
0.0
 10
15.4780912341
 20
11.2614690298
 30
0.0
 10
15.4753864473
 20
11.2548414553
 30
0.0
 10
15.4723419649
 20
11.2483330278
 30
0.0
 10
15.4689603396
 20
11.2419492659
 30
0.0
 10
15.465244505
 20
11.2356955265
 30
0.0
 10
15.4611976188
 20
11.2295770748
 30
0.0
 10
15.4568231465
 20
11.223599032
 30
0.0
 10
15.4521248241
 20
11.2177663852
 30
0.0
 10
15.4471066291
 20
11.2120840106
 30
0.0
 10
15.4417728477
 20
11.2065566024
 30
0.0
 10
15.4361279544
 20
11.2011887851
 30
0.0
 10
15.4301767574
 20
11.1959849513
 30
0.0
 10
15.4239242196
 20
11.1909494671
 30
0.0
 10
15.4173756386
 20
11.1860864155
 30
0.0
 10
15.4105364848
 20
11.1813999083
 30
0.0
 10
15.4034124164
 20
11.1768936582
 30
0.0
 10
15.3934582461
 20
11.1710820408
 30
0.0
 10
15.3830335707
 20
11.1657011866
 30
0.0
 10
15.372190644
 20
11.1607446286
 30
0.0
 10
15.3637361301
 20
11.1571928804
 30
0.0
 10
15.3550360007
 20
11.1538415126
 30
0.0
 10
15.3460972876
 20
11.1506932623
 30
0.0
 10
15.336927508
 20
11.147750709
 30
0.0
 10
15.3275342767
 20
11.1450163205
 30
0.0
 10
15.3179254297
 20
11.1424923352
 30
0.0
 10
15.3081089673
 20
11.1401808586
 30
0.0
 10
15.2980930689
 20
11.1380838049
 30
0.0
 10
15.2878860836
 20
11.1362029029
 30
0.0
 10
15.2774965119
 20
11.1345397318
 30
0.0
 10
15.266933003
 20
11.1330956403
 30
0.0
 10
15.2562043669
 20
11.1318718768
 30
0.0
 10
15.2453195878
 20
11.1308693972
 30
0.0
 10
15.2342876859
 20
11.130089079
 30
0.0
 10
15.2231176981
 20
11.1295315296
 30
0.0
 10
15.21181925
 20
11.1291972959
 30
0.0
 10
15.2042445547
 20
11.129123803
 30
0.0
 10
15.2004383188
 20
11.129123803
 30
0.0
  0
SPLINE
  5
322
100
AcDbEntity
  8
LAYER_FEATURE
100
AcDbSpline
 62
7
  6
CONTINUOUS
 70
0
 71
3
 72
23
 73
19
 74
0
 42
0.0000001
 43
0.0000001
 44
0.0000000001
 40
0.0
 40
0.0
 40
0.0
 40
0.0
 40
0.0559189088
 40
0.1137807295
 40
0.1734163029
 40
0.2346280274
 40
0.2971946538
 40
0.3608756789
 40
0.4254154297
 40
0.4905469202
 40
0.5559955471
 40
0.6214826813
 40
0.6867292088
 40
0.7514590581
 40
0.8154027909
 40
0.878301212
 40
0.9399093058
 40
1.0
 40
1.0
 40
1.0
 40
1.0
 10
16.2558556841
 20
13.3023600466
 30
0.0
 10
16.2570255155
 20
13.301221726
 30
0.0
 10
16.2594828785
 20
13.2989836065
 30
0.0
 10
16.2634260104
 20
13.2958051351
 30
0.0
 10
16.2676680031
 20
13.2927645625
 30
0.0
 10
16.2721819135
 20
13.2898811978
 30
0.0
 10
16.2769393322
 20
13.2871731369
 30
0.0
 10
16.2819102188
 20
13.2846574718
 30
0.0
 10
16.2870631879
 20
13.2823500776
 30
0.0
 10
16.2923656844
 20
13.2802655307
 30
0.0
 10
16.2977841995
 20
13.278417004
 30
0.0
 10
16.3032844854
 20
13.2768161814
 30
0.0
 10
16.3088317757
 20
13.275473181
 30
0.0
 10
16.3143910168
 20
13.2743964902
 30
0.0
 10
16.3199270677
 20
13.2735929129
 30
0.0
 10
16.3254050315
 20
13.2730675284
 30
0.0
 10
16.3307901084
 20
13.2728236579
 30
0.0
 10
16.3343444445
 20
13.2728501683
 30
0.0
 10
16.3360973639
 20
13.2729127333
 30
0.0
  0
SPLINE
  5
323
100
AcDbEntity
  8
LAYER_FEATURE
100
AcDbSpline
 62
7
  6
CONTINUOUS
 70
0
 71
3
 72
14
 73
10
 74
0
 42
0.0000001
 43
0.0000001
 44
0.0000000001
 40
0.0
 40
0.0
 40
0.0
 40
0.0
 40
0.11676956
 40
0.2343970718
 40
0.3537344794
 40
0.4755621168
 40
0.6005734251
 40
0.7293685646
 40
1.0
 40
1.0
 40
1.0
 40
1.0
 10
16.1171902051
 20
13.4901925656
 30
0.0
 10
16.1172824044
 20
13.4904909191
 30
0.0
 10
16.117435824
 20
13.4911001243
 30
0.0
 10
16.1175693333
 20
13.4920382883
 30
0.0
 10
16.1176062577
 20
13.4929987582
 30
0.0
 10
16.1175465773
 20
13.493977715
 30
0.0
 10
16.1173906369
 20
13.4949716001
 30
0.0
 10
16.1170499832
 20
13.4963335238
 30
0.0
 10
16.1166584758
 20
13.4973337175
 30
0.0
 10
16.1163478853
 20
13.4979874299
 30
0.0
  0
SPLINE
  5
324
100
AcDbEntity
  8
LAYER_FEATURE
100
AcDbSpline
 62
7
  6
CONTINUOUS
 70
0
 71
3
 72
39
 73
35
 74
0
 42
0.0000001
 43
0.0000001
 44
0.0000000001
 40
0.0
 40
0.0
 40
0.0
 40
0.0
 40
0.0242906569
 40
0.0494334292
 40
0.0754426715
 40
0.102319857
 40
0.1300548822
 40
0.1586272175
 40
0.1880069069
 40
0.2181556096
 40
0.2490276081
 40
0.2805706413
 40
0.3127266275
 40
0.3454324745
 40
0.3786208047
 40
0.4122205736
 40
0.4461576658
 40
0.4803555598
 40
0.514735903
 40
0.5492190499
 40
0.5837246403
 40
0.6181721778
 40
0.6524815558
 40
0.6865736138
 40
0.720370743
 40
0.7537974324
 40
0.7867808375
 40
0.8192514455
 40
0.8511436653
 40
0.8823966559
 40
0.9129547742
 40
0.9427678588
 40
0.971795885
 40
1.0
 40
1.0
 40
1.0
 40
1.0
 10
16.1032967253
 20
13.4454029044
 30
0.0
 10
16.1037338035
 20
13.4445084748
 30
0.0
 10
16.1046887748
 20
13.4427196061
 30
0.0
 10
16.1063218776
 20
13.4400919082
 30
0.0
 10
16.1081743488
 20
13.4374828703
 30
0.0
 10
16.1102396246
 20
13.4349015773
 30
0.0
 10
16.1125105601
 20
13.432356802
 30
0.0
 10
16.1149792932
 20
13.4298572885
 30
0.0
 10
16.1176372835
 20
13.4274116156
 30
0.0
 10
16.1204753311
 20
13.4250281908
 30
0.0
 10
16.1234836259
 20
13.4227152269
 30
0.0
 10
16.1266517732
 20
13.420480714
 30
0.0
 10
16.1299688096
 20
13.4183323637
 30
0.0
 10
16.1334232535
 20
13.4162775961
 30
0.0
 10
16.1370031521
 20
13.4143235209
 30
0.0
 10
16.140696118
 20
13.4124769109
 30
0.0
 10
16.1444893581
 20
13.4107441495
 30
0.0
 10
16.1483697339
 20
13.4091312335
 30
0.0
 10
16.1523238074
 20
13.4076437546
 30
0.0
 10
16.156337884
 20
13.4062868739
 30
0.0
 10
16.1603980534
 20
13.4050652805
 30
0.0
 10
16.16449025
 20
13.4039832044
 30
0.0
 10
16.1686002995
 20
13.4030444024
 30
0.0
 10
16.1727139651
 20
13.4022521303
 30
0.0
 10
16.1768169971
 20
13.401609121
 30
0.0
 10
16.1808951877
 20
13.4011176011
 30
0.0
 10
16.1849344187
 20
13.400779285
 30
0.0
 10
16.1889207083
 20
13.4005953461
 30
0.0
 10
16.192840267
 20
13.4005664114
 30
0.0
 10
16.1966795455
 20
13.4006925944
 30
0.0
 10
16.2004252366
 20
13.4009734869
 30
0.0
 10
16.2040645157
 20
13.4014081086
 30
0.0
 10
16.2075845901
 20
13.4019950097
 30
0.0
 10
16.2098777165
 20
13.4024938081
 30
0.0
 10
16.2110003262
 20
13.4027692087
 30
0.0
  0
SPLINE
  5
325
100
AcDbEntity
  8
LAYER_FEATURE
100
AcDbSpline
 62
7
  6
CONTINUOUS
 70
0
 71
3
 72
11
 73
7
 74
0
 42
0.0000001
 43
0.0000001
 44
0.0000000001
 40
0.0
 40
0.0
 40
0.0
 40
0.0
 40
0.2465479299
 40
0.4944940924
 40
0.7452270119
 40
1.0
 40
1.0
 40
1.0
 40
1.0
 10
15.9248233235
 20
13.5827466948
 30
0.0
 10
15.925055847
 20
13.5834991408
 30
0.0
 10
15.9254525664
 20
13.5850308211
 30
0.0
 10
15.9258355836
 20
13.5873835329
 30
0.0
 10
15.9260063522
 20
13.589787354
 30
0.0
 10
15.9259787187
 20
13.591404224
 30
0.0
 10
15.9259306813
 20
13.592216633
 30
0.0
  0
SPLINE
  5
326
100
AcDbEntity
  8
LAYER_FEATURE
100
AcDbSpline
 62
7
  6
CONTINUOUS
 70
0
 71
3
 72
47
 73
43
 74
0
 42
0.0000001
 43
0.0000001
 44
0.0000000001
 40
0.0
 40
0.0
 40
0.0
 40
0.0
 40
0.0107400267
 40
0.0216031943
 40
0.0326187478
 40
0.0438139229
 40
0.0552134863
 40
0.0668396909
 40
0.0908390455
 40
0.1159463213
 40
0.1422445533
 40
0.1697782572
 40
0.19855737
 40
0.2285614105
 40
0.2597434789
 40
0.2920339346
 40
0.3253437133
 40
0.3595673077
 40
0.3945854603
 40
0.4302676233
 40
0.4664742369
 40
0.5030588715
 40
0.5398702723
 40
0.5767543376
 40
0.6135560613
 40
0.6501214627
 40
0.6862995298
 40
0.7219442016
 40
0.7569164176
 40
0.7910862672
 40
0.8243352777
 40
0.8405828893
 40
0.8565624353
 40
0.8722634078
 40
0.8876766431
 40
0.902794177
 40
0.9176096839
 40
0.9321181757
 40
0.9463162711
 40
0.9602024017
 40
0.9737779041
 40
1.0
 40
1.0
 40
1.0
 40
1.0
 10
15.9213976433
 20
13.571843655
 30
0.0
 10
15.9213371837
 20
13.5712942632
 30
0.0
 10
15.921252993
 20
13.5701847166
 30
0.0
 10
15.9212369585
 20
13.5685050184
 30
0.0
 10
15.9213304512
 20
13.5668043569
 30
0.0
 10
15.9215333308
 20
13.5650855414
 30
0.0
 10
15.9218451878
 20
13.5633511963
 30
0.0
 10
15.9224115054
 20
13.5609971826
 30
0.0
 10
15.9233988987
 20
13.5580248034
 30
0.0
 10
15.9249942624
 20
13.5544808915
 30
0.0
 10
15.9270018702
 20
13.5509430052
 30
0.0
 10
15.9294086429
 20
13.5474328745
 30
0.0
 10
15.9321993756
 20
13.5439716439
 30
0.0
 10
15.9353566129
 20
13.5405804081
 30
0.0
 10
15.9388607178
 20
13.5372799051
 30
0.0
 10
15.9426899331
 20
13.5340904233
 30
0.0
 10
15.9468204897
 20
13.5310316406
 30
0.0
 10
15.9512267361
 20
13.528122485
 30
0.0
 10
15.9558812902
 20
13.525380999
 30
0.0
 10
15.9607552068
 20
13.5228242129
 30
0.0
 10
15.9658181583
 20
13.5204680283
 30
0.0
 10
15.9710386258
 20
13.5183271107
 30
0.0
 10
15.9763840985
 20
13.5164147925
 30
0.0
 10
15.9818212803
 20
13.5147429852
 30
0.0
 10
15.9873163018
 20
13.5133221031
 30
0.0
 10
15.9928349348
 20
13.5121609963
 30
0.0
 10
15.9983428155
 20
13.511266896
 30
0.0
 10
16.0038056474
 20
13.5106453709
 30
0.0
 10
16.0091894808
 20
13.5103002936
 30
0.0
 10
16.0144607154
 20
13.510233831
 30
0.0
 10
16.0187651625
 20
13.5104123249
 30
0.0
 10
16.0221230293
 20
13.5106977542
 30
0.0
 10
16.0245737791
 20
13.5109794679
 30
0.0
 10
16.0269722443
 20
13.5113300534
 30
0.0
 10
16.0293147078
 20
13.5117489163
 30
0.0
 10
16.0315975065
 20
13.5122354667
 30
0.0
 10
16.0338170907
 20
13.5127888954
 30
0.0
 10
16.0359699875
 20
13.5134084132
 30
0.0
 10
16.0380528141
 20
13.5140929739
 30
0.0
 10
16.0400624471
 20
13.5148416434
 30
0.0
 10
16.0426102057
 20
13.5159111718
 30
0.0
 10
16.0444478882
 20
13.5168234933
 30
0.0
 10
16.0456264519
 20
13.5174807716
 30
0.0
  0
SPLINE
  5
327
100
AcDbEntity
  8
02___PRT_ALL_AXES
100
AcDbSpline
 62
7
  6
CONTINUOUS
 70
0
 71
3
 72
44
 73
40
 74
0
 42
0.0000001
 43
0.0000001
 44
0.0000000001
 40
0.0
 40
0.0
 40
0.0
 40
0.0
 40
0.0123993415
 40
0.0248058638
 40
0.0372267258
 40
0.0496690472
 40
0.0621398856
 40
0.0746462178
 40
0.0871949247
 40
0.0997927638
 40
0.125159713
 40
0.1508007748
 40
0.1767642599
 40
0.2030952769
 40
0.2298354514
 40
0.257022726
 40
0.284691232
 40
0.3128712348
 40
0.3271623172
 40
0.3415908559
 40
0.3708692402
 40
0.4007269628
 40
0.4311792602
 40
0.4622378811
 40
0.4939112387
 40
0.526204569
 40
0.5591200909
 40
0.5926571671
 40
0.6268124606
 40
0.6615800894
 40
0.6969517822
 40
0.7329170225
 40
0.7694631923
 40
0.8065756994
 40
0.8442380901
 40
0.8824322761
 40
0.9211382308
 40
0.960335336
 40
1.0
 40
1.0
 40
1.0
 40
1.0
 10
14.6510353174
 20
12.2905926368
 30
0.0
 10
14.6516633578
 20
12.2926249806
 30
0.0
 10
14.6529795867
 20
12.2966726475
 30
0.0
 10
14.6551322475
 20
12.3026862774
 30
0.0
 10
14.6574628437
 20
12.3086411874
 30
0.0
 10
14.6599707236
 20
12.3145356036
 30
0.0
 10
14.6626551628
 20
12.320367882
 30
0.0
 10
14.6655153816
 20
12.326136352
 30
0.0
 10
14.6685506256
 20
12.3318394176
 30
0.0
 10
14.6728392134
 20
12.3393708052
 30
0.0
 10
14.6786409506
 20
12.3486199537
 30
0.0
 10
14.6862720624
 20
12.3594044438
 30
0.0
 10
14.6945797693
 20
12.3698886189
 30
0.0
 10
14.7035543005
 20
12.3800603952
 30
0.0
 10
14.7131853149
 20
12.3899084024
 30
0.0
 10
14.7234617582
 20
12.3994216098
 30
0.0
 10
14.7343717175
 20
12.4085892984
 30
0.0
 10
14.7439359932
 20
12.4158982489
 30
0.0
 10
14.7518855617
 20
12.4215641625
 30
0.0
 10
14.7601130793
 20
12.4271607271
 30
0.0
 10
14.7707757535
 20
12.4339197844
 30
0.0
 10
14.7840889265
 20
12.4416075585
 30
0.0
 10
14.7979669627
 20
12.4489029886
 30
0.0
 10
14.8123940148
 20
12.4557978462
 30
0.0
 10
14.8273538319
 20
12.4622844809
 30
0.0
 10
14.8428295178
 20
12.4683556525
 30
0.0
 10
14.8588036179
 20
12.4740045884
 30
0.0
 10
14.8752581165
 20
12.4792249769
 30
0.0
 10
14.8921744584
 20
12.4840109825
 30
0.0
 10
14.9095335667
 20
12.4883572548
 30
0.0
 10
14.9273158658
 20
12.4922589293
 30
0.0
 10
14.9455013028
 20
12.495711636
 30
0.0
 10
14.9640693694
 20
12.498711504
 30
0.0
 10
14.9829991204
 20
12.5012551653
 30
0.0
 10
15.002269214
 20
12.5033397734
 30
0.0
 10
15.0218578672
 20
12.5049629761
 30
0.0
 10
15.0417430901
 20
12.5061229851
 30
0.0
 10
15.0619022161
 20
12.5068184528
 30
0.0
 10
15.0754318981
 20
12.5069710397
 30
0.0
 10
15.0822365756
 20
12.5069710397
 30
0.0
  0
SPLINE
  5
328
100
AcDbEntity
  8
02___PRT_ALL_AXES
100
AcDbSpline
 62
7
  6
CONTINUOUS
 70
0
 71
3
 72
74
 73
70
 74
0
 42
0.0000001
 43
0.0000001
 44
0.0000000001
 40
0.0
 40
0.0
 40
0.0
 40
0.0
 40
0.0171786976
 40
0.0345304009
 40
0.0520442821
 40
0.0697099607
 40
0.0875162551
 40
0.1054518118
 40
0.1235049603
 40
0.141663769
 40
0.1599160825
 40
0.1782495425
 40
0.196651618
 40
0.2151096329
 40
0.2336107946
 40
0.2521422207
 40
0.270690966
 40
0.2892440489
 40
0.3077884791
 40
0.3263112847
 40
0.344799538
 40
0.363240383
 40
0.3816210627
 40
0.3999289471
 40
0.4181515596
 40
0.4362766053
 40
0.4542919987
 40
0.472185895
 40
0.4899467181
 40
0.5075631898
 40
0.5250243606
 40
0.5423196421
 40
0.5594388415
 40
0.5763721931
 40
0.5931103923
 40
0.6096446319
 40
0.6259666416
 40
0.6420687277
 40
0.6579438116
 40
0.673585472
 40
0.6889879892
 40
0.7041463955
 40
0.7190565221
 40
0.733715048
 40
0.7481195529
 40
0.762268572
 40
0.7761616565
 40
0.7897994285
 40
0.8031836384
 40
0.8163172232
 40
0.8292043658
 40
0.8418505524
 40
0.8542626209
 40
0.8603837229
 40
0.8664495035
 40
0.878419468
 40
0.8901843372
 40
0.9017567047
 40
0.9131506229
 40
0.9243815731
 40
0.935466412
 40
0.9464232913
 40
0.9572715479
 40
0.9680315615
 40
0.9787245879
 40
0.9840533377
 40
0.9893736123
 40
0.9946882237
 40
1.0
 40
1.0
 40
1.0
 40
1.0
 10
15.0822365756
 20
12.5069710397
 30
0.0
 10
15.0888410257
 20
12.5069710397
 30
0.0
 10
15.1021168629
 20
12.5068257152
 30
0.0
 10
15.1221165786
 20
12.5061800113
 30
0.0
 10
15.1422854244
 20
12.505106084
 30
0.0
 10
15.1626021778
 20
12.503605101
 30
0.0
 10
15.1830458195
 20
12.5016785918
 30
0.0
 10
15.2035950282
 20
12.499328573
 30
0.0
 10
15.2242284282
 20
12.4965574924
 30
0.0
 10
15.2449245423
 20
12.4933682356
 30
0.0
 10
15.2656618283
 20
12.4897641227
 30
0.0
 10
15.2864187011
 20
12.4857489015
 30
0.0
 10
15.3071735537
 20
12.4813267511
 30
0.0
 10
15.327904782
 20
12.4765022787
 30
0.0
 10
15.3485908057
 20
12.4712805069
 30
0.0
 10
15.369210091
 20
12.4656668708
 30
0.0
 10
15.3897411725
 20
12.4596672102
 30
0.0
 10
15.4101626774
 20
12.4532877718
 30
0.0
 10
15.430453348
 20
12.4465351998
 30
0.0
 10
15.4505920621
 20
12.4394165239
 30
0.0
 10
15.4705578552
 20
12.4319391532
 30
0.0
 10
15.4903299417
 20
12.4241108677
 30
0.0
 10
15.5098877405
 20
12.4159398192
 30
0.0
 10
15.5292108943
 20
12.4074345154
 30
0.0
 10
15.5482792895
 20
12.3986038093
 30
0.0
 10
15.5670730768
 20
12.3894568909
 30
0.0
 10
15.5855726925
 20
12.3800032774
 30
0.0
 10
15.6037588837
 20
12.3702528113
 30
0.0
 10
15.6216127237
 20
12.3602156411
 30
0.0
 10
15.639115631
 20
12.3499022115
 30
0.0
 10
15.6562493883
 20
12.3393232515
 30
0.0
 10
15.6729961639
 20
12.328489766
 30
0.0
 10
15.6893385337
 20
12.3174130288
 30
0.0
 10
15.7052594936
 20
12.3061045619
 30
0.0
 10
15.7207424775
 20
12.2945761262
 30
0.0
 10
15.7357713729
 20
12.2828397065
 30
0.0
 10
15.7503305429
 20
12.2709075046
 30
0.0
 10
15.7644048436
 20
12.2587919262
 30
0.0
 10
15.7779796334
 20
12.2465055618
 30
0.0
 10
15.7910407881
 20
12.2340611757
 30
0.0
 10
15.8035747143
 20
12.2214716902
 30
0.0
 10
15.8155683717
 20
12.2087501789
 30
0.0
 10
15.8270092819
 20
12.1959098485
 30
0.0
 10
15.8378855363
 20
12.1829640226
 30
0.0
 10
15.8481858078
 20
12.1699261289
 30
0.0
 10
15.857899361
 20
12.1568096837
 30
0.0
 10
15.8670160729
 20
12.1436282849
 30
0.0
 10
15.8755264329
 20
12.1303955925
 30
0.0
 10
15.8834215509
 20
12.1171253106
 30
0.0
 10
15.8906931564
 20
12.1038311943
 30
0.0
 10
15.8973336347
 20
12.0905269641
 30
0.0
 10
15.9033359449
 20
12.0772265631
 30
0.0
 10
15.9078214432
 20
12.0661063151
 30
0.0
 10
15.9110797545
 20
12.057227449
 30
0.0
 10
15.9140920443
 20
12.048441661
 30
0.0
 10
15.9174542193
 20
12.0374848281
 30
0.0
 10
15.9208472298
 20
12.0243368343
 30
0.0
 10
15.9235770542
 20
12.0112611076
 30
0.0
 10
15.925640631
 20
11.9982714156
 30
0.0
 10
15.9270356427
 20
11.9853812911
 30
0.0
 10
15.9277604436
 20
11.9726042396
 30
0.0
 10
15.9278141099
 20
11.9599536992
 30
0.0
 10
15.9271964166
 20
11.9474429297
 30
0.0
 10
15.9259079383
 20
11.9350854017
 30
0.0
 10
15.9242741774
 20
11.9249135386
 30
0.0
 10
15.922633846
 20
11.9168732008
 30
0.0
 10
15.9212386477
 20
11.9108956986
 30
0.0
 10
15.919677525
 20
11.9049662154
 30
0.0
 10
15.9185262852
 20
11.9010457313
 30
0.0
 10
15.9179233489
 20
11.8990946247
 30
0.0
  0
SPLINE
  5
329
100
AcDbEntity
  8
LAYER_CUT_FEAT
100
AcDbSpline
 62
7
  6
CONTINUOUS
 70
0
 71
3
 72
23
 73
19
 74
0
 42
0.0000001
 43
0.0000001
 44
0.0000000001
 40
0.0
 40
0.0
 40
0.0
 40
0.0
 40
0.0696910344
 40
0.138141676
 40
0.205386594
 40
0.271473319
 40
0.3364539513
 40
0.4003877722
 40
0.4633414323
 40
0.5253884235
 40
0.5866090836
 40
0.6470902522
 40
0.7069248621
 40
0.7662114206
 40
0.8250532911
 40
0.8835579089
 40
0.9418358884
 40
1.0
 40
1.0
 40
1.0
 40
1.0
 10
15.9808014446
 20
12.0948436307
 30
0.0
 10
15.9831577507
 20
12.0900419837
 30
0.0
 10
15.9876547307
 20
12.0804376163
 30
0.0
 10
15.9937890338
 20
12.0659130563
 30
0.0
 10
15.999244904
 20
12.0514150148
 30
0.0
 10
16.0040168878
 20
12.0369577281
 30
0.0
 10
16.0081003652
 20
12.0225547963
 30
0.0
 10
16.011491278
 20
12.0082200136
 30
0.0
 10
16.0141862182
 20
11.9939670851
 30
0.0
 10
16.0161824444
 20
11.9798096581
 30
0.0
 10
16.0174779036
 20
11.9657613286
 30
0.0
 10
16.0180711709
 20
11.9518356127
 30
0.0
 10
16.0179615088
 20
11.9380459506
 30
0.0
 10
16.0171489097
 20
11.9244056721
 30
0.0
 10
16.015634035
 20
11.9109280392
 30
0.0
 10
16.0134181855
 20
11.8976260212
 30
0.0
 10
16.0105036213
 20
11.8845130525
 30
0.0
 10
16.00809547
 20
11.8759015935
 30
0.0
 10
16.0067774913
 20
11.8716366179
 30
0.0
  0
SPLINE
  5
32A
100
AcDbEntity
  8
02___PRT_ALL_AXES
100
AcDbSpline
 62
7
  6
CONTINUOUS
 70
0
 71
3
 72
23
 73
19
 74
0
 42
0.0000001
 43
0.0000001
 44
0.0000000001
 40
0.0
 40
0.0
 40
0.0
 40
0.0
 40
0.0664933724
 40
0.1323444386
 40
0.1975703722
 40
0.2621925244
 40
0.3262359635
 40
0.3897276926
 40
0.4526955062
 40
0.515166958
 40
0.5771686194
 40
0.6387255957
 40
0.6998615041
 40
0.7605986091
 40
0.8209584828
 40
0.8809628501
 40
0.9406347529
 40
1.0
 40
1.0
 40
1.0
 40
1.0
 10
15.0302225743
 20
12.33865367
 30
0.0
 10
15.0340984416
 20
12.33865367
 30
0.0
 10
15.0418152364
 20
12.3384038267
 30
0.0
 10
15.0532836957
 20
12.3372692153
 30
0.0
 10
15.0645430935
 20
12.3353846711
 30
0.0
 10
15.0755457992
 20
12.3327634597
 30
0.0
 10
15.0862463631
 20
12.3294237253
 30
0.0
 10
15.0966008935
 20
12.3253879698
 30
0.0
 10
15.1065675538
 20
12.32068254
 30
0.0
 10
15.1161066165
 20
12.3153370546
 30
0.0
 10
15.1251804927
 20
12.3093838678
 30
0.0
 10
15.1337536516
 20
12.3028575716
 30
0.0
 10
15.1417924741
 20
12.2957945876
 30
0.0
 10
15.14926509
 20
12.2882328116
 30
0.0
 10
15.1561411584
 20
12.2802114565
 30
0.0
 10
15.1623918606
 20
12.2717706069
 30
0.0
 10
15.1679892712
 20
12.2629522189
 30
0.0
 10
15.1712765371
 20
12.256833422
 30
0.0
 10
15.1728009765
 20
12.2537269352
 30
0.0
  0
SPLINE
  5
32B
100
AcDbEntity
  8
LAYER_FEATURE
100
AcDbSpline
 62
7
  6
CONTINUOUS
 70
0
 71
3
 72
68
 73
64
 74
0
 42
0.0000001
 43
0.0000001
 44
0.0000000001
 40
0.0
 40
0.0
 40
0.0
 40
0.0
 40
0.0146665566
 40
0.0291000344
 40
0.0433082624
 40
0.0573041924
 40
0.0642277201
 40
0.0711038221
 40
0.0847212544
 40
0.0981778327
 40
0.1114955488
 40
0.1246984709
 40
0.1378124187
 40
0.1508645989
 40
0.1638832024
 40
0.1768969634
 40
0.1899346951
 40
0.2030248236
 40
0.216194936
 40
0.2294713542
 40
0.2428787658
 40
0.2564399073
 40
0.2701752979
 40
0.2841030327
 40
0.2982386617
 40
0.3125951102
 40
0.327182634
 40
0.3420088285
 40
0.357078695
 40
0.372394713
 40
0.3879569176
 40
0.4037630241
 40
0.4198085669
 40
0.4360870246
 40
0.4525899406
 40
0.4693070841
 40
0.4862265962
 40
0.5033351206
 40
0.520617937
 40
0.5380591188
 40
0.5556416688
 40
0.5733476442
 40
0.5911582947
 40
0.6270096652
 40
0.6450158162
 40
0.6630462568
 40
0.6990911456
 40
0.7170697253
 40
0.7349897986
 40
0.7705685951
 40
0.7881946044
 40
0.8056851741
 40
0.8230229687
 40
0.8401916802
 40
0.857176179
 40
0.8739626378
 40
0.8905386682
 40
0.9068934797
 40
0.9388969885
 40
0.9545414356
 40
0.969939976
 40
0.9850927969
 40
1.0
 40
1.0
 40
1.0
 40
1.0
 10
14.8275871448
 20
12.1765049997
 30
0.0
 10
14.8269366237
 20
12.1743999129
 30
0.0
 10
14.8257548108
 20
12.170188537
 30
0.0
 10
14.8243395322
 20
12.1638350064
 30
0.0
 10
14.8232995881
 20
12.1575112112
 30
0.0
 10
14.8227459188
 20
12.1522598852
 30
0.0
 10
14.8224949738
 20
12.1480912364
 30
0.0
 10
14.8223719098
 20
12.1439737668
 30
0.0
 10
14.8224534564
 20
12.1388706547
 30
0.0
 10
14.8229320137
 20
12.1328176136
 30
0.0
 10
14.823789926
 20
12.126869266
 30
0.0
 10
14.8250252255
 20
12.1210402133
 30
0.0
 10
14.8266349812
 20
12.1153446124
 30
0.0
 10
14.8286153471
 20
12.1097963638
 30
0.0
 10
14.8309615633
 20
12.1044090174
 30
0.0
 10
14.8336679137
 20
12.099195722
 30
0.0
 10
14.8367277736
 20
12.094169184
 30
0.0
 10
14.8401336534
 20
12.0893416421
 30
0.0
 10
14.843877218
 20
12.0847248348
 30
0.0
 10
14.8479492699
 20
12.0803299285
 30
0.0
 10
14.8523398303
 20
12.0761675219
 30
0.0
 10
14.8570381751
 20
12.0722476315
 30
0.0
 10
14.8620328529
 20
12.0685796649
 30
0.0
 10
14.8673116952
 20
12.0651723676
 30
0.0
 10
14.8728618876
 20
12.0620338554
 30
0.0
 10
14.878669996
 20
12.0591716037
 30
0.0
 10
14.8847219793
 20
12.0565924084
 30
0.0
 10
14.8910032212
 20
12.0543023625
 30
0.0
 10
14.8974985829
 20
12.0523068854
 30
0.0
 10
14.9041924295
 20
12.0506107125
 30
0.0
 10
14.9110686506
 20
12.0492178412
 30
0.0
 10
14.9181107061
 20
12.0481315415
 30
0.0
 10
14.9253016692
 20
12.0473543721
 30
0.0
 10
14.9326242587
 20
12.0468881714
 30
0.0
 10
14.940060875
 20
12.046734003
 30
0.0
 10
14.9475936477
 20
12.0468921948
 30
0.0
 10
14.9552044767
 20
12.0473623453
 30
0.0
 10
14.9628750716
 20
12.0481433146
 30
0.0
 10
14.970586996
 20
12.0492331855
 30
0.0
 10
14.9783217275
 20
12.0506293219
 30
0.0
 10
14.9860606288
 20
12.0523283527
 30
0.0
 10
14.9937852639
 20
12.0543262391
 30
0.0
 10
15.0040619367
 20
12.0573883548
 30
0.0
 10
15.0142085935
 20
12.0610214679
 30
0.0
 10
15.0241693621
 20
12.0651989152
 30
0.0
 10
15.0340022383
 20
12.069738991
 30
0.0
 10
15.0435847365
 20
12.0747963491
 30
0.0
 10
15.0528622842
 20
12.080344078
 30
0.0
 10
15.061876925
 20
12.086181528
 30
0.0
 10
15.0705292116
 20
12.0924700121
 30
0.0
 10
15.0787631437
 20
12.0991807256
 30
0.0
 10
15.0846828548
 20
12.1043848805
 30
0.0
 10
15.0903508996
 20
12.1097625993
 30
0.0
 10
15.0957537692
 20
12.1153010768
 30
0.0
 10
15.100878453
 20
12.1209869931
 30
0.0
 10
15.1057125817
 20
12.1268066318
 30
0.0
 10
15.1102446756
 20
12.1327463039
 30
0.0
 10
15.1158286885
 20
12.1407473288
 30
0.0
 10
15.1208160611
 20
12.1489858219
 30
0.0
 10
15.1251438238
 20
12.1574136386
 30
0.0
 10
15.1280166338
 20
12.16373414
 30
0.0
 10
15.1305332039
 20
12.1700855064
 30
0.0
 10
15.1319813513
 20
12.1743653729
 30
0.0
 10
15.132642546
 20
12.1765049997
 30
0.0
  0
SPLINE
  5
32C
100
AcDbEntity
  8
LAYER_FEATURE
100
AcDbSpline
 62
7
  6
CONTINUOUS
 70
0
 71
3
 72
15
 73
11
 74
0
 42
0.0000001
 43
0.0000001
 44
0.0000000001
 40
0.0
 40
0.0
 40
0.0
 40
0.0
 40
0.1392834324
 40
0.2741770872
 40
0.4047990273
 40
0.5312942294
 40
0.6538378697
 40
0.7726369357
 40
0.8879321639
 40
1.0
 40
1.0
 40
1.0
 40
1.0
 10
15.7889703065
 20
11.5767887776
 30
0.0
 10
15.7882619452
 20
11.5759401279
 30
0.0
 10
15.7868362113
 20
11.5742953757
 30
0.0
 10
15.7846348809
 20
11.5719541286
 30
0.0
 10
15.7824072871
 20
11.5697806591
 30
0.0
 10
15.7801553288
 20
11.5677769378
 30
0.0
 10
15.7778809114
 20
11.56594473
 30
0.0
 10
15.7755859178
 20
11.5642856614
 30
0.0
 10
15.7732723965
 20
11.5628013307
 30
0.0
 10
15.771697803
 20
11.5619172747
 30
0.0
 10
15.7709089128
 20
11.5615064878
 30
0.0
  0
SPLINE
  5
32D
100
AcDbEntity
  8
LAYER_CHAMFER_FEAT
100
AcDbSpline
 62
7
  6
CONTINUOUS
 70
0
 71
3
 72
60
 73
56
 74
0
 42
0.0000001
 43
0.0000001
 44
0.0000000001
 40
0.0
 40
0.0
 40
0.0
 40
0.0
 40
0.0106255565
 40
0.0212737564
 40
0.0319670084
 40
0.0427272457
 40
0.0535757322
 40
0.0645328407
 40
0.0756179123
 40
0.0868490989
 40
0.0982432527
 40
0.109815868
 40
0.1215809798
 40
0.1335512002
 40
0.1457376353
 40
0.1581499658
 40
0.1707964193
 40
0.1836838299
 40
0.1968176947
 40
0.210202178
 40
0.2238402429
 40
0.2377336147
 40
0.251882935
 40
0.2662877402
 40
0.2809465714
 40
0.2958570148
 40
0.3110157346
 40
0.3264185816
 40
0.3420605635
 40
0.3579359848
 40
0.3740384068
 40
0.3903607603
 40
0.4068953484
 40
0.4236338944
 40
0.4405676056
 40
0.4576871601
 40
0.4749828095
 40
0.4924443435
 40
0.5100611858
 40
0.5278223816
 40
0.5637306789
 40
0.600077414
 40
0.6367651094
 40
0.6736933755
 40
0.7107598006
 40
0.7478608232
 40
0.7848925953
 40
0.8217518419
 40
0.8583367345
 40
0.8945477306
 40
0.9302886235
 40
0.9479544906
 40
0.9654688182
 40
0.9828214257
 40
1.0
 40
1.0
 40
1.0
 40
1.0
 10
14.724222431
 20
11.5519730039
 30
0.0
 10
14.7235402552
 20
11.5497655018
 30
0.0
 10
14.7222989124
 20
11.5453062262
 30
0.0
 10
14.720813805
 20
11.5385120126
 30
0.0
 10
14.7197062911
 20
11.5316162871
 30
0.0
 10
14.7189774694
 20
11.5246266618
 30
0.0
 10
14.7186281201
 20
11.5175504541
 30
0.0
 10
14.7186584657
 20
11.5103951658
 30
0.0
 10
14.7190684205
 20
11.5031683276
 30
0.0
 10
14.7198574626
 20
11.4958775357
 30
0.0
 10
14.7210246251
 20
11.4885304176
 30
0.0
 10
14.7225686635
 20
11.4811346637
 30
0.0
 10
14.724487782
 20
11.4736979583
 30
0.0
 10
14.7267799844
 20
11.4662280631
 30
0.0
 10
14.7294427241
 20
11.4587327089
 30
0.0
 10
14.7324732109
 20
11.4512196895
 30
0.0
 10
14.7358682083
 20
11.4436967839
 30
0.0
 10
14.7396241199
 20
11.4361717768
 30
0.0
 10
14.7437370349
 20
11.4286524855
 30
0.0
 10
14.7482025792
 20
11.4211466586
 30
0.0
 10
14.7530161488
 20
11.4136621162
 30
0.0
 10
14.7581726479
 20
11.4062065642
 30
0.0
 10
14.7636667483
 20
11.3987877675
 30
0.0
 10
14.7694926905
 20
11.3914133912
 30
0.0
 10
14.7756444128
 20
11.384091087
 30
0.0
 10
14.7821155248
 20
11.3768284659
 30
0.0
 10
14.7888992567
 20
11.3696330289
 30
0.0
 10
14.7959885947
 20
11.362512294
 30
0.0
 10
14.803376113
 20
11.3554735999
 30
0.0
 10
14.8110541693
 20
11.3485243088
 30
0.0
 10
14.8190147429
 20
11.341671601
 30
0.0
 10
14.8272495684
 20
11.3349226188
 30
0.0
 10
14.8357500788
 20
11.3282843784
 30
0.0
 10
14.844507414
 20
11.321763758
 30
0.0
 10
14.8535124904
 20
11.31536758
 30
0.0
 10
14.8627559032
 20
11.3091024433
 30
0.0
 10
14.8722280718
 20
11.3029749191
 30
0.0
 10
14.8819190982
 20
11.2969913402
 30
0.0
 10
14.8918189618
 20
11.291157936
 30
0.0
 10
14.9053318947
 20
11.2835611821
 30
0.0
 10
14.9226801636
 20
11.2744842524
 30
0.0
 10
14.9440864431
 20
11.2643242364
 30
0.0
 10
14.9660678984
 20
11.2548991347
 30
0.0
 10
14.9885329944
 20
11.2462482054
 30
0.0
 10
15.0113884809
 20
11.2384073531
 30
0.0
 10
15.0345393931
 20
11.2314091616
 30
0.0
 10
15.0578895648
 20
11.2252827
 30
0.0
 10
15.0813419756
 20
11.2200534178
 30
0.0
 10
15.1047992819
 20
11.2157430293
 30
0.0
 10
15.1281638118
 20
11.2123694622
 30
0.0
 10
15.1475509995
 20
11.2103426803
 30
0.0
 10
15.1629316049
 20
11.2092063391
 30
0.0
 10
15.1743394522
 20
11.208598905
 30
0.0
 10
15.1856515295
 20
11.2082337205
 30
0.0
 10
15.1931605011
 20
11.2081515024
 30
0.0
 10
15.1968959445
 20
11.2081515024
 30
0.0
  0
SPLINE
  5
32E
100
AcDbEntity
  8
02___PRT_ALL_AXES
100
AcDbSpline
 62
7
  6
CONTINUOUS
 70
0
 71
3
 72
23
 73
19
 74
0
 42
0.0000001
 43
0.0000001
 44
0.0000000001
 40
0.0
 40
0.0
 40
0.0
 40
0.0
 40
0.0507644408
 40
0.1033090677
 40
0.1576390957
 40
0.2137437801
 40
0.2715908734
 40
0.3311319021
 40
0.3923027421
 40
0.4550256375
 40
0.5192108994
 40
0.5847583588
 40
0.6515586531
 40
0.7194943375
 40
0.7884407671
 40
0.8582666043
 40
0.9288342307
 40
1.0
 40
1.0
 40
1.0
 40
1.0
 10
15.8431287709
 20
11.926526261
 30
0.0
 10
15.844235846
 20
11.9242702791
 30
0.0
 10
15.8463462666
 20
11.9196080499
 30
0.0
 10
15.8491554949
 20
11.9123237214
 30
0.0
 10
15.8516569602
 20
11.9046496254
 30
0.0
 10
15.8538469608
 20
11.8966090231
 30
0.0
 10
15.855724164
 20
11.8882254787
 30
0.0
 10
15.8572893804
 20
11.8795235211
 30
0.0
 10
15.8585454675
 20
11.8705281103
 30
0.0
 10
15.8594972326
 20
11.8612645458
 30
0.0
 10
15.8601512456
 20
11.851758262
 30
0.0
 10
15.8605156752
 20
11.8420346965
 30
0.0
 10
15.8606001161
 20
11.8321191896
 30
0.0
 10
15.8604154153
 20
11.8220369174
 30
0.0
 10
15.8599735215
 20
11.8118128714
 30
0.0
 10
15.8592873102
 20
11.8014718512
 30
0.0
 10
15.8583704355
 20
11.7910385827
 30
0.0
 10
15.8576175717
 20
11.7840623935
 30
0.0
 10
15.857207433
 20
11.7805634469
 30
0.0
  0
SPLINE
  5
32F
100
AcDbEntity
  8
02___PRT_ALL_AXES
100
AcDbSpline
 62
7
  6
CONTINUOUS
 70
0
 71
3
 72
38
 73
34
 74
0
 42
0.0000001
 43
0.0000001
 44
0.0000000001
 40
0.0
 40
0.0
 40
0.0
 40
0.0
 40
0.0990283807
 40
0.1467137754
 40
0.1931538572
 40
0.2383316621
 40
0.2822326027
 40
0.324843141
 40
0.3661527183
 40
0.4061527154
 40
0.4448362636
 40
0.4821999063
 40
0.5182421108
 40
0.5529641428
 40
0.5863709346
 40
0.6184700079
 40
0.6492729812
 40
0.6787957973
 40
0.7070584655
 40
0.7340868257
 40
0.7599126027
 40
0.784574072
 40
0.8081178591
 40
0.830599297
 40
0.8520838024
 40
0.872648458
 40
0.8923825996
 40
0.9113889166
 40
0.9297838233
 40
0.9476968506
 40
0.9652692865
 40
0.9826516024
 40
1.0
 40
1.0
 40
1.0
 40
1.0
 10
15.8173718955
 20
11.6107545529
 30
0.0
 10
15.8166244643
 20
11.608666336
 30
0.0
 10
15.8154948995
 20
11.6055804245
 30
0.0
 10
15.8139562947
 20
11.601537145
 30
0.0
 10
15.812820464
 20
11.5986311971
 30
0.0
 10
15.8116882561
 20
11.5958149875
 30
0.0
 10
15.8105596329
 20
11.5930899436
 30
0.0
 10
15.8094345406
 20
11.5904573982
 30
0.0
 10
15.8083128455
 20
11.5879186286
 30
0.0
 10
15.8071943723
 20
11.5854748349
 30
0.0
 10
15.8060789084
 20
11.583127138
 30
0.0
 10
15.80496618
 20
11.5808766046
 30
0.0
 10
15.803855881
 20
11.5787242236
 30
0.0
 10
15.8027476638
 20
11.5766709224
 30
0.0
 10
15.8016411419
 20
11.5747175714
 30
0.0
 10
15.8005358927
 20
11.5728649759
 30
0.0
 10
15.7994314623
 20
11.5711138885
 30
0.0
 10
15.7983273695
 20
11.5694650053
 30
0.0
 10
15.7972230912
 20
11.5679189763
 30
0.0
 10
15.7961180901
 20
11.5664763991
 30
0.0
 10
15.7950117988
 20
11.5651378268
 30
0.0
 10
15.7939036079
 20
11.5639037866
 30
0.0
 10
15.7927929096
 20
11.5627747543
 30
0.0
 10
15.7916790548
 20
11.5617511917
 30
0.0
 10
15.7905613695
 20
11.5608335572
 30
0.0
 10
15.7894391955
 20
11.5600222722
 30
0.0
 10
15.7883118462
 20
11.5593177967
 30
0.0
 10
15.7871786686
 20
11.5587205994
 30
0.0
 10
15.7860390671
 20
11.5582311284
 30
0.0
 10
15.7848925089
 20
11.5578498844
 30
0.0
 10
15.7837385345
 20
11.5575772987
 30
0.0
 10
15.7825769481
 20
11.557413717
 30
0.0
 10
15.7817985827
 20
11.557377593
 30
0.0
 10
15.7814100286
 20
11.5573775949
 30
0.0
  0
SPLINE
  5
330
100
AcDbEntity
  8
02___PRT_ALL_AXES
100
AcDbSpline
 62
7
  6
CONTINUOUS
 70
0
 71
3
 72
76
 73
72
 74
0
 42
0.0000001
 43
0.0000001
 44
0.0000000001
 40
0.0
 40
0.0
 40
0.0
 40
0.0
 40
0.017178752
 40
0.0345302811
 40
0.0520441896
 40
0.0697098156
 40
0.0875160752
 40
0.1054515963
 40
0.1235047064
 40
0.1416634785
 40
0.1599157549
 40
0.1782491772
 40
0.1966512146
 40
0.2151091916
 40
0.2336103156
 40
0.2521417038
 40
0.2706904109
 40
0.2892434558
 40
0.3077878482
 40
0.3263106158
 40
0.3447988311
 40
0.3632396383
 40
0.3816202807
 40
0.3999281276
 40
0.4181507025
 40
0.4362757105
 40
0.4542910673
 40
0.4721849273
 40
0.4899457139
 40
0.5075621489
 40
0.5250232836
 40
0.5423185303
 40
0.5594376952
 40
0.5763710119
 40
0.5931091761
 40
0.6096433819
 40
0.6259653591
 40
0.6420674128
 40
0.6579424637
 40
0.673584091
 40
0.6889865769
 40
0.704144953
 40
0.7190550491
 40
0.7337135441
 40
0.7481180184
 40
0.762267009
 40
0.776160066
 40
0.7897978101
 40
0.8031819916
 40
0.8163155489
 40
0.8292026659
 40
0.8418488276
 40
0.8542608706
 40
0.8603819594
 40
0.8664477274
 40
0.8784176672
 40
0.8901825131
 40
0.9017548575
 40
0.913148752
 40
0.9243796785
 40
0.9354644946
 40
0.9464213519
 40
0.9572695864
 40
0.9626598072
 40
0.9680305928
 40
0.973384626
 40
0.9787246313
 40
0.9840533706
 40
0.989373634
 40
0.9946882346
 40
1.0
 40
1.0
 40
1.0
 40
1.0
 10
14.8666462563
 20
11.8093205108
 30
0.0
 10
14.8732507409
 20
11.8093205108
 30
0.0
 10
14.8865265594
 20
11.8091751926
 30
0.0
 10
14.9065262802
 20
11.8085294784
 30
0.0
 10
14.9266950913
 20
11.807455562
 30
0.0
 10
14.9470118628
 20
11.8059545705
 30
0.0
 10
14.9674554992
 20
11.8040280617
 30
0.0
 10
14.9880047088
 20
11.801678045
 30
0.0
 10
15.0086381091
 20
11.7989069652
 30
0.0
 10
15.029334223
 20
11.7957177079
 30
0.0
 10
15.050071509
 20
11.7921135926
 30
0.0
 10
15.0708283816
 20
11.7880983712
 30
0.0
 10
15.0915832345
 20
11.7836762231
 30
0.0
 10
15.1123144631
 20
11.7788517517
 30
0.0
 10
15.1330004866
 20
11.7736299791
 30
0.0
 10
15.1536197715
 20
11.768016341
 30
0.0
 10
15.1741508532
 20
11.7620166812
 30
0.0
 10
15.1945723588
 20
11.755637245
 30
0.0
 10
15.2148630298
 20
11.7488846737
 30
0.0
 10
15.2350017435
 20
11.7417659964
 30
0.0
 10
15.2549675359
 20
11.7342886237
 30
0.0
 10
15.2747396229
 20
11.7264603394
 30
0.0
 10
15.2942974226
 20
11.7182892925
 30
0.0
 10
15.3136205764
 20
11.7097839884
 30
0.0
 10
15.3326889705
 20
11.7009532806
 30
0.0
 10
15.3514827567
 20
11.6918063606
 30
0.0
 10
15.3699823734
 20
11.6823527486
 30
0.0
 10
15.3881685656
 20
11.6726022838
 30
0.0
 10
15.4060224053
 20
11.6625651132
 30
0.0
 10
15.4235253112
 20
11.6522516819
 30
0.0
 10
15.4406590679
 20
11.6416727212
 30
0.0
 10
15.4574058452
 20
11.6308392377
 30
0.0
 10
15.4737482162
 20
11.6197625014
 30
0.0
 10
15.4896691758
 20
11.6084540341
 30
0.0
 10
15.5051521581
 20
11.5969255968
 30
0.0
 10
15.5201810536
 20
11.5851891771
 30
0.0
 10
15.5347402259
 20
11.573256977
 30
0.0
 10
15.5488145278
 20
11.561141399
 30
0.0
 10
15.5623893164
 20
11.5488550338
 30
0.0
 10
15.5754504688
 20
11.5364106461
 30
0.0
 10
15.5879843956
 20
11.5238211611
 30
0.0
 10
15.599978055
 20
11.511099651
 30
0.0
 10
15.6114189654
 20
11.4982593207
 30
0.0
 10
15.6222952177
 20
11.4853134939
 30
0.0
 10
15.6325954866
 20
11.4722755988
 30
0.0
 10
15.6423090414
 20
11.4591591547
 30
0.0
 10
15.6514257556
 20
11.4459777567
 30
0.0
 10
15.6599361156
 20
11.4327450642
 30
0.0
 10
15.6678312312
 20
11.4194747815
 30
0.0
 10
15.6751028347
 20
11.4061806645
 30
0.0
 10
15.6817433162
 20
11.3928764354
 30
0.0
 10
15.6877456288
 20
11.3795760345
 30
0.0
 10
15.6922311276
 20
11.3684557867
 30
0.0
 10
15.6954894359
 20
11.3595769198
 30
0.0
 10
15.6985017256
 20
11.3507911321
 30
0.0
 10
15.7018638992
 20
11.3398342986
 30
0.0
 10
15.7052569137
 20
11.3266863052
 30
0.0
 10
15.7079867401
 20
11.3136105791
 30
0.0
 10
15.710050315
 20
11.300620884
 30
0.0
 10
15.711445324
 20
11.2877307703
 30
0.0
 10
15.7121701196
 20
11.2749536794
 30
0.0
 10
15.7122238084
 20
11.262303284
 30
0.0
 10
15.711707911
 20
11.2518550131
 30
0.0
 10
15.7109583962
 20
11.2435802123
 30
0.0
 10
15.7102301193
 20
11.237426806
 30
0.0
 10
15.7093347254
 20
11.2313150361
 30
0.0
 10
15.7082724318
 20
11.2252464461
 30
0.0
 10
15.7070435339
 20
11.2192226401
 30
0.0
 10
15.7056483243
 20
11.2132451787
 30
0.0
 10
15.7040872097
 20
11.2073156831
 30
0.0
 10
15.7029359688
 20
11.2033952015
 30
0.0
 10
15.7023330313
 20
11.2014440953
 30
0.0
  0
SPLINE
  5
331
100
AcDbEntity
  8
LAYER_FEATURE
100
AcDbSpline
 62
7
  6
CONTINUOUS
 70
0
 71
3
 72
37
 73
33
 74
0
 42
0.0000001
 43
0.0000001
 44
0.0000000001
 40
0.0
 40
0.0
 40
0.0
 40
0.0
 40
0.0272320291
 40
0.0549120075
 40
0.0830414253
 40
0.1116199289
 40
0.1700822989
 40
0.1999584494
 40
0.230238706
 40
0.2609033564
 40
0.2919297822
 40
0.3232927246
 40
0.3549645335
 40
0.3869154233
 40
0.4191137308
 40
0.4515261623
 40
0.4841180367
 40
0.5168535254
 40
0.5496958915
 40
0.5826077332
 40
0.6155512192
 40
0.6484883221
 40
0.6813810518
 40
0.7141916921
 40
0.7468830403
 40
0.7794186394
 40
0.8117630236
 40
0.8438819415
 40
0.8757425985
 40
0.9073140581
 40
0.9385667823
 40
1.0
 40
1.0
 40
1.0
 40
1.0
 10
14.8020839529
 20
12.150770347
 30
0.0
 10
14.8029104554
 20
12.1534449101
 30
0.0
 10
14.8047206226
 20
12.1587947352
 30
0.0
 10
14.8078663548
 20
12.1667339368
 30
0.0
 10
14.8114573516
 20
12.1746345394
 30
0.0
 10
14.8168670644
 20
12.1851693202
 30
0.0
 10
14.8231012632
 20
12.1954674466
 30
0.0
 10
14.8300812948
 20
12.2054687145
 30
0.0
 10
14.8357464133
 20
12.2128933032
 30
0.0
 10
14.8417890645
 20
12.2201678578
 30
0.0
 10
14.8481949195
 20
12.2272752564
 30
0.0
 10
14.8549485054
 20
12.2341983416
 30
0.0
 10
14.8620335896
 20
12.2409205133
 30
0.0
 10
14.869433118
 20
12.2474256244
 30
0.0
 10
14.8771292914
 20
12.2536980517
 30
0.0
 10
14.8851035987
 20
12.2597227252
 30
0.0
 10
14.893336863
 20
12.2654851657
 30
0.0
 10
14.9018092856
 20
12.2709715198
 30
0.0
 10
14.9105004873
 20
12.2761686041
 30
0.0
 10
14.9193895649
 20
12.2810639275
 30
0.0
 10
14.9284551421
 20
12.2856457206
 30
0.0
 10
14.9376754191
 20
12.2899029644
 30
0.0
 10
14.9470282264
 20
12.2938254149
 30
0.0
 10
14.9564910731
 20
12.297403639
 30
0.0
 10
14.966041204
 20
12.300629032
 30
0.0
 10
14.97565566
 20
12.3034938337
 30
0.0
 10
14.9853113184
 20
12.3059911456
 30
0.0
 10
14.9949849973
 20
12.3081149485
 30
0.0
 10
15.004653337
 20
12.3098601211
 30
0.0
 10
15.0142934885
 20
12.3112224592
 30
0.0
 10
15.0270030167
 20
12.3125165153
 30
0.0
 10
15.0365361907
 20
12.3129190173
 30
0.0
 10
15.0428513076
 20
12.3129190173
 30
0.0
  0
SPLINE
  5
332
100
AcDbEntity
  8
LAYER_FEATURE
100
AcDbSpline
 62
7
  6
CONTINUOUS
 70
0
 71
3
 72
27
 73
23
 74
0
 42
0.0000001
 43
0.0000001
 44
0.0000000001
 40
0.0
 40
0.0
 40
0.0
 40
0.0
 40
0.1401647509
 40
0.2085867237
 40
0.2758417454
 40
0.34191027
 40
0.3745007136
 40
0.4067938146
 40
0.4704888351
 40
0.5330268708
 40
0.5638779881
 40
0.5944565963
 40
0.6548199716
 40
0.7141983884
 40
0.7726816485
 40
0.8303749496
 40
0.8589669324
 40
0.8874073345
 40
0.915713016
 40
0.9439015287
 40
0.9719909832
 40
1.0
 40
1.0
 40
1.0
 40
1.0
 10
15.0428513076
 20
12.3129190173
 30
0.0
 10
15.0497841967
 20
12.3129190173
 30
0.0
 10
15.0601119223
 20
12.3124404159
 30
0.0
 10
15.0736585835
 20
12.3107792095
 30
0.0
 10
15.0834917489
 20
12.3090524064
 30
0.0
 10
15.0914910375
 20
12.3072002586
 30
0.0
 10
15.0977352542
 20
12.3054757494
 30
0.0
 10
15.1038158063
 20
12.3036093672
 30
0.0
 10
15.1112101035
 20
12.3009861029
 30
0.0
 10
15.1183687699
 20
12.297952416
 30
0.0
 10
15.1238971677
 20
12.295297925
 30
0.0
 10
15.1292433544
 20
12.2925195671
 30
0.0
 10
15.1356733756
 20
12.2887749091
 30
0.0
 10
15.1429843894
 20
12.2838374469
 30
0.0
 10
15.1498348917
 20
12.2784903493
 30
0.0
 10
15.1551586374
 20
12.273691555
 30
0.0
 10
15.1591606172
 20
12.2696669655
 30
0.0
 10
15.1620257759
 20
12.2665659359
 30
0.0
 10
15.164760962
 20
12.2633759822
 30
0.0
 10
15.1673641508
 20
12.2600995164
 30
0.0
 10
15.1698332692
 20
12.2567391272
 30
0.0
 10
15.1713906803
 20
12.2544416941
 30
0.0
 10
15.1721460221
 20
12.2532803262
 30
0.0
  0
SPLINE
  5
333
100
AcDbEntity
  8
LAYER_FEATURE
100
AcDbSpline
 62
7
  6
CONTINUOUS
 70
0
 71
3
 72
68
 73
64
 74
0
 42
0.0000001
 43
0.0000001
 44
0.0000000001
 40
0.0
 40
0.0
 40
0.0
 40
0.0
 40
0.0149072031
 40
0.030060024
 40
0.0454585644
 40
0.0611030115
 40
0.0931065203
 40
0.1094613318
 40
0.1260373622
 40
0.142823821
 40
0.1598083198
 40
0.1769770313
 40
0.1943148259
 40
0.2118053956
 40
0.2294314049
 40
0.2650102014
 40
0.2829302747
 40
0.3009088544
 40
0.3369537432
 40
0.3549841838
 40
0.3729903348
 40
0.4088417053
 40
0.4266523558
 40
0.4443583312
 40
0.4619408812
 40
0.479382063
 40
0.4966648794
 40
0.5137734038
 40
0.5306929159
 40
0.5474100594
 40
0.5639129754
 40
0.5801914331
 40
0.5962369759
 40
0.6120430824
 40
0.627605287
 40
0.642921305
 40
0.6579911715
 40
0.672817366
 40
0.6874048898
 40
0.7017613383
 40
0.7158969673
 40
0.7298247021
 40
0.7435600927
 40
0.7571212342
 40
0.7705286458
 40
0.783805064
 40
0.7969751764
 40
0.8100653049
 40
0.8231030366
 40
0.8361167976
 40
0.8491354011
 40
0.8621875813
 40
0.8753015291
 40
0.8885044512
 40
0.9018221673
 40
0.9152787456
 40
0.9288961779
 40
0.9357722799
 40
0.9426958076
 40
0.9566917376
 40
0.9708999656
 40
0.9853334434
 40
1.0
 40
1.0
 40
1.0
 40
1.0
 10
14.8275871448
 20
12.1765049997
 30
0.0
 10
14.8282483394
 20
12.1786446265
 30
0.0
 10
14.8296964869
 20
12.182924493
 30
0.0
 10
14.8322130569
 20
12.1892758594
 30
0.0
 10
14.8350858669
 20
12.1955963608
 30
0.0
 10
14.8394136296
 20
12.2040241775
 30
0.0
 10
14.8444010022
 20
12.2122626706
 30
0.0
 10
14.8499850152
 20
12.2202636955
 30
0.0
 10
14.8545171091
 20
12.2262033676
 30
0.0
 10
14.8593512377
 20
12.2320230063
 30
0.0
 10
14.8644759216
 20
12.2377089226
 30
0.0
 10
14.8698787912
 20
12.2432474001
 30
0.0
 10
14.8755468359
 20
12.2486251189
 30
0.0
 10
14.881466547
 20
12.2538292738
 30
0.0
 10
14.8897004791
 20
12.2605399873
 30
0.0
 10
14.8983527657
 20
12.2668284714
 30
0.0
 10
14.9073674065
 20
12.2726659214
 30
0.0
 10
14.9166449543
 20
12.2782136503
 30
0.0
 10
14.9262274524
 20
12.2832710084
 30
0.0
 10
14.9360603286
 20
12.2878110842
 30
0.0
 10
14.9460210973
 20
12.2919885315
 30
0.0
 10
14.9561677541
 20
12.2956216446
 30
0.0
 10
14.9664444269
 20
12.2986837603
 30
0.0
 10
14.9741690619
 20
12.3006816467
 30
0.0
 10
14.9819079632
 20
12.3023806775
 30
0.0
 10
14.9896426948
 20
12.3037768139
 30
0.0
 10
14.9973546191
 20
12.3048666848
 30
0.0
 10
15.0050252141
 20
12.3056476541
 30
0.0
 10
15.012636043
 20
12.3061178046
 30
0.0
 10
15.0201688157
 20
12.3062759964
 30
0.0
 10
15.027605432
 20
12.306121828
 30
0.0
 10
15.0349280215
 20
12.3056556273
 30
0.0
 10
15.0421189846
 20
12.3048784579
 30
0.0
 10
15.0491610402
 20
12.3037921582
 30
0.0
 10
15.0560372612
 20
12.3023992869
 30
0.0
 10
15.0627311078
 20
12.300703114
 30
0.0
 10
15.0692264695
 20
12.2987076369
 30
0.0
 10
15.0755077114
 20
12.296417591
 30
0.0
 10
15.0815596947
 20
12.2938383957
 30
0.0
 10
15.0873678031
 20
12.290976144
 30
0.0
 10
15.0929179956
 20
12.2878376318
 30
0.0
 10
15.0981968379
 20
12.2844303345
 30
0.0
 10
15.1031915156
 20
12.2807623679
 30
0.0
 10
15.1078898604
 20
12.2768424775
 30
0.0
 10
15.1122804208
 20
12.2726800709
 30
0.0
 10
15.1163524728
 20
12.2682851646
 30
0.0
 10
15.1200960374
 20
12.2636683573
 30
0.0
 10
15.1235019171
 20
12.2588408154
 30
0.0
 10
15.126561777
 20
12.2538142774
 30
0.0
 10
15.1292681274
 20
12.248600982
 30
0.0
 10
15.1316143436
 20
12.2432136356
 30
0.0
 10
15.1335947096
 20
12.237665387
 30
0.0
 10
15.1352044652
 20
12.2319697861
 30
0.0
 10
15.1364397647
 20
12.2261407334
 30
0.0
 10
15.137297677
 20
12.2201923858
 30
0.0
 10
15.1377762343
 20
12.2141393447
 30
0.0
 10
15.1378577809
 20
12.2090362326
 30
0.0
 10
15.1377347169
 20
12.204918763
 30
0.0
 10
15.1374837719
 20
12.2007501142
 30
0.0
 10
15.1369301027
 20
12.1954987882
 30
0.0
 10
15.1358901585
 20
12.189174993
 30
0.0
 10
15.1344748799
 20
12.1828214624
 30
0.0
 10
15.133293067
 20
12.1786100865
 30
0.0
 10
15.132642546
 20
12.1765049997
 30
0.0
  0
SPLINE
  5
334
100
AcDbEntity
  8
LAYER_FEATURE
100
AcDbSpline
 62
7
  6
CONTINUOUS
 70
0
 71
3
 72
15
 73
11
 74
0
 42
0.0000001
 43
0.0000001
 44
0.0000000001
 40
0.0
 40
0.0
 40
0.0
 40
0.0
 40
0.1098100475
 40
0.2230315459
 40
0.3402205213
 40
0.4618578358
 40
0.5883504809
 40
0.7200342937
 40
0.8571806258
 40
1.0
 40
1.0
 40
1.0
 40
1.0
 10
15.7659575383
 20
11.9694169332
 30
0.0
 10
15.7669650252
 20
11.9690582966
 30
0.0
 10
15.768980139
 20
11.9682394396
 30
0.0
 10
15.771940009
 20
11.9667430738
 30
0.0
 10
15.7748747399
 20
11.9649643153
 30
0.0
 10
15.7777801077
 20
11.9629060778
 30
0.0
 10
15.7806523497
 20
11.9605714119
 30
0.0
 10
15.783487726
 20
11.9579637403
 30
0.0
 10
15.786282388
 20
11.9550868165
 30
0.0
 10
15.7880790311
 20
11.9530342043
 30
0.0
 10
15.788970307
 20
11.9519664066
 30
0.0
  0
SPLINE
  5
335
100
AcDbEntity
  8
LAYER_CHAMFER_FEAT
100
AcDbSpline
 62
7
  6
CONTINUOUS
 70
0
 71
3
 72
39
 73
35
 74
0
 42
0.0000001
 43
0.0000001
 44
0.0000000001
 40
0.0
 40
0.0
 40
0.0
 40
0.0
 40
0.0248034982
 40
0.0496643341
 40
0.0746391933
 40
0.0997834886
 40
0.1251507414
 40
0.1507921208
 40
0.1767559222
 40
0.2030872585
 40
0.2298277689
 40
0.2570153642
 40
0.2846842172
 40
0.3128645583
 40
0.34158281
 40
0.3708615613
 40
0.4007196368
 40
0.4311723191
 40
0.4622313076
 40
0.4939050562
 40
0.5261987859
 40
0.5591147011
 40
0.5926522022
 40
0.6268078972
 40
0.6615759568
 40
0.6969480872
 40
0.732913763
 40
0.7694603602
 40
0.8065733434
 40
0.8442363164
 40
0.882430608
 40
0.921137064
 40
0.9603359365
 40
1.0
 40
1.0
 40
1.0
 40
1.0
 10
15.4407880581
 20
11.3305374771
 30
0.0
 10
15.4400774688
 20
11.3282380296
 30
0.0
 10
15.4385189396
 20
11.3236745056
 30
0.0
 10
15.4357790529
 20
11.3169661236
 30
0.0
 10
15.4326390607
 20
11.3103985458
 30
0.0
 10
15.4291026633
 20
11.3039796567
 30
0.0
 10
15.4251740543
 20
11.2977166616
 30
0.0
 10
15.4208577569
 20
11.2916167562
 30
0.0
 10
15.4161588418
 20
11.2856868163
 30
0.0
 10
15.4110827538
 20
11.2799335359
 30
0.0
 10
15.4056353303
 20
11.2743634113
 30
0.0
 10
15.3998228906
 20
11.2689826282
 30
0.0
 10
15.3936520403
 20
11.2637972647
 30
0.0
 10
15.3871298739
 20
11.2588130488
 30
0.0
 10
15.380263796
 20
11.2540355601
 30
0.0
 10
15.3730616029
 20
11.2494701257
 30
0.0
 10
15.3655314818
 20
11.2451217822
 30
0.0
 10
15.3576819208
 20
11.240995436
 30
0.0
 10
15.3495218259
 20
11.2370956127
 30
0.0
 10
15.3410603902
 20
11.2334267067
 30
0.0
 10
15.3323071719
 20
11.2299927922
 30
0.0
 10
15.3232720511
 20
11.2267976794
 30
0.0
 10
15.3139652032
 20
11.2238449896
 30
0.0
 10
15.3043971413
 20
11.2211379553
 30
0.0
 10
15.2945786392
 20
11.2186796656
 30
0.0
 10
15.2845207774
 20
11.2164728359
 30
0.0
 10
15.2742348998
 20
11.2145199405
 30
0.0
 10
15.2637325979
 20
11.2128231961
 30
0.0
 10
15.2530257154
 20
11.2113844555
 30
0.0
 10
15.2421263599
 20
11.2102054021
 30
0.0
 10
15.2310468275
 20
11.2092872808
 30
0.0
 10
15.2197994367
 20
11.2086311597
 30
0.0
 10
15.2083971929
 20
11.208237829
 30
0.0
 10
15.2007446386
 20
11.2081515024
 30
0.0
 10
15.1968959445
 20
11.2081515024
 30
0.0
  0
SPLINE
  5
336
100
AcDbEntity
  8
02___PRT_ALL_AXES
100
AcDbSpline
 62
7
  6
CONTINUOUS
 70
0
 71
3
 72
23
 73
19
 74
0
 42
0.0000001
 43
0.0000001
 44
0.0000000001
 40
0.0
 40
0.0
 40
0.0
 40
0.0
 40
0.0568106509
 40
0.113506722
 40
0.1702796292
 40
0.2273256041
 40
0.2848433506
 40
0.3430314905
 40
0.4020856755
 40
0.4621957372
 40
0.5235429018
 40
0.5862972276
 40
0.6506153353
 40
0.7166387774
 40
0.784491561
 40
0.8542796998
 40
0.9260957509
 40
1.0
 40
1.0
 40
1.0
 40
1.0
 10
15.7814100289
 20
11.9713775865
 30
0.0
 10
15.78293558
 20
11.971377583
 30
0.0
 10
15.7859849972
 20
11.9712584157
 30
0.0
 10
15.7905301994
 20
11.9707186727
 30
0.0
 10
15.7950246951
 20
11.9698184245
 30
0.0
 10
15.7994546963
 20
11.9685582581
 30
0.0
 10
15.8038070812
 20
11.9669393315
 30
0.0
 10
15.8080689102
 20
11.9649635113
 30
0.0
 10
15.8122276056
 20
11.9626332744
 30
0.0
 10
15.8162709834
 20
11.9599518038
 30
0.0
 10
15.8201874001
 20
11.9569231015
 30
0.0
 10
15.8239657248
 20
11.9535518706
 30
0.0
 10
15.8275954413
 20
11.9498436018
 30
0.0
 10
15.8310667706
 20
11.9458046527
 30
0.0
 10
15.8343706318
 20
11.9414421786
 30
0.0
 10
15.8374988239
 20
11.9367639841
 30
0.0
 10
15.8404437772
 20
11.9317790716
 30
0.0
 10
15.8422544831
 20
11.9283078722
 30
0.0
 10
15.8431287709
 20
11.926526261
 30
0.0
  0
SPLINE
  5
337
100
AcDbEntity
  8
LAYER_CHAMFER_FEAT
100
AcDbSpline
 62
7
  6
CONTINUOUS
 70
0
 71
3
 72
85
 73
81
 74
0
 42
0.0000001
 43
0.0000001
 44
0.0000000001
 40
0.0
 40
0.0
 40
0.0
 40
0.0
 40
0.015757805
 40
0.0311471301
 40
0.0461642876
 40
0.0608083524
 40
0.0750813801
 40
0.0889886228
 40
0.1025387473
 40
0.1091842241
 40
0.1157453558
 40
0.1286219148
 40
0.141189785
 40
0.1473661327
 40
0.153474671
 40
0.1595190462
 40
0.1655031365
 40
0.1714310603
 40
0.1773071753
 40
0.1831360433
 40
0.1889224472
 40
0.1946713501
 40
0.2003878901
 40
0.2060773604
 40
0.2117451769
 40
0.2173968676
 40
0.2230380347
 40
0.2286743351
 40
0.2343114487
 40
0.2399550526
 40
0.2456107898
 40
0.2512842447
 40
0.256980916
 40
0.2627061852
 40
0.2684653067
 40
0.2742633664
 40
0.2801052808
 40
0.2859957696
 40
0.2919393359
 40
0.3040009053
 40
0.3163232679
 40
0.3289339415
 40
0.3418564171
 40
0.3551101682
 40
0.3687107402
 40
0.3826698912
 40
0.3969957835
 40
0.411693196
 40
0.4267637432
 40
0.4422060961
 40
0.4580161923
 40
0.4741874509
 40
0.4907109767
 40
0.5075757487
 40
0.5247687977
 40
0.5422753682
 40
0.5600790802
 40
0.5781620818
 40
0.59650519
 40
0.6150880229
 40
0.6338891243
 40
0.6528860866
 40
0.6720556728
 40
0.6913739288
 40
0.7108162929
 40
0.7303577014
 40
0.7499726959
 40
0.7696355289
 40
0.7893202657
 40
0.8090008854
 40
0.8286513821
 40
0.848245869
 40
0.8677586786
 40
0.8871644706
 40
0.9064383242
 40
0.9255558493
 40
0.9444933649
 40
0.9632276587
 40
0.9817372101
 40
1.0
 40
1.0
 40
1.0
 40
1.0
 10
14.8248767731
 20
11.6530659925
 30
0.0
 10
14.8199089348
 20
11.6518976656
 30
0.0
 10
14.8101323933
 20
11.6494001467
 30
0.0
 10
14.7958046408
 20
11.6451143363
 30
0.0
 10
14.7820124622
 20
11.6403408213
 30
0.0
 10
14.7687831891
 20
11.6350888761
 30
0.0
 10
14.756142617
 20
11.6293685515
 30
0.0
 10
14.7441158228
 20
11.6231909791
 30
0.0
 10
14.7345630797
 20
11.6176359993
 30
0.0
 10
14.7272584217
 20
11.6129722292
 30
0.0
 10
14.7202687495
 20
11.6082268186
 30
0.0
 10
14.7119469613
 20
11.6020363817
 30
0.0
 10
14.7041116272
 20
11.5954311802
 30
0.0
 10
14.6982133778
 20
11.5899526173
 30
0.0
 10
14.6939972744
 20
11.5857722065
 30
0.0
 10
14.689965556
 20
11.5814989228
 30
0.0
 10
14.6861201883
 20
11.5771348059
 30
0.0
 10
14.6824631158
 20
11.5726819902
 30
0.0
 10
14.6789961007
 20
11.5681427035
 30
0.0
 10
14.6757209375
 20
11.5635191252
 30
0.0
 10
14.6726392006
 20
11.5588135759
 30
0.0
 10
14.6697524512
 20
11.5540283556
 30
0.0
 10
14.6670621502
 20
11.5491658176
 30
0.0
 10
14.6645695824
 20
11.5442283961
 30
0.0
 10
14.662276072
 20
11.5392184934
 30
0.0
 10
14.6601826932
 20
11.5341386258
 30
0.0
 10
14.6582905245
 20
11.5289912939
 30
0.0
 10
14.6566005232
 20
11.5237790491
 30
0.0
 10
14.655113469
 20
11.5185044954
 30
0.0
 10
14.6538301843
 20
11.5131702278
 30
0.0
 10
14.6527512219
 20
11.5077789151
 30
0.0
 10
14.6518771542
 20
11.502333222
 30
0.0
 10
14.6512084137
 20
11.4968358527
 30
0.0
 10
14.6507452647
 20
11.4912895365
 30
0.0
 10
14.6504880099
 20
11.485697018
 30
0.0
 10
14.6504366799
 20
11.4800610646
 30
0.0
 10
14.6505913307
 20
11.4743844819
 30
0.0
 10
14.6509518841
 20
11.4686700028
 30
0.0
 10
14.6517104311
 20
11.4609670274
 30
0.0
 10
14.6531812681
 20
11.4512474742
 30
0.0
 10
14.6557564737
 20
11.439537973
 30
0.0
 10
14.6591449518
 20
11.4277473203
 30
0.0
 10
14.6633395357
 20
11.4158990045
 30
0.0
 10
14.6683315946
 20
11.4040160319
 30
0.0
 10
14.6741110064
 20
11.392121579
 30
0.0
 10
14.6806661633
 20
11.3802387767
 30
0.0
 10
14.6879840022
 20
11.3683907405
 30
0.0
 10
14.696050024
 20
11.3566005247
 30
0.0
 10
14.7048483092
 20
11.344891088
 30
0.0
 10
14.7143615389
 20
11.3332852565
 30
0.0
 10
14.7245710026
 20
11.3218056679
 30
0.0
 10
14.735456639
 20
11.3104747335
 30
0.0
 10
14.7469970763
 20
11.2993145969
 30
0.0
 10
14.7591696676
 20
11.2883470862
 30
0.0
 10
14.7719505316
 20
11.2775936738
 30
0.0
 10
14.7853145852
 20
11.2670754193
 30
0.0
 10
14.7992355959
 20
11.2568129304
 30
0.0
 10
14.8136862402
 20
11.246826327
 30
0.0
 10
14.8286381545
 20
11.2371351973
 30
0.0
 10
14.8440619904
 20
11.2277585616
 30
0.0
 10
14.8599274641
 20
11.2187148234
 30
0.0
 10
14.8762034169
 20
11.2100217308
 30
0.0
 10
14.8928578847
 20
11.2016963518
 30
0.0
 10
14.9098581589
 20
11.1937550366
 30
0.0
 10
14.9271708509
 20
11.1862133878
 30
0.0
 10
14.9447619535
 20
11.1790862215
 30
0.0
 10
14.9625969071
 20
11.1723875317
 30
0.0
 10
14.9806406744
 20
11.1661304763
 30
0.0
 10
14.9988578084
 20
11.1603273481
 30
0.0
 10
15.0172125218
 20
11.1549895527
 30
0.0
 10
15.0356687562
 20
11.1501275806
 30
0.0
 10
15.0541902512
 20
11.1457509762
 30
0.0
 10
15.0727406224
 20
11.1418683341
 30
0.0
 10
15.0912834301
 20
11.1384872826
 30
0.0
 10
15.1097822481
 20
11.1356144687
 30
0.0
 10
15.1282007622
 20
11.1332555328
 30
0.0
 10
15.146502729
 20
11.1314151321
 30
0.0
 10
15.164652402
 20
11.1300968134
 30
0.0
 10
15.1826137701
 20
11.1293032711
 30
0.0
 10
15.1945236747
 20
11.129123803
 30
0.0
 10
15.2004383188
 20
11.129123803
 30
0.0
  0
SPLINE
  5
338
100
AcDbEntity
  8
LAYER_FEATURE
100
AcDbSpline
 62
7
  6
CONTINUOUS
 70
0
 71
3
 72
23
 73
19
 74
0
 42
0.0000001
 43
0.0000001
 44
0.0000000001
 40
0.0
 40
0.0
 40
0.0
 40
0.0
 40
0.0696910344
 40
0.138141676
 40
0.205386594
 40
0.271473319
 40
0.3364539513
 40
0.4003877722
 40
0.4633414323
 40
0.5253884235
 40
0.5866090836
 40
0.6470902522
 40
0.7069248621
 40
0.7662114206
 40
0.8250532911
 40
0.8835579089
 40
0.9418358884
 40
1.0
 40
1.0
 40
1.0
 40
1.0
 10
15.995325424
 20
12.1418432453
 30
0.0
 10
15.9976817301
 20
12.1370415983
 30
0.0
 10
16.0021787101
 20
12.1274372309
 30
0.0
 10
16.0083130132
 20
12.1129126709
 30
0.0
 10
16.0137688834
 20
12.0984146294
 30
0.0
 10
16.0185408672
 20
12.0839573427
 30
0.0
 10
16.0226243446
 20
12.0695544108
 30
0.0
 10
16.0260152574
 20
12.0552196282
 30
0.0
 10
16.0287101976
 20
12.0409666997
 30
0.0
 10
16.0307064238
 20
12.0268092727
 30
0.0
 10
16.032001883
 20
12.0127609431
 30
0.0
 10
16.0325951503
 20
11.9988352273
 30
0.0
 10
16.0324854882
 20
11.9850455652
 30
0.0
 10
16.0316728891
 20
11.9714052867
 30
0.0
 10
16.0301580144
 20
11.9579276538
 30
0.0
 10
16.0279421649
 20
11.9446256357
 30
0.0
 10
16.0250276008
 20
11.931512667
 30
0.0
 10
16.0226194494
 20
11.9229012081
 30
0.0
 10
16.0213014707
 20
11.9186362325
 30
0.0
  0
SPLINE
  5
339
100
AcDbEntity
  8
LAYER_FEATURE
100
AcDbSpline
 62
7
  6
CONTINUOUS
 70
0
 71
3
 72
80
 73
76
 74
0
 42
0.0000001
 43
0.0000001
 44
0.0000000001
 40
0.0
 40
0.0
 40
0.0
 40
0.0
 40
0.0171786082
 40
0.034530198
 40
0.0520439838
 40
0.0697095606
 40
0.0875157518
 40
0.105451206
 40
0.1235042506
 40
0.1416629551
 40
0.1599151638
 40
0.1782485183
 40
0.196650488
 40
0.215108397
 40
0.2336094524
 40
0.252140772
 40
0.2706894107
 40
0.289242387
 40
0.3077867108
 40
0.3263094098
 40
0.3447975567
 40
0.363238296
 40
0.3816188704
 40
0.3999266494
 40
0.4181491568
 40
0.4362740982
 40
0.4542893888
 40
0.4721831827
 40
0.4899439032
 40
0.5075602729
 40
0.5250213434
 40
0.5423165268
 40
0.5594356282
 40
0.5763688815
 40
0.5931069834
 40
0.6096411284
 40
0.625963046
 40
0.6420650398
 40
0.6579400312
 40
0.6735816004
 40
0.68898403
 40
0.7041423511
 40
0.719052392
 40
0.733710832
 40
0.7481152528
 40
0.7622641919
 40
0.7761571985
 40
0.789794892
 40
0.8031790231
 40
0.8163125314
 40
0.8291996013
 40
0.8418457169
 40
0.8542577138
 40
0.8603787795
 40
0.8664445246
 40
0.8784144197
 40
0.8901792225
 40
0.8959889946
 40
0.9017523407
 40
0.913146193
 40
0.9243770775
 40
0.929937084
 40
0.9354627808
 40
0.9409564793
 40
0.9464205594
 40
0.9518574751
 40
0.9572697446
 40
0.962659945
 40
0.9680307113
 40
0.9733847243
 40
0.97872471
 40
0.9840534296
 40
0.9893736732
 40
0.9946882543
 40
1.0
 40
1.0
 40
1.0
 40
1.0
 10
15.2744053132
 20
13.9613449096
 30
0.0
 10
15.286164827
 20
13.9613449096
 30
0.0
 10
15.3098030229
 20
13.9610861544
 30
0.0
 10
15.3454133767
 20
13.959936449
 30
0.0
 10
15.3813248677
 20
13.9580242763
 30
0.0
 10
15.4174997231
 20
13.9553517101
 30
0.0
 10
15.4539005055
 20
13.9519214784
 30
0.0
 10
15.4904892547
 20
13.9477371706
 30
0.0
 10
15.5272279107
 20
13.9428031417
 30
0.0
 10
15.5640782313
 20
13.9371245316
 30
0.0
 10
15.6010018604
 20
13.9307072524
 30
0.0
 10
15.6379603649
 20
13.9235579809
 30
0.0
 10
15.6749152724
 20
13.9156841536
 30
0.0
 10
15.7118281154
 20
13.9070939717
 30
0.0
 10
15.7486604694
 20
13.8977963806
 30
0.0
 10
15.7853739928
 20
13.8878010588
 30
0.0
 10
15.821930467
 20
13.8771184091
 30
0.0
 10
15.8582918349
 20
13.8657595463
 30
0.0
 10
15.8944202455
 20
13.8537362996
 30
0.0
 10
15.9302780906
 20
13.8410611883
 30
0.0
 10
15.965828043
 20
13.8277474072
 30
0.0
 10
16.0010330952
 20
13.8138088137
 30
0.0
 10
16.0358565975
 20
13.7992599117
 30
0.0
 10
16.070262302
 20
13.7841158498
 30
0.0
 10
16.1042143973
 20
13.7683923949
 30
0.0
 10
16.1376775432
 20
13.752105913
 30
0.0
 10
16.1706169081
 20
13.7352733537
 30
0.0
 10
16.2029982041
 20
13.7179122302
 30
0.0
 10
16.2347877311
 20
13.7000406141
 30
0.0
 10
16.2659524068
 20
13.6816771059
 30
0.0
 10
16.2964597989
 20
13.6628408133
 30
0.0
 10
16.326278158
 20
13.6435513327
 30
0.0
 10
16.3553764505
 20
13.623828726
 30
0.0
 10
16.3837244003
 20
13.6036935112
 30
0.0
 10
16.4112925145
 20
13.5831666323
 30
0.0
 10
16.4380521106
 20
13.562269434
 30
0.0
 10
16.4639753454
 20
13.5410236412
 30
0.0
 10
16.4890352431
 20
13.5194513326
 30
0.0
 10
16.5132057344
 20
13.4975749291
 30
0.0
 10
16.5364616768
 20
13.4754171615
 30
0.0
 10
16.5587788749
 20
13.4530010438
 30
0.0
 10
16.5801341053
 20
13.4303498507
 30
0.0
 10
16.6005051373
 20
13.4074870898
 30
0.0
 10
16.6198707686
 20
13.3844364869
 30
0.0
 10
16.6382108394
 20
13.361221954
 30
0.0
 10
16.6555062441
 20
13.3378675624
 30
0.0
 10
16.6717389503
 20
13.3143975186
 30
0.0
 10
16.6868920109
 20
13.2908361401
 30
0.0
 10
16.7009495987
 20
13.2672078297
 30
0.0
 10
16.7138969996
 20
13.2435370828
 30
0.0
 10
16.7257206645
 20
13.2198483312
 30
0.0
 10
16.7364080447
 20
13.1961663983
 30
0.0
 10
16.7443946667
 20
13.1763663148
 30
0.0
 10
16.7501962213
 20
13.1605571173
 30
0.0
 10
16.7555597332
 20
13.1449136183
 30
0.0
 10
16.7615461853
 20
13.1254046983
 30
0.0
 10
16.7666017039
 20
13.1058143666
 30
0.0
 10
16.7700471298
 20
13.0902131209
 30
0.0
 10
16.7730722571
 20
13.0747837009
 30
0.0
 10
16.7761225219
 20
13.0555834126
 30
0.0
 10
16.7781992822
 20
13.0363929508
 30
0.0
 10
16.7792576468
 20
13.0211515345
 30
0.0
 10
16.7797505625
 20
13.0098115783
 30
0.0
 10
16.7799451148
 20
12.9985282982
 30
0.0
 10
16.7798411975
 20
12.9873045581
 30
0.0
 10
16.7794388581
 20
12.9761433129
 30
0.0
 10
16.7787382028
 20
12.9650474718
 30
0.0
 10
16.7777393605
 20
12.9540199406
 30
0.0
 10
16.776442652
 20
12.943063597
 30
0.0
 10
16.7748483485
 20
12.9321813133
 30
0.0
 10
16.7729568958
 20
12.9213759315
 30
0.0
 10
16.7707687929
 20
12.9106502841
 30
0.0
 10
16.7682845552
 20
12.9000071591
 30
0.0
 10
16.7655049283
 20
12.8894494362
 30
0.0
 10
16.7634550971
 20
12.8824688493
 30
0.0
 10
16.7623815382
 20
12.8789948216
 30
0.0
  0
SPLINE
  5
33A
100
AcDbEntity
  8
LAYER_FEATURE
100
AcDbSpline
 62
7
  6
CONTINUOUS
 70
0
 71
3
 72
46
 73
42
 74
0
 42
0.0000001
 43
0.0000001
 44
0.0000000001
 40
0.0
 40
0.0
 40
0.0
 40
0.0
 40
0.0475515128
 40
0.0938181003
 40
0.138742778
 40
0.1822848932
 40
0.2244077494
 40
0.2650791239
 40
0.3042752488
 40
0.3419802674
 40
0.3781873007
 40
0.4128998379
 40
0.4461327151
 40
0.4779142231
 40
0.5082872329
 40
0.5373115271
 40
0.5650657293
 40
0.5916489782
 40
0.6171830371
 40
0.6418127493
 40
0.653843676
 40
0.6657133755
 40
0.6774461856
 40
0.6890674878
 40
0.7006035824
 40
0.7120815539
 40
0.7235289766
 40
0.7349736944
 40
0.7464435902
 40
0.7579662994
 40
0.7695690055
 40
0.7812782174
 40
0.793119489
 40
0.8051173302
 40
0.8296680743
 40
0.8551078137
 40
0.881583833
 40
0.9092199484
 40
0.9381174939
 40
0.9683570681
 40
1.0
 40
1.0
 40
1.0
 40
1.0
 10
15.7425061089
 20
11.8673162015
 30
0.0
 10
15.7430568863
 20
11.869098518
 30
0.0
 10
15.7441855733
 20
11.872602196
 30
0.0
 10
15.7459861336
 20
11.8777393574
 30
0.0
 10
15.7478686226
 20
11.8826791877
 30
0.0
 10
15.7498296722
 20
11.8874129249
 30
0.0
 10
15.7518658828
 20
11.8919324972
 30
0.0
 10
15.7539737944
 20
11.8962300552
 30
0.0
 10
15.7561497117
 20
11.9002981628
 30
0.0
 10
15.7583899214
 20
11.9041297906
 30
0.0
 10
15.7606905949
 20
11.9077183298
 30
0.0
 10
15.7630477947
 20
11.9110576096
 30
0.0
 10
15.7654575923
 20
11.9141418455
 30
0.0
 10
15.7679159138
 20
11.9169657449
 30
0.0
 10
15.7704187277
 20
11.9195243818
 30
0.0
 10
15.7729619395
 20
11.921813263
 30
0.0
 10
15.7755413859
 20
11.9238283054
 30
0.0
 10
15.7781529962
 20
11.9255657231
 30
0.0
 10
15.7807922676
 20
11.9270221163
 30
0.0
 10
15.7830289353
 20
11.9280067418
 30
0.0
 10
15.7848229189
 20
11.9286461371
 30
0.0
 10
15.7861617783
 20
11.9290502696
 30
0.0
 10
15.7875037171
 20
11.9293824795
 30
0.0
 10
15.7888481669
 20
11.9296426166
 30
0.0
 10
15.79019452
 20
11.9298305072
 30
0.0
 10
15.7915421613
 20
11.929946086
 30
0.0
 10
15.7928904778
 20
11.9299893081
 30
0.0
 10
15.794238855
 20
11.9299601173
 30
0.0
 10
15.7955866742
 20
11.9298585322
 30
0.0
 10
15.7969333234
 20
11.9296846365
 30
0.0
 10
15.7982781931
 20
11.9294384986
 30
0.0
 10
15.7996206622
 20
11.9291202236
 30
0.0
 10
15.8009601655
 20
11.9287299919
 30
0.0
 10
15.802754903
 20
11.9281093646
 30
0.0
 10
15.8049929314
 20
11.9271480778
 30
0.0
 10
15.8076346843
 20
11.9257190941
 30
0.0
 10
15.810249163
 20
11.9240087165
 30
0.0
 10
15.8128319049
 20
11.9220204104
 30
0.0
 10
15.8153788275
 20
11.9197578597
 30
0.0
 10
15.8178856602
 20
11.9172252008
 30
0.0
 10
15.8194905268
 20
11.9154016605
 30
0.0
 10
15.8202859943
 20
11.9144486443
 30
0.0
  0
SPLINE
  5
33B
100
AcDbEntity
  8
LAYER_FEATURE
100
AcDbSpline
 62
7
  6
CONTINUOUS
 70
0
 71
3
 72
77
 73
73
 74
0
 42
0.0000001
 43
0.0000001
 44
0.0000000001
 40
0.0
 40
0.0
 40
0.0
 40
0.0
 40
0.0176366603
 40
0.0357018766
 40
0.0541703126
 40
0.073019266
 40
0.0922241102
 40
0.1117585924
 40
0.1315957503
 40
0.1517078638
 40
0.1720663424
 40
0.1926419362
 40
0.2134048574
 40
0.2343247739
 40
0.2553709808
 40
0.2765124251
 40
0.3189542883
 40
0.3613999708
 40
0.3825461764
 40
0.4035990381
 40
0.4245274775
 40
0.445300768
 40
0.4658885648
 40
0.4862610166
 40
0.5063888714
 40
0.5262434907
 40
0.5457970568
 40
0.5650225506
 40
0.5838939232
 40
0.6023862107
 40
0.6204755462
 40
0.6381394476
 40
0.6553567761
 40
0.6721079916
 40
0.6883753109
 40
0.7041427694
 40
0.7193966295
 40
0.7341253974
 40
0.7483202348
 40
0.7619752519
 40
0.7750877479
 40
0.7876588487
 40
0.7996937615
 40
0.8112024906
 40
0.8222004407
 40
0.8327090051
 40
0.8427564914
 40
0.8476190896
 40
0.8523805219
 40
0.861621186
 40
0.8705327358
 40
0.8748850249
 40
0.8791784965
 40
0.8834219475
 40
0.8876245605
 40
0.8917958784
 40
0.8959457157
 40
0.9000840674
 40
0.9042210384
 40
0.9083667444
 40
0.9125312196
 40
0.9167243418
 40
0.9209557256
 40
0.9252346589
 40
0.9295700635
 40
0.9384412453
 40
0.9476337604
 40
0.9572010919
 40
0.9671882957
 40
0.9776321566
 40
0.9885619523
 40
1.0
 40
1.0
 40
1.0
 40
1.0
 10
15.7425061089
 20
11.8673162015
 30
0.0
 10
15.7419399249
 20
11.8654840297
 30
0.0
 10
15.7408392541
 20
11.8617609747
 30
0.0
 10
15.7392997927
 20
11.8560752149
 30
0.0
 10
15.7378542033
 20
11.8502289839
 30
0.0
 10
15.7365050432
 20
11.8442327112
 30
0.0
 10
15.7352546126
 20
11.838096755
 30
0.0
 10
15.7341051556
 20
11.8318318317
 30
0.0
 10
15.733058652
 20
11.8254489221
 30
0.0
 10
15.732116955
 20
11.8189591798
 30
0.0
 10
15.7312817154
 20
11.81237395
 30
0.0
 10
15.7305543792
 20
11.8057047545
 30
0.0
 10
15.7299362542
 20
11.7989632552
 30
0.0
 10
15.7294283919
 20
11.792161252
 30
0.0
 10
15.7290316988
 20
11.785310623
 30
0.0
 10
15.7286514818
 20
11.7761162438
 30
0.0
 10
15.7284584049
 20
11.7645869978
 30
0.0
 10
15.728640126
 20
11.7530570501
 30
0.0
 10
15.7290112703
 20
11.7438606426
 30
0.0
 10
15.7294012003
 20
11.7370074542
 30
0.0
 10
15.7299023585
 20
11.7302021688
 30
0.0
 10
15.7305138389
 20
11.7234566693
 30
0.0
 10
15.7312345897
 20
11.7167827627
 30
0.0
 10
15.7320633449
 20
11.7101921207
 30
0.0
 10
15.7329986324
 20
11.70369627
 30
0.0
 10
15.7340388461
 20
11.6973065731
 30
0.0
 10
15.7351821265
 20
11.6910341994
 30
0.0
 10
15.7364264931
 20
11.6848901172
 30
0.0
 10
15.7377697623
 20
11.6788850649
 30
0.0
 10
15.7392095604
 20
11.6730295334
 30
0.0
 10
15.7407434019
 20
11.6673337575
 30
0.0
 10
15.7423685623
 20
11.6618076762
 30
0.0
 10
15.7440822239
 20
11.6564609395
 30
0.0
 10
15.745881387
 20
11.6513028741
 30
0.0
 10
15.7477628872
 20
11.6463424659
 30
0.0
 10
15.7497234825
 20
11.641588367
 30
0.0
 10
15.7517597154
 20
11.6370488367
 30
0.0
 10
15.7538680775
 20
11.6327317752
 30
0.0
 10
15.7560449123
 20
11.6286446768
 30
0.0
 10
15.7582864396
 20
11.6247946159
 30
0.0
 10
15.7605888555
 20
11.6211882817
 30
0.0
 10
15.7629481825
 20
11.6178318879
 30
0.0
 10
15.7653604626
 20
11.6147312563
 30
0.0
 10
15.7678216342
 20
11.6118917676
 30
0.0
 10
15.7703276228
 20
11.6093183207
 30
0.0
 10
15.7728742414
 20
11.6070155851
 30
0.0
 10
15.7750502567
 20
11.6053072194
 30
0.0
 10
15.776806382
 20
11.6040852862
 30
0.0
 10
15.77853563
 20
11.6029812335
 30
0.0
 10
15.7807167266
 20
11.601770468
 30
0.0
 10
15.782957226
 20
11.6007772912
 30
0.0
 10
15.7847544541
 20
11.6001316359
 30
0.0
 10
15.78609568
 20
11.5997231119
 30
0.0
 10
15.7874400296
 20
11.5993867696
 30
0.0
 10
15.7887869338
 20
11.5991227952
 30
0.0
 10
15.7901357729
 20
11.598931322
 30
0.0
 10
15.7914859317
 20
11.5988124167
 30
0.0
 10
15.7928367959
 20
11.5987661609
 30
0.0
 10
15.7941877443
 20
11.5987926019
 30
0.0
 10
15.7955381571
 20
11.5988916868
 30
0.0
 10
15.7968874184
 20
11.5990633673
 30
0.0
 10
15.798234909
 20
11.5993075945
 30
0.0
 10
15.7995800138
 20
11.5996242091
 30
0.0
 10
15.8009221622
 20
11.6000130559
 30
0.0
 10
15.8027204301
 20
11.6006322298
 30
0.0
 10
15.8049629417
 20
11.601592373
 30
0.0
 10
15.8076099732
 20
11.6030211691
 30
0.0
 10
15.8102296899
 20
11.6047324098
 30
0.0
 10
15.812817551
 20
11.6067226934
 30
0.0
 10
15.8153694835
 20
11.6089882688
 30
0.0
 10
15.8178811971
 20
11.6115249815
 30
0.0
 10
15.8194890499
 20
11.6133517602
 30
0.0
 10
15.8202859933
 20
11.6143065428
 30
0.0
  0
SPLINE
  5
33C
100
AcDbEntity
  8
LAYER_FEATURE
100
AcDbSpline
 62
7
  6
CONTINUOUS
 70
0
 71
3
 72
48
 73
44
 74
0
 42
0.0000001
 43
0.0000001
 44
0.0000000001
 40
0.0
 40
0.0
 40
0.0
 40
0.0
 40
0.0396643164
 40
0.0788610285
 40
0.1175666373
 40
0.1557604662
 40
0.1934225072
 40
0.2305346717
 40
0.2670805032
 40
0.3030454104
 40
0.3384167745
 40
0.3731840801
 40
0.4073390569
 40
0.4408758239
 40
0.473791042
 40
0.5060840726
 40
0.5377571353
 40
0.5688154668
 40
0.5992674822
 40
0.6291249306
 40
0.6584030448
 40
0.6728314457
 40
0.6871223987
 40
0.7153021386
 40
0.7429703868
 40
0.7566230099
 40
0.7701594372
 40
0.7968993662
 40
0.8232301401
 40
0.8362561141
 40
0.8491957112
 40
0.8620546759
 40
0.8748389507
 40
0.8875546761
 40
0.9002081598
 40
0.912805884
 40
0.9253544735
 40
0.9378606901
 40
0.9503314134
 40
0.9627736188
 40
0.9751943663
 40
0.9876007731
 40
1.0
 40
1.0
 40
1.0
 40
1.0
 10
14.9243774096
 20
12.8286541983
 30
0.0
 10
14.9122613828
 20
12.8286541983
 30
0.0
 10
14.8881712053
 20
12.8283825119
 30
0.0
 10
14.8522770142
 20
12.8271442
 30
0.0
 10
14.816870526
 20
12.8250787559
 30
0.0
 10
14.7819920843
 20
12.822188572
 30
0.0
 10
14.7476808551
 20
12.818476837
 30
0.0
 10
14.7139756193
 20
12.8139477402
 30
0.0
 10
14.6809143778
 20
12.8086063475
 30
0.0
 10
14.6485344257
 20
12.8024586547
 30
0.0
 10
14.6168722786
 20
12.7955115541
 30
0.0
 10
14.585963641
 20
12.787772828
 30
0.0
 10
14.5558433672
 20
12.7792511384
 30
0.0
 10
14.5265454233
 20
12.7699560157
 30
0.0
 10
14.49810285
 20
12.7598978442
 30
0.0
 10
14.4705477266
 20
12.7490878611
 30
0.0
 10
14.4439111311
 20
12.737538127
 30
0.0
 10
14.4182231468
 20
12.7252615344
 30
0.0
 10
14.3935127059
 20
12.7122717078
 30
0.0
 10
14.3698080277
 20
12.6985832987
 30
0.0
 10
14.3508226684
 20
12.686548514
 30
0.0
 10
14.336173237
 20
12.6765835777
 30
0.0
 10
14.3220186573
 20
12.6664951704
 30
0.0
 10
14.3049892218
 20
12.6534814083
 30
0.0
 10
14.2887293373
 20
12.6398181039
 30
0.0
 10
14.2762974833
 20
12.6285800653
 30
0.0
 10
14.2643494656
 20
12.6172370767
 30
0.0
 10
14.2501173503
 20
12.6026844131
 30
0.0
 10
14.2367531313
 20
12.5875372128
 30
0.0
 10
14.2266680408
 20
12.5751464147
 30
0.0
 10
14.2194297457
 20
12.5657501223
 30
0.0
 10
14.2124924948
 20
12.5562206515
 30
0.0
 10
14.2058582335
 20
12.5465606084
 30
0.0
 10
14.1995288143
 20
12.5367727795
 30
0.0
 10
14.1935060981
 20
12.5268598885
 30
0.0
 10
14.1877917485
 20
12.5168247786
 30
0.0
 10
14.1823874244
 20
12.5066702725
 30
0.0
 10
14.1772946684
 20
12.4963992503
 30
0.0
 10
14.1725148972
 20
12.4860146382
 30
0.0
 10
14.168049536
 20
12.4755193642
 30
0.0
 10
14.1638997774
 20
12.4649164041
 30
0.0
 10
14.1600669007
 20
12.4542088667
 30
0.0
 10
14.1577232898
 20
12.4470018251
 30
0.0
 10
14.1566050317
 20
12.4433831512
 30
0.0
  0
SPLINE
  5
33D
100
AcDbEntity
  8
LAYER_FEATURE
100
AcDbSpline
 62
7
  6
CONTINUOUS
 70
0
 71
3
 72
48
 73
44
 74
0
 42
0.0000001
 43
0.0000001
 44
0.0000000001
 40
0.0
 40
0.0
 40
0.0
 40
0.0
 40
0.0396643164
 40
0.0788610285
 40
0.1175666373
 40
0.1557604662
 40
0.1934225072
 40
0.2305346717
 40
0.2670805032
 40
0.3030454104
 40
0.3384167745
 40
0.3731840801
 40
0.4073390569
 40
0.4408758239
 40
0.473791042
 40
0.5060840726
 40
0.5377571353
 40
0.5688154668
 40
0.5992674822
 40
0.6291249306
 40
0.6584030448
 40
0.6728314457
 40
0.6871223987
 40
0.7153021386
 40
0.7429703868
 40
0.7566230099
 40
0.7701594372
 40
0.7968993662
 40
0.8232301401
 40
0.8362561141
 40
0.8491957112
 40
0.8620546759
 40
0.8748389507
 40
0.8875546761
 40
0.9002081598
 40
0.912805884
 40
0.9253544735
 40
0.9378606901
 40
0.9503314134
 40
0.9627736188
 40
0.9751943663
 40
0.9876007731
 40
1.0
 40
1.0
 40
1.0
 40
1.0
 10
15.2744053132
 20
13.9613449096
 30
0.0
 10
15.2622892864
 20
13.9613449096
 30
0.0
 10
15.2381991089
 20
13.9610732232
 30
0.0
 10
15.2023049178
 20
13.9598349113
 30
0.0
 10
15.1668984296
 20
13.9577694672
 30
0.0
 10
15.1320199879
 20
13.9548792833
 30
0.0
 10
15.0977087588
 20
13.9511675484
 30
0.0
 10
15.064003523
 20
13.9466384515
 30
0.0
 10
15.0309422815
 20
13.9412970588
 30
0.0
 10
14.9985623293
 20
13.935149366
 30
0.0
 10
14.9669001822
 20
13.9282022654
 30
0.0
 10
14.9359915446
 20
13.9204635393
 30
0.0
 10
14.9058712709
 20
13.9119418497
 30
0.0
 10
14.8765733269
 20
13.902646727
 30
0.0
 10
14.8481307536
 20
13.8925885555
 30
0.0
 10
14.8205756302
 20
13.8817785724
 30
0.0
 10
14.7939390347
 20
13.8702288384
 30
0.0
 10
14.7682510504
 20
13.8579522457
 30
0.0
 10
14.7435406096
 20
13.8449624191
 30
0.0
 10
14.7198359313
 20
13.83127401
 30
0.0
 10
14.700850572
 20
13.8192392253
 30
0.0
 10
14.6862011406
 20
13.809274289
 30
0.0
 10
14.672046561
 20
13.7991858817
 30
0.0
 10
14.6550171254
 20
13.7861721196
 30
0.0
 10
14.638757241
 20
13.7725088152
 30
0.0
 10
14.626325387
 20
13.7612707766
 30
0.0
 10
14.6143773692
 20
13.749927788
 30
0.0
 10
14.600145254
 20
13.7353751244
 30
0.0
 10
14.586781035
 20
13.7202279241
 30
0.0
 10
14.5766959445
 20
13.707837126
 30
0.0
 10
14.5694576493
 20
13.6984408337
 30
0.0
 10
14.5625203984
 20
13.6889113629
 30
0.0
 10
14.5558861372
 20
13.6792513197
 30
0.0
 10
14.549556718
 20
13.6694634908
 30
0.0
 10
14.5435340017
 20
13.6595505998
 30
0.0
 10
14.5378196521
 20
13.6495154899
 30
0.0
 10
14.532415328
 20
13.6393609838
 30
0.0
 10
14.5273225721
 20
13.6290899616
 30
0.0
 10
14.5225428009
 20
13.6187053496
 30
0.0
 10
14.5180774397
 20
13.6082100755
 30
0.0
 10
14.5139276811
 20
13.5976071154
 30
0.0
 10
14.5100948044
 20
13.586899578
 30
0.0
 10
14.5077511935
 20
13.5796925365
 30
0.0
 10
14.5066329353
 20
13.5760738625
 30
0.0
  0
SPLINE
  5
33E
100
AcDbEntity
  8
LAYER_FEATURE
100
AcDbSpline
 62
7
  6
CONTINUOUS
 70
0
 71
3
 72
115
 73
111
 74
0
 42
0.0000001
 43
0.0000001
 44
0.0000000001
 40
0.0
 40
0.0
 40
0.0
 40
0.0
 40
0.0090857466
 40
0.0182381102
 40
0.0274537924
 40
0.0367301171
 40
0.0554529452
 40
0.0743832409
 40
0.0934962891
 40
0.112766522
 40
0.1321676902
 40
0.1516729748
 40
0.1712551122
 40
0.1908865129
 40
0.21053938
 40
0.2301858263
 40
0.249797992
 40
0.2693481609
 40
0.2888088787
 40
0.3081530718
 40
0.3273541675
 40
0.346386217
 40
0.365224021
 40
0.3745626899
 40
0.3838437593
 40
0.3930643456
 40
0.4022216439
 40
0.4113129184
 40
0.4203355215
 40
0.4292868851
 40
0.4381645362
 40
0.4469660948
 40
0.4556892814
 40
0.4643319248
 40
0.4728919601
 40
0.4813674464
 40
0.489756556
 40
0.4980575997
 40
0.5062690129
 40
0.5143893806
 40
0.5224174281
 40
0.5303520391
 40
0.5381922567
 40
0.5459372903
 40
0.5535865294
 40
0.5611395387
 40
0.5685960831
 40
0.5759561148
 40
0.5832198033
 40
0.5903875219
 40
0.5974598745
 40
0.6044376895
 40
0.6113220357
 40
0.6248145157
 40
0.6314273578
 40
0.637953527
 40
0.6443953911
 40
0.6507555837
 40
0.6570370259
 40
0.6632429119
 40
0.6693767218
 40
0.6754422115
 40
0.6814434123
 40
0.687384626
 40
0.693270411
 40
0.6991055787
 40
0.7048951699
 40
0.7106444476
 40
0.7163588677
 40
0.722044064
 40
0.7277058175
 40
0.7333500321
 40
0.7389827037
 40
0.7446098895
 40
0.750237676
 40
0.7558721468
 40
0.7615193489
 40
0.7671852633
 40
0.7728757708
 40
0.7785966271
 40
0.7843534308
 40
0.7901516037
 40
0.7959963644
 40
0.8018927109
 40
0.8078454057
 40
0.8138589563
 40
0.819937614
 40
0.8260853528
 40
0.8323058789
 40
0.8386026109
 40
0.8449786942
 40
0.8514369884
 40
0.86460886
 40
0.8713281967
 40
0.8781384531
 40
0.8920363275
 40
0.8991274334
 40
0.9063140456
 40
0.9135967155
 40
0.9209757815
 40
0.9284513647
 40
0.9360233832
 40
0.94369156
 40
0.9514554245
 40
0.9593143322
 40
0.9672674554
 40
0.9753138104
 40
0.9834522428
 40
0.9916814559
 40
1.0
 40
1.0
 40
1.0
 40
1.0
 10
14.9832849806
 20
12.7852095625
 30
0.0
 10
14.9906137342
 20
12.7852095625
 30
0.0
 10
15.0053252209
 20
12.785095061
 30
0.0
 10
15.0274649351
 20
12.7845845229
 30
0.0
 10
15.0497481449
 20
12.7837347212
 30
0.0
 10
15.0797252001
 20
12.782145134
 30
0.0
 10
15.117478742
 20
12.7793066791
 30
0.0
 10
15.163027532
 20
12.7745668109
 30
0.0
 10
15.2088631644
 20
12.7684928104
 30
0.0
 10
15.2548887662
 20
12.7610975034
 30
0.0
 10
15.3010073814
 20
12.7523964788
 30
0.0
 10
15.3471217612
 20
12.7424080819
 30
0.0
 10
15.3931346833
 20
12.7311533718
 30
0.0
 10
15.438949128
 20
12.7186560785
 30
0.0
 10
15.4844684931
 20
12.7049425522
 30
0.0
 10
15.5295967971
 20
12.6900417095
 30
0.0
 10
15.574238884
 20
12.6739849704
 30
0.0
 10
15.6183006238
 20
12.6568061924
 30
0.0
 10
15.661689119
 20
12.6385415941
 30
0.0
 10
15.7043128744
 20
12.619229692
 30
0.0
 10
15.7460820951
 20
12.598911165
 30
0.0
 10
15.7869084919
 20
12.5776289625
 30
0.0
 10
15.8201684254
 20
12.5590749612
 30
0.0
 10
15.8462285097
 20
12.5437839868
 30
0.0
 10
15.8654291989
 20
12.5321362362
 30
0.0
 10
15.8843309088
 20
12.5202824979
 30
0.0
 10
15.9029237384
 20
12.5082290404
 30
0.0
 10
15.9211978366
 20
12.4959821833
 30
0.0
 10
15.9391435908
 20
12.4835484299
 30
0.0
 10
15.9567515087
 20
12.4709343037
 30
0.0
 10
15.9740123158
 20
12.4581464837
 30
0.0
 10
15.9909168972
 20
12.4451917035
 30
0.0
 10
16.0074563316
 20
12.4320767935
 30
0.0
 10
16.0236219044
 20
12.418808687
 30
0.0
 10
16.0394050651
 20
12.4053943521
 30
0.0
 10
16.0547975158
 20
12.3918409017
 30
0.0
 10
16.0697910997
 20
12.3781554364
 30
0.0
 10
16.0843779445
 20
12.3643452193
 30
0.0
 10
16.0985503163
 20
12.3504174858
 30
0.0
 10
16.11230077
 20
12.3363796156
 30
0.0
 10
16.1256220256
 20
12.3222389796
 30
0.0
 10
16.1385070674
 20
12.3080030452
 30
0.0
 10
16.1509490944
 20
12.2936793121
 30
0.0
 10
16.1629415274
 20
12.2792753151
 30
0.0
 10
16.1744780621
 20
12.2647986664
 30
0.0
 10
16.1855525696
 20
12.250256957
 30
0.0
 10
16.1961592491
 20
12.2356578866
 30
0.0
 10
16.2062924455
 20
12.2210090982
 30
0.0
 10
16.2159468555
 20
12.2063183517
 30
0.0
 10
16.2251173361
 20
12.1915933268
 30
0.0
 10
16.2337990418
 20
12.1768418704
 30
0.0
 10
16.2419874756
 20
12.1620714827
 30
0.0
 10
16.2521726278
 20
12.1424960034
 30
0.0
 10
16.2614372279
 20
12.1227802559
 30
0.0
 10
16.2697243923
 20
12.1029590094
 30
0.0
 10
16.2753861472
 20
12.0882116822
 30
0.0
 10
16.2805324256
 20
12.07349244
 30
0.0
 10
16.2851604795
 20
12.0588088312
 30
0.0
 10
16.2892678739
 20
12.0441686664
 30
0.0
 10
16.2928523467
 20
12.0295796345
 30
0.0
 10
16.2959119962
 20
12.0150494484
 30
0.0
 10
16.2984451421
 20
12.0005857744
 30
0.0
 10
16.3004503886
 20
11.9861962559
 30
0.0
 10
16.3019266572
 20
11.9718885086
 30
0.0
 10
16.3028730623
 20
11.957670102
 30
0.0
 10
16.3032891263
 20
11.9435485784
 30
0.0
 10
16.3031744972
 20
11.9295314268
 30
0.0
 10
16.3025292801
 20
11.9156260939
 30
0.0
 10
16.3013536943
 20
11.9018399756
 30
0.0
 10
16.2996483996
 20
11.8881804048
 30
0.0
 10
16.2974142226
 20
11.8746546619
 30
0.0
 10
16.2946523561
 20
11.861269953
 30
0.0
 10
16.2913642535
 20
11.8480334131
 30
0.0
 10
16.2875516325
 20
11.8349521089
 30
0.0
 10
16.2832165711
 20
11.8220330003
 30
0.0
 10
16.278361318
 20
11.8092829974
 30
0.0
 10
16.2729885514
 20
11.7967088615
 30
0.0
 10
16.267101069
 20
11.7843173218
 30
0.0
 10
16.2607021089
 20
11.7721149292
 30
0.0
 10
16.2537950382
 20
11.7601081996
 30
0.0
 10
16.2463836133
 20
11.7483034725
 30
0.0
 10
16.2384717784
 20
11.7367070182
 30
0.0
 10
16.2300637805
 20
11.7253249658
 30
0.0
 10
16.2211641314
 20
11.7141633156
 30
0.0
 10
16.2117775568
 20
11.7032279821
 30
0.0
 10
16.2019091117
 20
11.6925246845
 30
0.0
 10
16.1915640012
 20
11.6820591082
 30
0.0
 10
16.1807477927
 20
11.6718366968
 30
0.0
 10
16.1694661698
 20
11.6618628736
 30
0.0
 10
16.1577252154
 20
11.6521428476
 30
0.0
 10
16.1455309512
 20
11.6426816492
 30
0.0
 10
16.1285663763
 20
11.6303384712
 30
0.0
 10
16.1108181794
 20
11.6186186103
 30
0.0
 10
16.0923555584
 20
11.6075233112
 30
0.0
 10
16.0730816447
 20
11.5966570317
 30
0.0
 10
16.0531047368
 20
11.5864449113
 30
0.0
 10
16.0324872777
 20
11.576878605
 30
0.0
 10
16.0165323508
 20
11.5699536063
 30
0.0
 10
16.0001990582
 20
11.5633306596
 30
0.0
 10
15.9834957793
 20
11.5570131712
 30
0.0
 10
15.9664313921
 20
11.5510044672
 30
0.0
 10
15.9490148796
 20
11.5453076935
 30
0.0
 10
15.9312554272
 20
11.5399258642
 30
0.0
 10
15.9131624081
 20
11.5348617683
 30
0.0
 10
15.8947453541
 20
11.530118118
 30
0.0
 10
15.8760139879
 20
11.5256973458
 30
0.0
 10
15.8569781832
 20
11.5216018404
 30
0.0
 10
15.8376479668
 20
11.5178336898
 30
0.0
 10
15.8180336102
 20
11.5143949435
 30
0.0
 10
15.8048449872
 20
11.5123341818
 30
0.0
 10
15.7982064273
 20
11.5113582509
 30
0.0
  0
SPLINE
  5
33F
100
AcDbEntity
  8
LAYER_FEATURE
100
AcDbSpline
 62
7
  6
CONTINUOUS
 70
0
 71
3
 72
83
 73
79
 74
0
 42
0.0000001
 43
0.0000001
 44
0.0000000001
 40
0.0
 40
0.0
 40
0.0
 40
0.0
 40
0.0203227666
 40
0.0404296588
 40
0.0603101998
 40
0.0799558077
 40
0.0993578141
 40
0.1185082756
 40
0.1373999154
 40
0.156026096
 40
0.1743809179
 40
0.1924592493
 40
0.2102567646
 40
0.2277699974
 40
0.2449964004
 40
0.2619343883
 40
0.2785833885
 40
0.2949439014
 40
0.3110175623
 40
0.3268071863
 40
0.3423168233
 40
0.3575518208
 40
0.3725188715
 40
0.3799047418
 40
0.3872267761
 40
0.4016835873
 40
0.4159009936
 40
0.4298914327
 40
0.4436688167
 40
0.4572485229
 40
0.4706473642
 40
0.4838835248
 40
0.4969764795
 40
0.5034761936
 40
0.509947947
 40
0.5163944868
 40
0.522818612
 40
0.5292231759
 40
0.5356110746
 40
0.5419852415
 40
0.548348644
 40
0.5547042728
 40
0.5610551375
 40
0.567404259
 40
0.5737546621
 40
0.5801093688
 40
0.5864713903
 40
0.5928437219
 40
0.5992293336
 40
0.6056311647
 40
0.6120521192
 40
0.6184950541
 40
0.6249627795
 40
0.6379825168
 40
0.6511336879
 40
0.664436466
 40
0.6779097927
 40
0.691571281
 40
0.7054371376
 40
0.7195221222
 40
0.733839526
 40
0.7410895126
 40
0.7484019067
 40
0.7632181096
 40
0.7782977763
 40
0.7936483951
 40
0.8092760798
 40
0.8251856194
 40
0.8413805376
 40
0.8578631448
 40
0.8746345836
 40
0.8916948935
 40
0.9090430701
 40
0.9266771135
 40
0.944594076
 40
0.9627901239
 40
0.9812605876
 40
1.0
 40
1.0
 40
1.0
 40
1.0
 10
14.9832849806
 20
12.7852095625
 30
0.0
 10
14.9736469258
 20
12.7852095625
 30
0.0
 10
14.9544725703
 20
12.7850133416
 30
0.0
 10
14.92588241
 20
12.7841201011
 30
0.0
 10
14.8976385119
 20
12.7826302067
 30
0.0
 10
14.8697674747
 20
12.7805451106
 30
0.0
 10
14.842294951
 20
12.7778666883
 30
0.0
 10
14.8152465012
 20
12.774597437
 30
0.0
 10
14.7886472197
 20
12.7707403835
 30
0.0
 10
14.7625217866
 20
12.7662990687
 30
0.0
 10
14.7368944448
 20
12.761277601
 30
0.0
 10
14.7117889662
 20
12.755680626
 30
0.0
 10
14.6872286427
 20
12.7495133028
 30
0.0
 10
14.6632362638
 20
12.7427813024
 30
0.0
 10
14.6398340821
 20
12.7354908438
 30
0.0
 10
14.6170438043
 20
12.7276486475
 30
0.0
 10
14.5948865793
 20
12.7192619214
 30
0.0
 10
14.5733829729
 20
12.7103383734
 30
0.0
 10
14.5525529325
 20
12.7008862216
 30
0.0
 10
14.5324158123
 20
12.6909141608
 30
0.0
 10
14.5129902795
 20
12.6804312993
 30
0.0
 10
14.4942945789
 20
12.6694473857
 30
0.0
 10
14.4792715805
 20
12.6598428322
 30
0.0
 10
14.4676415241
 20
12.6519167322
 30
0.0
 10
14.4563682878
 20
12.6439016607
 30
0.0
 10
14.4427556632
 20
12.6335915166
 30
0.0
 10
14.427145865
 20
12.620708302
 30
0.0
 10
14.4123457493
 20
12.6073786984
 30
0.0
 10
14.3983693804
 20
12.5936150735
 30
0.0
 10
14.385229907
 20
12.5794301007
 30
0.0
 10
14.372939695
 20
12.5648368319
 30
0.0
 10
14.3615105534
 20
12.5498490712
 30
0.0
 10
14.3526911148
 20
12.5370102628
 30
0.0
 10
14.346084063
 20
12.5265618531
 30
0.0
 10
14.3413619233
 20
12.5186545162
 30
0.0
 10
14.3368623872
 20
12.5106595863
 30
0.0
 10
14.332586511
 20
12.5025788412
 30
0.0
 10
14.3285352766
 20
12.4944141967
 30
0.0
 10
14.32470962
 20
12.486167554
 30
0.0
 10
14.3211104817
 20
12.4778408171
 30
0.0
 10
14.3177386549
 20
12.4694359494
 30
0.0
 10
14.3145949472
 20
12.4609549021
 30
0.0
 10
14.311680117
 20
12.4523996468
 30
0.0
 10
14.3089947959
 20
12.4437721964
 30
0.0
 10
14.3065396526
 20
12.4350745503
 30
0.0
 10
14.304315253
 20
12.4263087422
 30
0.0
 10
14.3023220806
 20
12.4174768255
 30
0.0
 10
14.3005606523
 20
12.4085808492
 30
0.0
 10
14.2990313406
 20
12.3996228994
 30
0.0
 10
14.2977344916
 20
12.3906050605
 30
0.0
 10
14.2966704507
 20
12.3815294509
 30
0.0
 10
14.2958394112
 20
12.3723981201
 30
0.0
 10
14.2950405779
 20
12.3601255017
 30
0.0
 10
14.2946291022
 20
12.3446448683
 30
0.0
 10
14.2950714213
 20
12.3259222382
 30
0.0
 10
14.2964479933
 20
12.3070293562
 30
0.0
 10
14.2987573724
 20
12.2879842254
 30
0.0
 10
14.3019972071
 20
12.2688045476
 30
0.0
 10
14.306164276
 20
12.2495081582
 30
0.0
 10
14.3112544361
 20
12.2301131731
 30
0.0
 10
14.3162404764
 20
12.2139513634
 30
0.0
 10
14.3206789386
 20
12.2009934329
 30
0.0
 10
14.3254599735
 20
12.1879057646
 30
0.0
 10
14.3320107201
 20
12.171515452
 30
0.0
 10
14.3407360134
 20
12.1519059549
 30
0.0
 10
14.3503516789
 20
12.132287946
 30
0.0
 10
14.3608486115
 20
12.1126797766
 30
0.0
 10
14.3722169973
 20
12.0930995104
 30
0.0
 10
14.3844462189
 20
12.0735652681
 30
0.0
 10
14.3975248924
 20
12.0540951189
 30
0.0
 10
14.4114408241
 20
12.0347070653
 30
0.0
 10
14.4261810605
 20
12.0154190406
 30
0.0
 10
14.4417319047
 20
11.9962489003
 30
0.0
 10
14.458078916
 20
11.9772143955
 30
0.0
 10
14.4752068835
 20
11.9583331508
 30
0.0
 10
14.4930999375
 20
11.9396226199
 30
0.0
 10
14.5117413273
 20
11.9211002814
 30
0.0
 10
14.5245653832
 20
11.9089749139
 30
0.0
 10
14.5310955885
 20
11.9029468246
 30
0.0
  0
SPLINE
  5
340
100
AcDbEntity
  8
LAYER_FEATURE
100
AcDbSpline
 62
7
  6
CONTINUOUS
 70
0
 71
3
 72
80
 73
76
 74
0
 42
0.0000001
 43
0.0000001
 44
0.0000000001
 40
0.0
 40
0.0
 40
0.0
 40
0.0
 40
0.0171786082
 40
0.034530198
 40
0.0520439838
 40
0.0697095606
 40
0.0875157518
 40
0.105451206
 40
0.1235042506
 40
0.1416629551
 40
0.1599151638
 40
0.1782485183
 40
0.196650488
 40
0.215108397
 40
0.2336094524
 40
0.252140772
 40
0.2706894107
 40
0.289242387
 40
0.3077867108
 40
0.3263094098
 40
0.3447975567
 40
0.363238296
 40
0.3816188704
 40
0.3999266494
 40
0.4181491568
 40
0.4362740982
 40
0.4542893888
 40
0.4721831827
 40
0.4899439032
 40
0.5075602729
 40
0.5250213434
 40
0.5423165268
 40
0.5594356282
 40
0.5763688815
 40
0.5931069834
 40
0.6096411284
 40
0.625963046
 40
0.6420650398
 40
0.6579400312
 40
0.6735816004
 40
0.68898403
 40
0.7041423511
 40
0.719052392
 40
0.733710832
 40
0.7481152528
 40
0.7622641919
 40
0.7761571985
 40
0.789794892
 40
0.8031790231
 40
0.8163125314
 40
0.8291996013
 40
0.8418457169
 40
0.8542577138
 40
0.8603787795
 40
0.8664445246
 40
0.8784144197
 40
0.8901792225
 40
0.8959889946
 40
0.9017523407
 40
0.913146193
 40
0.9243770775
 40
0.929937084
 40
0.9354627808
 40
0.9409564793
 40
0.9464205594
 40
0.9518574751
 40
0.9572697446
 40
0.962659945
 40
0.9680307113
 40
0.9733847243
 40
0.97872471
 40
0.9840534296
 40
0.9893736732
 40
0.9946882543
 40
1.0
 40
1.0
 40
1.0
 40
1.0
 10
14.9243774096
 20
12.8286541983
 30
0.0
 10
14.9361369233
 20
12.8286541983
 30
0.0
 10
14.9597751192
 20
12.828395443
 30
0.0
 10
14.9953854731
 20
12.8272457376
 30
0.0
 10
15.0312969641
 20
12.825333565
 30
0.0
 10
15.0674718195
 20
12.8226609988
 30
0.0
 10
15.1038726018
 20
12.8192307671
 30
0.0
 10
15.1404613511
 20
12.8150464592
 30
0.0
 10
15.177200007
 20
12.8101124304
 30
0.0
 10
15.2140503277
 20
12.8044338203
 30
0.0
 10
15.2509739567
 20
12.7980165411
 30
0.0
 10
15.2879324612
 20
12.7908672696
 30
0.0
 10
15.3248873687
 20
12.7829934423
 30
0.0
 10
15.3618002117
 20
12.7744032604
 30
0.0
 10
15.3986325657
 20
12.7651056692
 30
0.0
 10
15.4353460892
 20
12.7551103475
 30
0.0
 10
15.4719025634
 20
12.7444276978
 30
0.0
 10
15.5082639313
 20
12.7330688349
 30
0.0
 10
15.5443923419
 20
12.7210455882
 30
0.0
 10
15.5802501869
 20
12.708370477
 30
0.0
 10
15.6158001393
 20
12.6950566959
 30
0.0
 10
15.6510051916
 20
12.6811181024
 30
0.0
 10
15.6858286938
 20
12.6665692003
 30
0.0
 10
15.7202343984
 20
12.6514251385
 30
0.0
 10
15.7541864936
 20
12.6357016836
 30
0.0
 10
15.7876496396
 20
12.6194152016
 30
0.0
 10
15.8205890044
 20
12.6025826423
 30
0.0
 10
15.8529703004
 20
12.5852215189
 30
0.0
 10
15.8847598274
 20
12.5673499028
 30
0.0
 10
15.9159245032
 20
12.5489863946
 30
0.0
 10
15.9464318952
 20
12.530150102
 30
0.0
 10
15.9762502543
 20
12.5108606214
 30
0.0
 10
16.0053485469
 20
12.4911380147
 30
0.0
 10
16.0336964966
 20
12.4710027999
 30
0.0
 10
16.0612646109
 20
12.450475921
 30
0.0
 10
16.088024207
 20
12.4295787227
 30
0.0
 10
16.1139474417
 20
12.4083329299
 30
0.0
 10
16.1390073395
 20
12.3867606213
 30
0.0
 10
16.1631778307
 20
12.3648842178
 30
0.0
 10
16.1864337731
 20
12.3427264502
 30
0.0
 10
16.2087509713
 20
12.3203103325
 30
0.0
 10
16.2301062017
 20
12.2976591394
 30
0.0
 10
16.2504772337
 20
12.2747963785
 30
0.0
 10
16.269842865
 20
12.2517457755
 30
0.0
 10
16.2881829358
 20
12.2285312427
 30
0.0
 10
16.3054783405
 20
12.2051768511
 30
0.0
 10
16.3217110466
 20
12.1817068073
 30
0.0
 10
16.3368641073
 20
12.1581454287
 30
0.0
 10
16.3509216951
 20
12.1345171184
 30
0.0
 10
16.3638690959
 20
12.1108463715
 30
0.0
 10
16.3756927609
 20
12.0871576199
 30
0.0
 10
16.386380141
 20
12.063475687
 30
0.0
 10
16.394366763
 20
12.0436756035
 30
0.0
 10
16.4001683177
 20
12.027866406
 30
0.0
 10
16.4055318295
 20
12.012222907
 30
0.0
 10
16.4115182816
 20
11.992713987
 30
0.0
 10
16.4165738003
 20
11.9731236552
 30
0.0
 10
16.4200192262
 20
11.9575224096
 30
0.0
 10
16.4230443534
 20
11.9420929896
 30
0.0
 10
16.4260946182
 20
11.9228927012
 30
0.0
 10
16.4281713786
 20
11.9037022395
 30
0.0
 10
16.4292297431
 20
11.8884608232
 30
0.0
 10
16.4297226588
 20
11.8771208669
 30
0.0
 10
16.4299172111
 20
11.8658375869
 30
0.0
 10
16.4298132938
 20
11.8546138467
 30
0.0
 10
16.4294109545
 20
11.8434526016
 30
0.0
 10
16.4287102992
 20
11.8323567604
 30
0.0
 10
16.4277114569
 20
11.8213292293
 30
0.0
 10
16.4264147483
 20
11.8103728856
 30
0.0
 10
16.4248204449
 20
11.799490602
 30
0.0
 10
16.4229289922
 20
11.7886852202
 30
0.0
 10
16.4207408892
 20
11.7779595727
 30
0.0
 10
16.4182566516
 20
11.7673164478
 30
0.0
 10
16.4154770247
 20
11.7567587249
 30
0.0
 10
16.4134271934
 20
11.7497781379
 30
0.0
 10
16.4123536346
 20
11.7463041103
 30
0.0
  0
SPLINE
  5
341
100
AcDbEntity
  8
LAYER_FEATURE
100
AcDbSpline
 62
7
  6
CONTINUOUS
 70
0
 71
3
 72
15
 73
11
 74
0
 42
0.0000001
 43
0.0000001
 44
0.0000000001
 40
0.0
 40
0.0
 40
0.0
 40
0.0
 40
0.1137040274
 40
0.2311261035
 40
0.3520553752
 40
0.4762691798
 40
0.6034909306
 40
0.7334099983
 40
0.8657068189
 40
1.0
 40
1.0
 40
1.0
 40
1.0
 10
16.4662279021
 20
12.9878115821
 30
0.0
 10
16.465896648
 20
12.9881777961
 30
0.0
 10
16.4652009719
 20
12.9889022597
 30
0.0
 10
16.4640826548
 20
12.9899458489
 30
0.0
 10
16.4628771064
 20
12.9909597837
 30
0.0
 10
16.4615897879
 20
12.9919395295
 30
0.0
 10
16.4602263699
 20
12.992880749
 30
0.0
 10
16.4587928976
 20
12.99377931
 30
0.0
 10
16.4572958031
 20
12.9946311469
 30
0.0
 10
16.456266456
 20
12.9951619448
 30
0.0
 10
16.4557428695
 20
12.9954188548
 30
0.0
  0
SPLINE
  5
342
100
AcDbEntity
  8
LAYER_FEATURE
100
AcDbSpline
 62
7
  6
CONTINUOUS
 70
0
 71
3
 72
11
 73
7
 74
0
 42
0.0000001
 43
0.0000001
 44
0.0000000001
 40
0.0
 40
0.0
 40
0.0
 40
0.0
 40
0.2473003123
 40
0.4969891154
 40
0.7481873998
 40
1.0
 40
1.0
 40
1.0
 40
1.0
 10
16.4557428695
 20
12.9954188548
 30
0.0
 10
16.4540694245
 20
12.9962399697
 30
0.0
 10
16.4506695445
 20
12.9978161538
 30
0.0
 10
16.4454547373
 20
12.9999674753
 30
0.0
 10
16.4401219355
 20
13.0019086832
 30
0.0
 10
16.4365068217
 20
13.0030558924
 30
0.0
 10
16.4346860794
 20
13.0035920829
 30
0.0
  0
SPLINE
  5
343
100
AcDbEntity
  8
LAYER_FEATURE
100
AcDbSpline
 62
7
  6
CONTINUOUS
 70
0
 71
3
 72
11
 73
7
 74
0
 42
0.0000001
 43
0.0000001
 44
0.0000000001
 40
0.0
 40
0.0
 40
0.0
 40
0.0
 40
0.2645188614
 40
0.5194875684
 40
0.7646786904
 40
1.0
 40
1.0
 40
1.0
 40
1.0
 10
14.7832132246
 20
13.4047076818
 30
0.0
 10
14.7826834103
 20
13.4046194109
 30
0.0
 10
14.7816475671
 20
13.4044162044
 30
0.0
 10
14.7801444993
 20
13.4040224746
 30
0.0
 10
14.7787275004
 20
13.4035471933
 30
0.0
 10
14.777826529
 20
13.403169769
 30
0.0
 10
14.7773936555
 20
13.4029674268
 30
0.0
  0
SPLINE
  5
344
100
AcDbEntity
  8
LAYER_FEATURE
100
AcDbSpline
 62
7
  6
CONTINUOUS
 70
0
 71
3
 72
14
 73
10
 74
0
 42
0.0000001
 43
0.0000001
 44
0.0000000001
 40
0.0
 40
0.0
 40
0.0
 40
0.0
 40
0.1184334372
 40
0.2394221827
 40
0.362635862
 40
0.4877553583
 40
0.6144267189
 40
0.7422809208
 40
1.0
 40
1.0
 40
1.0
 40
1.0
 10
16.4468714256
 20
13.1256749031
 30
0.0
 10
16.4464263339
 20
13.1260004648
 30
0.0
 10
16.4455109263
 20
13.1266375079
 30
0.0
 10
16.4440830855
 20
13.1275397385
 30
0.0
 10
16.4425909804
 20
13.1283956304
 30
0.0
 10
16.4410413631
 20
13.1292013493
 30
0.0
 10
16.4394410258
 20
13.1299533336
 30
0.0
 10
16.4372437505
 20
13.1308821575
 30
0.0
 10
16.4355500817
 20
13.1314846798
 30
0.0
 10
16.4344050194
 20
13.1318435851
 30
0.0
  0
SPLINE
  5
345
100
AcDbEntity
  8
LAYER_FEATURE
100
AcDbSpline
 62
7
  6
CONTINUOUS
 70
0
 71
3
 72
11
 73
7
 74
0
 42
0.0000001
 43
0.0000001
 44
0.0000000001
 40
0.0
 40
0.0
 40
0.0
 40
0.0
 40
0.2521121685
 40
0.5034089548
 40
0.7529966775
 40
1.0
 40
1.0
 40
1.0
 40
1.0
 10
16.4344050194
 20
13.1318435851
 30
0.0
 10
16.4325942726
 20
13.1324111407
 30
0.0
 10
16.4289545183
 20
13.1334690577
 30
0.0
 10
16.4234490463
 20
13.1348221279
 30
0.0
 10
16.4179289705
 20
13.1359336591
 30
0.0
 10
16.4142350265
 20
13.1365134183
 30
0.0
 10
16.4123924087
 20
13.1367608494
 30
0.0
  0
SPLINE
  5
346
100
AcDbEntity
  8
LAYER_FEATURE
100
AcDbSpline
 62
7
  6
CONTINUOUS
 70
0
 71
3
 72
15
 73
11
 74
0
 42
0.0000001
 43
0.0000001
 44
0.0000000001
 40
0.0
 40
0.0
 40
0.0
 40
0.0
 40
0.1234410064
 40
0.2480810632
 40
0.373532898
 40
0.4994368974
 40
0.6254120825
 40
0.7510768162
 40
0.8760696391
 40
1.0
 40
1.0
 40
1.0
 40
1.0
 10
16.371163887
 20
13.2672768304
 30
0.0
 10
16.3706366381
 20
13.2675399264
 30
0.0
 10
16.3695661824
 20
13.2680472447
 30
0.0
 10
16.3679256976
 20
13.2687469922
 30
0.0
 10
16.3662483111
 20
13.2693868073
 30
0.0
 10
16.3645415876
 20
13.269963837
 30
0.0
 10
16.3628130823
 20
13.2704754994
 30
0.0
 10
16.361070463
 20
13.2709195521
 30
0.0
 10
16.3593215696
 20
13.2712939658
 30
0.0
 10
16.3581504603
 20
13.2714971382
 30
0.0
 10
16.3575656721
 20
13.2715865362
 30
0.0
  0
SPLINE
  5
347
100
AcDbEntity
  8
LAYER_FEATURE
100
AcDbSpline
 62
7
  6
CONTINUOUS
 70
0
 71
3
 72
11
 73
7
 74
0
 42
0.0000001
 43
0.0000001
 44
0.0000000001
 40
0.0
 40
0.0
 40
0.0
 40
0.0
 40
0.256953289
 40
0.5098073523
 40
0.7577431503
 40
1.0
 40
1.0
 40
1.0
 40
1.0
 10
16.3575656721
 20
13.2715865362
 30
0.0
 10
16.3557420589
 20
13.2718653166
 30
0.0
 10
16.3521114058
 20
13.2723401097
 30
0.0
 10
16.3466890704
 20
13.2728030436
 30
0.0
 10
16.3413564415
 20
13.2730094235
 30
0.0
 10
16.3378355429
 20
13.2729747721
 30
0.0
 10
16.3360973639
 20
13.2729127333
 30
0.0
  0
SPLINE
  5
348
100
AcDbEntity
  8
LAYER_FEATURE
100
AcDbSpline
 62
7
  6
CONTINUOUS
 70
0
 71
3
 72
15
 73
11
 74
0
 42
0.0000001
 43
0.0000001
 44
0.0000000001
 40
0.0
 40
0.0
 40
0.0
 40
0.0
 40
0.1331588834
 40
0.2646756429
 40
0.3941593728
 40
0.5212766111
 40
0.6456986533
 40
0.7671259895
 40
0.8853080292
 40
1.0
 40
1.0
 40
1.0
 40
1.0
 10
14.8417472198
 20
13.5233569591
 30
0.0
 10
14.8411670689
 20
13.5234609714
 30
0.0
 10
14.8400097303
 20
13.5236451277
 30
0.0
 10
14.8382766444
 20
13.5238497973
 30
0.0
 10
14.8365631858
 20
13.5239805175
 30
0.0
 10
14.8348770656
 20
13.52403673
 30
0.0
 10
14.8332257399
 20
13.5240181549
 30
0.0
 10
14.8316165026
 20
13.5239248947
 30
0.0
 10
14.8300566069
 20
13.523757329
 30
0.0
 10
14.8290382548
 20
13.5235940405
 30
0.0
 10
14.8285394551
 20
13.5234996023
 30
0.0
  0
SPLINE
  5
349
100
AcDbEntity
  8
LAYER_FEATURE
100
AcDbSpline
 62
7
  6
CONTINUOUS
 70
0
 71
3
 72
14
 73
10
 74
0
 42
0.0000001
 43
0.0000001
 44
0.0000000001
 40
0.0
 40
0.0
 40
0.0
 40
0.0
 40
0.2568661708
 40
0.3845135289
 40
0.5111229785
 40
0.6363226228
 40
0.7597541353
 40
0.8810925802
 40
1.0
 40
1.0
 40
1.0
 40
1.0
 10
16.2442646298
 20
13.4029674268
 30
0.0
 10
16.2431206873
 20
13.4033339844
 30
0.0
 10
16.2413863636
 20
13.4038177008
 30
0.0
 10
16.2390502884
 20
13.4043257174
 30
0.0
 10
16.2373023857
 20
13.404634857
 30
0.0
 10
16.2355631252
 20
13.4048714492
 30
0.0
 10
16.2338401489
 20
13.4050344819
 30
0.0
 10
16.2321412311
 20
13.4051231859
 30
0.0
 10
16.2310173133
 20
13.4051326365
 30
0.0
 10
16.2304613021
 20
13.4051244571
 30
0.0
  0
SPLINE
  5
34A
100
AcDbEntity
  8
LAYER_FEATURE
100
AcDbSpline
 62
7
  6
CONTINUOUS
 70
0
 71
3
 72
11
 73
7
 74
0
 42
0.0000001
 43
0.0000001
 44
0.0000000001
 40
0.0
 40
0.0
 40
0.0
 40
0.0
 40
0.2616511188
 40
0.5159172534
 40
0.7621952019
 40
1.0
 40
1.0
 40
1.0
 40
1.0
 10
16.2304613021
 20
13.4051244571
 30
0.0
 10
16.2287483949
 20
13.4050992588
 30
0.0
 10
16.2253714495
 20
13.4049663207
 30
0.0
 10
16.2203999059
 20
13.4045075524
 30
0.0
 10
16.2156160573
 20
13.403794516
 30
0.0
 10
16.2125124539
 20
13.4031401665
 30
0.0
 10
16.2110003262
 20
13.4027692087
 30
0.0
  0
SPLINE
  5
34B
100
AcDbEntity
  8
LAYER_FEATURE
100
AcDbSpline
 62
7
  6
CONTINUOUS
 70
0
 71
3
 72
14
 73
10
 74
0
 42
0.0000001
 43
0.0000001
 44
0.0000000001
 40
0.0
 40
0.0
 40
0.0
 40
0.0
 40
0.2557763948
 40
0.38315812
 40
0.5096868626
 40
0.6349876096
 40
0.7586970509
 40
0.8804834823
 40
1.0
 40
1.0
 40
1.0
 40
1.0
 10
14.9474499899
 20
13.6182266925
 30
0.0
 10
14.9463121968
 20
13.6186145498
 30
0.0
 10
14.9445845733
 20
13.6191306956
 30
0.0
 10
14.9422533743
 20
13.6196832839
 30
0.0
 10
14.9405041068
 20
13.6200268644
 30
0.0
 10
14.9387597401
 20
13.6202985191
 30
0.0
 10
14.9370279399
 20
13.6204970817
 30
0.0
 10
14.9353165199
 20
13.6206216233
 30
0.0
 10
14.9341825252
 20
13.6206553086
 30
0.0
 10
14.9336208419
 20
13.6206592884
 30
0.0
  0
SPLINE
  5
34C
100
AcDbEntity
  8
LAYER_FEATURE
100
AcDbSpline
 62
7
  6
CONTINUOUS
 70
0
 71
3
 72
11
 73
7
 74
0
 42
0.0000001
 43
0.0000001
 44
0.0000000001
 40
0.0
 40
0.0
 40
0.0
 40
0.0
 40
0.2459560301
 40
0.4951854365
 40
0.7468286877
 40
1.0
 40
1.0
 40
1.0
 40
1.0
 10
14.9679746311
 20
13.6092300183
 30
0.0
 10
14.966361307
 20
13.6101135253
 30
0.0
 10
14.9630722488
 20
13.6118185559
 30
0.0
 10
14.9580043136
 20
13.6141700194
 30
0.0
 10
14.952790485
 20
13.6163228849
 30
0.0
 10
14.9492420891
 20
13.6176157917
 30
0.0
 10
14.9474499899
 20
13.6182266925
 30
0.0
  0
SPLINE
  5
34D
100
AcDbEntity
  8
LAYER_FEATURE
100
AcDbSpline
 62
7
  6
CONTINUOUS
 70
0
 71
3
 72
15
 73
11
 74
0
 42
0.0000001
 43
0.0000001
 44
0.0000000001
 40
0.0
 40
0.0
 40
0.0
 40
0.0
 40
0.1337966249
 40
0.2657528129
 40
0.395482652
 40
0.5226600897
 40
0.6469661221
 40
0.7681135985
 40
0.8858670232
 40
1.0
 40
1.0
 40
1.0
 40
1.0
 10
16.0748216287
 20
13.5234996023
 30
0.0
 10
16.0742428755
 20
13.5235920074
 30
0.0
 10
16.0730895572
 20
13.5237528234
 30
0.0
 10
16.071364988
 20
13.5239219969
 30
0.0
 10
16.0696637271
 20
13.524016898
 30
0.0
 10
16.067993429
 20
13.5240371289
 30
0.0
 10
16.0663614778
 20
13.5239825675
 30
0.0
 10
16.0647750778
 20
13.5238534736
 30
0.0
 10
16.0632413807
 20
13.5236503861
 30
0.0
 10
16.0622423825
 20
13.5234632457
 30
0.0
 10
16.0617538623
 20
13.5233569591
 30
0.0
  0
SPLINE
  5
34E
100
AcDbEntity
  8
LAYER_FEATURE
100
AcDbSpline
 62
7
  6
CONTINUOUS
 70
0
 71
3
 72
11
 73
7
 74
0
 42
0.0000001
 43
0.0000001
 44
0.0000000001
 40
0.0
 40
0.0
 40
0.0
 40
0.0
 40
0.2653619491
 40
0.5205128622
 40
0.7653521566
 40
1.0
 40
1.0
 40
1.0
 40
1.0
 10
16.0617538623
 20
13.5233569591
 30
0.0
 10
16.0602653047
 20
13.5230330959
 30
0.0
 10
16.0573639209
 20
13.5223081682
 30
0.0
 10
16.0531792105
 20
13.5209576612
 30
0.0
 10
16.0492672013
 20
13.5193718136
 30
0.0
 10
16.0468029236
 20
13.518136883
 30
0.0
 10
16.0456264519
 20
13.5174807716
 30
0.0
  0
SPLINE
  5
34F
100
AcDbEntity
  8
LAYER_FEATURE
100
AcDbSpline
 62
7
  6
CONTINUOUS
 70
0
 71
3
 72
19
 73
15
 74
0
 42
0.0000001
 43
0.0000001
 44
0.0000000001
 40
0.0
 40
0.0
 40
0.0
 40
0.0
 40
0.0615944058
 40
0.1238087153
 40
0.1865291895
 40
0.2496576314
 40
0.3767006591
 40
0.50408767
 40
0.6309502019
 40
0.7564300312
 40
0.8183977462
 40
0.8797120852
 40
0.9402768225
 40
1.0
 40
1.0
 40
1.0
 40
1.0
 10
14.9679746311
 20
13.6092300183
 30
0.0
 10
14.9690003125
 20
13.6086683229
 30
0.0
 10
14.9710798601
 20
13.6075715741
 30
0.0
 10
14.9742617145
 20
13.6060156876
 30
0.0
 10
14.9775153925
 20
13.6045439193
 30
0.0
 10
14.9819470906
 20
13.6026950662
 30
0.0
 10
14.9876112778
 20
13.600618742
 30
0.0
 10
14.9945440695
 20
13.5985216421
 30
0.0
 10
15.0015574396
 20
13.5968347709
 30
0.0
 10
15.0074348996
 20
13.5957806211
 30
0.0
 10
15.0121173159
 20
13.5951587902
 30
0.0
 10
15.0155904994
 20
13.5948060195
 30
0.0
 10
15.0190305145
 20
13.594565831
 30
0.0
 10
15.0213131574
 20
13.5944805046
 30
0.0
 10
15.0224468029
 20
13.5944571884
 30
0.0
  0
SPLINE
  5
350
100
AcDbEntity
  8
LAYER_FEATURE
100
AcDbSpline
 62
7
  6
CONTINUOUS
 70
0
 71
3
 72
15
 73
11
 74
0
 42
0.0000001
 43
0.0000001
 44
0.0000000001
 40
0.0
 40
0.0
 40
0.0
 40
0.0
 40
0.1098091425
 40
0.2231185537
 40
0.3404878768
 40
0.4623810594
 40
0.5891227609
 40
0.7209181819
 40
0.8578844314
 40
1.0
 40
1.0
 40
1.0
 40
1.0
 10
15.9259306813
 20
13.592216633
 30
0.0
 10
15.9259091664
 20
13.5925804927
 30
0.0
 10
15.9258251938
 20
13.5933179343
 30
0.0
 10
15.9255841483
 20
13.5944238701
 30
0.0
 10
15.9252275548
 20
13.5955402615
 30
0.0
 10
15.9247572846
 20
13.5966620066
 30
0.0
 10
15.9241755453
 20
13.5977842536
 30
0.0
 10
15.9234850438
 20
13.5989021571
 30
0.0
 10
15.9226889396
 20
13.6000107399
 30
0.0
 10
15.9221008515
 20
13.6007274046
 30
0.0
 10
15.9217910058
 20
13.60108311
 30
0.0
  0
SPLINE
  5
351
100
AcDbEntity
  8
LAYER_FEATURE
100
AcDbSpline
 62
7
  6
CONTINUOUS
 70
0
 71
3
 72
15
 73
11
 74
0
 42
0.0000001
 43
0.0000001
 44
0.0000000001
 40
0.0
 40
0.0
 40
0.0
 40
0.0
 40
0.138718784
 40
0.2739614326
 40
0.4054238301
 40
0.5328869894
 40
0.656164285
 40
0.7751301216
 40
0.8897414309
 40
1.0
 40
1.0
 40
1.0
 40
1.0
 10
15.8743821444
 20
13.6206592884
 30
0.0
 10
15.8738365766
 20
13.6206553957
 30
0.0
 10
15.8727591006
 20
13.6206235366
 30
0.0
 10
15.871168702
 20
13.6205006253
 30
0.0
 10
15.8696303
 20
13.6203036457
 30
0.0
 10
15.8681507997
 20
13.6200334965
 30
0.0
 10
15.8667367248
 20
13.6196913099
 30
0.0
 10
15.8653942817
 20
13.6192785721
 30
0.0
 10
15.8641295574
 20
13.6187970663
 30
0.0
 10
15.8633264384
 20
13.6184244062
 30
0.0
 10
15.8629404858
 20
13.6182266925
 30
0.0
  0
SPLINE
  5
352
100
AcDbEntity
  8
LAYER_FEATURE
100
AcDbSpline
 62
7
  6
CONTINUOUS
 70
0
 71
3
 72
12
 73
8
 74
0
 42
0.0000001
 43
0.0000001
 44
0.0000000001
 40
0.0
 40
0.0
 40
0.0
 40
0.0
 40
0.2654496689
 40
0.5198994371
 40
0.7642900381
 40
0.8831542164
 40
1.0
 40
1.0
 40
1.0
 40
1.0
 10
15.8629404858
 20
13.6182266925
 30
0.0
 10
15.86177127
 20
13.6176277329
 30
0.0
 10
15.8595277411
 20
13.6163601997
 30
0.0
 10
15.8564128967
 20
13.6142051116
 30
0.0
 10
15.8540784886
 20
13.612221931
 30
0.0
 10
15.8523974244
 20
13.6105414678
 30
0.0
 10
15.8516188212
 20
13.6096718003
 30
0.0
 10
15.8512456974
 20
13.6092300183
 30
0.0
  0
SPLINE
  5
353
100
AcDbEntity
  8
LAYER_FEATURE
100
AcDbSpline
 62
7
  6
CONTINUOUS
 70
0
 71
3
 72
51
 73
47
 74
0
 42
0.0000001
 43
0.0000001
 44
0.0000000001
 40
0.0
 40
0.0
 40
0.0
 40
0.0
 40
0.0111528813
 40
0.0225001146
 40
0.0340684803
 40
0.0458844824
 40
0.0579715158
 40
0.0703487478
 40
0.0830321151
 40
0.0960344023
 40
0.1230239415
 40
0.1370290313
 40
0.1513743615
 40
0.1660586245
 40
0.1810783263
 40
0.2120944465
 40
0.2443603316
 40
0.2777815078
 40
0.312241222
 40
0.3476042363
 40
0.3837202552
 40
0.4204270685
 40
0.4575534828
 40
0.4949221047
 40
0.5323520258
 40
0.5696614556
 40
0.6066703407
 40
0.64320301
 40
0.6790908867
 40
0.7141753131
 40
0.7483105443
 40
0.7813669753
 40
0.8132346775
 40
0.8286972173
 40
0.8438324178
 40
0.8586339719
 40
0.8730975359
 40
0.8872210636
 40
0.9010048518
 40
0.9144517761
 40
0.9275675175
 40
0.9528337642
 40
0.9650195117
 40
0.976927744
 40
0.9885804497
 40
1.0
 40
1.0
 40
1.0
 40
1.0
 10
15.7174215837
 20
13.6530038964
 30
0.0
 10
15.7174276578
 20
13.652395883
 30
0.0
 10
15.7174830328
 20
13.6511693058
 30
0.0
 10
15.7176918767
 20
13.6493224091
 30
0.0
 10
15.7180268348
 20
13.6474574133
 30
0.0
 10
15.7184871312
 20
13.6455778937
 30
0.0
 10
15.7190719003
 20
13.6436871665
 30
0.0
 10
15.7197799885
 20
13.6417886274
 30
0.0
 10
15.720610129
 20
13.6398856522
 30
0.0
 10
15.7218934126
 20
13.6373153942
 30
0.0
 10
15.723403825
 20
13.6347825159
 30
0.0
 10
15.725116765
 20
13.6322981194
 30
0.0
 10
15.7265297618
 20
13.6304241926
 30
0.0
 10
15.7280523953
 20
13.6285662633
 30
0.0
 10
15.7302486112
 20
13.626088368
 30
0.0
 10
15.7332572419
 20
13.6230542659
 30
0.0
 10
15.7372176473
 20
13.619568733
 30
0.0
 10
15.7415380198
 20
13.6162247541
 30
0.0
 10
15.7461872234
 20
13.6130463365
 30
0.0
 10
15.7511319504
 20
13.6100561749
 30
0.0
 10
15.7563366825
 20
13.6072757216
 30
0.0
 10
15.7617640221
 20
13.6047249405
 30
0.0
 10
15.7673749433
 20
13.6024221697
 30
0.0
 10
15.7731290837
 20
13.6003839736
 30
0.0
 10
15.7789850402
 20
13.5986250183
 30
0.0
 10
15.7849006738
 20
13.5971579606
 30
0.0
 10
15.790833422
 20
13.5959933558
 30
0.0
 10
15.7967406121
 20
13.5951395814
 30
0.0
 10
15.8025797844
 20
13.5946027812
 30
0.0
 10
15.8083089824
 20
13.5943868242
 30
0.0
 10
15.8138871598
 20
13.5944932997
 30
0.0
 10
15.8192741464
 20
13.5949214864
 30
0.0
 10
15.8236151077
 20
13.5955501874
 30
0.0
 10
15.8269556191
 20
13.596215804
 30
0.0
 10
15.829364364
 20
13.5967877339
 30
0.0
 10
15.8316971563
 20
13.5974362818
 30
0.0
 10
15.8339498097
 20
13.5981603413
 30
0.0
 10
15.8361182748
 20
13.5989586017
 30
0.0
 10
15.8381986037
 20
13.5998296444
 30
0.0
 10
15.8401871727
 20
13.6007719949
 30
0.0
 10
15.842679819
 20
13.6021043618
 30
0.0
 10
15.8450119015
 20
13.6035865119
 30
0.0
 10
15.8471531414
 20
13.6052185464
 30
0.0
 10
15.848631946
 20
13.6064898025
 30
0.0
 10
15.8499997388
 20
13.6078204627
 30
0.0
 10
15.8508439793
 20
13.6087543805
 30
0.0
 10
15.8512456974
 20
13.6092300183
 30
0.0
  0
SPLINE
  5
354
100
AcDbEntity
  8
LAYER_FEATURE
100
AcDbSpline
 62
7
  6
CONTINUOUS
 70
0
 71
3
 72
13
 73
9
 74
0
 42
0.0000001
 43
0.0000001
 44
0.0000000001
 40
0.0
 40
0.0
 40
0.0
 40
0.0
 40
0.1175976517
 40
0.2369176823
 40
0.358171495
 40
0.4815705902
 40
0.7354844443
 40
1.0
 40
1.0
 40
1.0
 40
1.0
 10
15.7174215837
 20
13.6530038964
 30
0.0
 10
15.7174159407
 20
13.6535687605
 30
0.0
 10
15.7173702785
 20
13.6547066887
 30
0.0
 10
15.7172013167
 20
13.6564197768
 30
0.0
 10
15.7169315817
 20
13.6581481738
 30
0.0
 10
15.7164335649
 20
13.6604917772
 30
0.0
 10
15.7155530867
 20
13.6634523577
 30
0.0
 10
15.714613194
 20
13.6657628961
 30
0.0
 10
15.7140834675
 20
13.6669178349
 30
0.0
  0
SPLINE
  5
355
100
AcDbEntity
  8
LAYER_FEATURE
100
AcDbSpline
 62
7
  6
CONTINUOUS
 70
0
 71
3
 72
15
 73
11
 74
0
 42
0.0000001
 43
0.0000001
 44
0.0000000001
 40
0.0
 40
0.0
 40
0.0
 40
0.0
 40
0.109685675
 40
0.2237617214
 40
0.3423048681
 40
0.4653368429
 40
0.5927875441
 40
0.7245170739
 40
0.8603454158
 40
1.0
 40
1.0
 40
1.0
 40
1.0
 10
15.7140834675
 20
13.6669178349
 30
0.0
 10
15.7139086548
 20
13.6672989712
 30
0.0
 10
15.7135194587
 20
13.668061901
 30
0.0
 10
15.712837928
 20
13.6691802655
 30
0.0
 10
15.7120504253
 20
13.6702898675
 30
0.0
 10
15.7111605952
 20
13.6713857483
 30
0.0
 10
15.710172358
 20
13.6724631286
 30
0.0
 10
15.70909011
 20
13.673517318
 30
0.0
 10
15.7079187028
 20
13.6745435816
 30
0.0
 10
15.707092626
 20
13.6751975793
 30
0.0
 10
15.706666427
 20
13.6755191127
 30
0.0
  0
SPLINE
  5
356
100
AcDbEntity
  8
LAYER_FEATURE
100
AcDbSpline
 62
7
  6
CONTINUOUS
 70
0
 71
3
 72
15
 73
11
 74
0
 42
0.0000001
 43
0.0000001
 44
0.0000000001
 40
0.0
 40
0.0
 40
0.0
 40
0.0
 40
0.1419429522
 40
0.2789617058
 40
0.4109612193
 40
0.5379733258
 40
0.6601060307
 40
0.7775755271
 40
0.8907279712
 40
1.0
 40
1.0
 40
1.0
 40
1.0
 10
15.6566057962
 20
13.6878252129
 30
0.0
 10
15.6561297365
 20
13.6877263419
 30
0.0
 10
15.6551992702
 20
13.6875059677
 30
0.0
 10
15.6538507118
 20
13.6870990521
 30
0.0
 10
15.6525792341
 20
13.6866231504
 30
0.0
 10
15.6513905529
 20
13.6860803515
 30
0.0
 10
15.6502899388
 20
13.6854729063
 30
0.0
 10
15.6492822601
 20
13.684803359
 30
0.0
 10
15.6483722529
 20
13.6840746179
 30
0.0
 10
15.6478246223
 20
13.6835427773
 30
0.0
 10
15.6475699756
 20
13.6832684418
 30
0.0
  0
SPLINE
  5
357
100
AcDbEntity
  8
LAYER_FEATURE
100
AcDbSpline
 62
7
  6
CONTINUOUS
 70
0
 71
3
 72
15
 73
11
 74
0
 42
0.0000001
 43
0.0000001
 44
0.0000000001
 40
0.0
 40
0.0
 40
0.0
 40
0.0
 40
0.1296390131
 40
0.2574895731
 40
0.3837498344
 40
0.5086549008
 40
0.6324614572
 40
0.7554378589
 40
0.8778608445
 40
1.0
 40
1.0
 40
1.0
 40
1.0
 10
15.6475699756
 20
13.6832684418
 30
0.0
 10
15.6472086689
 20
13.6828791994
 30
0.0
 10
15.6465105853
 20
13.6820876429
 30
0.0
 10
15.6455339801
 20
13.6808547741
 30
0.0
 10
15.6446368592
 20
13.6795865107
 30
0.0
 10
15.6438203203
 20
13.6782844237
 30
0.0
 10
15.6430852993
 20
13.6769499564
 30
0.0
 10
15.6424326083
 20
13.6755845748
 30
0.0
 10
15.6418630638
 20
13.6741898918
 30
0.0
 10
15.6415390614
 20
13.6732411236
 30
0.0
 10
15.6413913264
 20
13.6727630691
 30
0.0
  0
SPLINE
  5
358
100
AcDbEntity
  8
LAYER_FEATURE
100
AcDbSpline
 62
7
  6
CONTINUOUS
 70
0
 71
3
 72
56
 73
52
 74
0
 42
0.0000001
 43
0.0000001
 44
0.0000000001
 40
0.0
 40
0.0
 40
0.0
 40
0.0
 40
0.0257721201
 40
0.0391445885
 40
0.0528470745
 40
0.0668837992
 40
0.0812554818
 40
0.0959606353
 40
0.1109957082
 40
0.1263552229
 40
0.1420317152
 40
0.1580160707
 40
0.1742975726
 40
0.207698286
 40
0.2421254282
 40
0.2774486372
 40
0.3135230419
 40
0.3501922256
 40
0.3872909889
 40
0.4246479707
 40
0.4620881756
 40
0.4994354476
 40
0.5365149269
 40
0.5731555259
 40
0.6091924599
 40
0.6444698755
 40
0.6617798674
 40
0.6788470961
 40
0.6956558147
 40
0.7121915099
 40
0.7284407683
 40
0.7443916567
 40
0.7600335611
 40
0.7753576089
 40
0.7903565093
 40
0.8050249878
 40
0.8193596616
 40
0.8333594534
 40
0.8470255287
 40
0.8603616556
 40
0.8860641722
 40
0.8984603738
 40
0.9105698593
 40
0.9224111767
 40
0.9340060603
 40
0.9453795245
 40
0.9565596207
 40
0.9675771521
 40
0.9784653884
 40
0.9892604849
 40
1.0
 40
1.0
 40
1.0
 40
1.0
 10
15.5046830037
 20
13.6944234161
 30
0.0
 10
15.5052115374
 20
13.6931458846
 30
0.0
 10
15.5061204442
 20
13.6912476518
 30
0.0
 10
15.5075240242
 20
13.6887838481
 30
0.0
 10
15.5087027505
 20
13.6869188444
 30
0.0
 10
15.5099922391
 20
13.6850631916
 30
0.0
 10
15.5113902791
 20
13.6832199224
 30
0.0
 10
15.5128944329
 20
13.6813923272
 30
0.0
 10
15.5145020377
 20
13.679583547
 30
0.0
 10
15.5162103027
 20
13.6777967476
 30
0.0
 10
15.5180162241
 20
13.6760350297
 30
0.0
 10
15.519916669
 20
13.6743014542
 30
0.0
 10
15.5225948191
 20
13.6720122621
 30
0.0
 10
15.5261610282
 20
13.6692431553
 30
0.0
 10
15.5307240393
 20
13.6661077859
 30
0.0
 10
15.5355750697
 20
13.6631536605
 30
0.0
 10
15.5406802388
 20
13.6604013925
 30
0.0
 10
15.546004045
 20
13.6578701026
 30
0.0
 10
15.5515093944
 20
13.6555774257
 30
0.0
 10
15.5571579253
 20
13.6535393357
 30
0.0
 10
15.5629102637
 20
13.6517700396
 30
0.0
 10
15.5687263128
 20
13.6502818709
 30
0.0
 10
15.5745655229
 20
13.6490852038
 30
0.0
 10
15.5803872397
 20
13.6481883734
 30
0.0
 10
15.5861507849
 20
13.6475976471
 30
0.0
 10
15.5909017631
 20
13.6473623857
 30
0.0
 10
15.5946386915
 20
13.6473333248
 30
0.0
 10
15.5973843735
 20
13.6473899847
 30
0.0
 10
15.6000857356
 20
13.6475248945
 30
0.0
 10
15.60273808
 20
13.6477377743
 30
0.0
 10
15.6053367658
 20
13.6480283098
 30
0.0
 10
15.6078772588
 20
13.6483959396
 30
0.0
 10
15.610355117
 20
13.648840088
 30
0.0
 10
15.6127660216
 20
13.6493599254
 30
0.0
 10
15.6151057558
 20
13.6499546148
 30
0.0
 10
15.6173702443
 20
13.6506230705
 30
0.0
 10
15.6195555313
 20
13.6513642003
 30
0.0
 10
15.6216577829
 20
13.6521766624
 30
0.0
 10
15.623673431
 20
13.6530591673
 30
0.0
 10
15.6262090581
 20
13.6543114626
 30
0.0
 10
15.6285941346
 20
13.6557101528
 30
0.0
 10
15.6308006442
 20
13.6572567091
 30
0.0
 10
15.6323330935
 20
13.6584640989
 30
0.0
 10
15.6337600497
 20
13.6597306624
 30
0.0
 10
15.6350790097
 20
13.6610542763
 30
0.0
 10
15.6362876087
 20
13.6624326264
 30
0.0
 10
15.6373836211
 20
13.663863353
 30
0.0
 10
15.6383650846
 20
13.6653438921
 30
0.0
 10
15.6392301733
 20
13.6668717054
 30
0.0
 10
15.6399772989
 20
13.6684439825
 30
0.0
 10
15.640396466
 20
13.6695217793
 30
0.0
 10
15.6405855118
 20
13.6700660016
 30
0.0
  0
SPLINE
  5
359
100
AcDbEntity
  8
LAYER_FEATURE
100
AcDbSpline
 62
7
  6
CONTINUOUS
 70
0
 71
3
 72
12
 73
8
 74
0
 42
0.0000001
 43
0.0000001
 44
0.0000000001
 40
0.0
 40
0.0
 40
0.0
 40
0.0
 40
0.234350456
 40
0.3553726123
 40
0.4790027313
 40
0.7341780644
 40
1.0
 40
1.0
 40
1.0
 40
1.0
 10
15.5046830037
 20
13.6944234161
 30
0.0
 10
15.5041850608
 20
13.6956270061
 30
0.0
 10
15.5033431932
 20
13.6974175401
 30
0.0
 10
15.5020605758
 20
13.6997510381
 30
0.0
 10
15.5006240252
 20
13.7021297049
 30
0.0
 10
15.4985918461
 20
13.7050847855
 30
0.0
 10
15.4967826839
 20
13.7073490992
 30
0.0
 10
15.4958234799
 20
13.7084728318
 30
0.0
  0
SPLINE
  5
35A
100
AcDbEntity
  8
LAYER_FEATURE
100
AcDbSpline
 62
7
  6
CONTINUOUS
 70
0
 71
3
 72
15
 73
11
 74
0
 42
0.0000001
 43
0.0000001
 44
0.0000000001
 40
0.0
 40
0.0
 40
0.0
 40
0.0
 40
0.1131676596
 40
0.2301719008
 40
0.3508233754
 40
0.4749172617
 40
0.6021917311
 40
0.7323479584
 40
0.8650756364
 40
1.0
 40
1.0
 40
1.0
 40
1.0
 10
15.4958234799
 20
13.7084728318
 30
0.0
 10
15.4955080704
 20
13.7088423424
 30
0.0
 10
15.494843228
 20
13.7095742453
 30
0.0
 10
15.4937686646
 20
13.7106304898
 30
0.0
 10
15.4926044284
 20
13.711659286
 30
0.0
 10
15.491355798
 20
13.7126560333
 30
0.0
 10
15.4900282709
 20
13.7136163243
 30
0.0
 10
15.4886277329
 20
13.7145359454
 30
0.0
 10
15.487160467
 20
13.7154107379
 30
0.0
 10
15.4861494671
 20
13.7159575322
 30
0.0
 10
15.4856345334
 20
13.7162227477
 30
0.0
  0
SPLINE
  5
35B
100
AcDbEntity
  8
LAYER_FEATURE
100
AcDbSpline
 62
7
  6
CONTINUOUS
 70
0
 71
3
 72
15
 73
11
 74
0
 42
0.0000001
 43
0.0000001
 44
0.0000000001
 40
0.0
 40
0.0
 40
0.0
 40
0.0
 40
0.1399269438
 40
0.2745197004
 40
0.4041241863
 40
0.5292641903
 40
0.6505836647
 40
0.7688618727
 40
0.8850109998
 40
1.0
 40
1.0
 40
1.0
 40
1.0
 10
15.4363336826
 20
13.7204201293
 30
0.0
 10
15.4359577505
 20
13.7202335057
 30
0.0
 10
15.4352333918
 20
13.7198398767
 30
0.0
 10
15.4342178905
 20
13.7191754419
 30
0.0
 10
15.4332995188
 20
13.7184514232
 30
0.0
 10
15.4324825935
 20
13.7176709775
 30
0.0
 10
15.4317709833
 20
13.7168374024
 30
0.0
 10
15.4311681068
 20
13.7159543283
 30
0.0
 10
15.4306771107
 20
13.715025931
 30
0.0
 10
15.4304253462
 20
13.7143779746
 30
0.0
 10
15.4303194763
 20
13.7140497193
 30
0.0
  0
SPLINE
  5
35C
100
AcDbEntity
  8
LAYER_FEATURE
100
AcDbSpline
 62
7
  6
CONTINUOUS
 70
0
 71
3
 72
39
 73
35
 74
0
 42
0.0000001
 43
0.0000001
 44
0.0000000001
 40
0.0
 40
0.0
 40
0.0
 40
0.0
 40
0.0277953645
 40
0.0565129107
 40
0.0861177613
 40
0.1165693177
 40
0.1478146864
 40
0.1797934876
 40
0.2124378702
 40
0.2456737023
 40
0.2794215555
 40
0.3135975298
 40
0.3481140931
 40
0.3828808983
 40
0.4178055822
 40
0.4527945186
 40
0.4877535596
 40
0.5225887907
 40
0.5572072987
 40
0.5915179236
 40
0.6254320197
 40
0.6588642475
 40
0.6917334333
 40
0.7239634278
 40
0.755484003
 40
0.7862318199
 40
0.8161514947
 40
0.8451967855
 40
0.8733318015
 40
0.900532343
 40
0.9267873658
 40
0.9521005816
 40
0.9764921047
 40
1.0
 40
1.0
 40
1.0
 40
1.0
 10
15.2998019455
 20
13.7008222709
 30
0.0
 10
15.3005592379
 20
13.6998831085
 30
0.0
 10
15.3021568898
 20
13.6980197162
 30
0.0
 10
15.3047446038
 20
13.6953200243
 30
0.0
 10
15.3075533254
 20
13.6926797342
 30
0.0
 10
15.3105716389
 20
13.6901094398
 30
0.0
 10
15.3137876308
 20
13.6876192951
 30
0.0
 10
15.3171884455
 20
13.6852192138
 30
0.0
 10
15.3207605296
 20
13.6829187381
 30
0.0
 10
15.3244896348
 20
13.680727033
 30
0.0
 10
15.3283608841
 20
13.6786528362
 30
0.0
 10
15.3323588316
 20
13.6767044279
 30
0.0
 10
15.3364675175
 20
13.6748895853
 30
0.0
 10
15.3406705337
 20
13.6732155488
 30
0.0
 10
15.344951096
 20
13.6716890023
 30
0.0
 10
15.3492921101
 20
13.6703160435
 30
0.0
 10
15.3536762399
 20
13.6691021625
 30
0.0
 10
15.3580859749
 20
13.6680522049
 30
0.0
 10
15.3625037035
 20
13.6671703588
 30
0.0
 10
15.3669117867
 20
13.666460145
 30
0.0
 10
15.3712926271
 20
13.6659244019
 30
0.0
 10
15.3756287407
 20
13.6655652767
 30
0.0
 10
15.379902828
 20
13.6653842007
 30
0.0
 10
15.3840978465
 20
13.6653818991
 30
0.0
 10
15.3881970781
 20
13.6655583928
 30
0.0
 10
15.3921841955
 20
13.6659130012
 30
0.0
 10
15.3960433292
 20
13.6664443474
 30
0.0
 10
15.3997591341
 20
13.6671503541
 30
0.0
 10
15.4033168452
 20
13.6680282748
 30
0.0
 10
15.4067023373
 20
13.669074717
 30
0.0
 10
15.4099021397
 20
13.6702856453
 30
0.0
 10
15.4129035947
 20
13.6716564768
 30
0.0
 10
15.4156944871
 20
13.6731818125
 30
0.0
 10
15.4174386037
 20
13.6743183145
 30
0.0
 10
15.4182691289
 20
13.6749110595
 30
0.0
  0
SPLINE
  5
35D
100
AcDbEntity
  8
LAYER_FEATURE
100
AcDbSpline
 62
7
  6
CONTINUOUS
 70
0
 71
3
 72
11
 73
7
 74
0
 42
0.0000001
 43
0.0000001
 44
0.0000000001
 40
0.0
 40
0.0
 40
0.0
 40
0.0
 40
0.2369409488
 40
0.4828700106
 40
0.7373981177
 40
1.0
 40
1.0
 40
1.0
 40
1.0
 10
15.2998019455
 20
13.7008222709
 30
0.0
 10
15.2988530064
 20
13.7019991054
 30
0.0
 10
15.2968349556
 20
13.7043305461
 30
0.0
 10
15.2935349316
 20
13.7076878387
 30
0.0
 10
15.2899215948
 20
13.7109546249
 30
0.0
 10
15.2873543148
 20
13.7130301191
 30
0.0
 10
15.286024776
 20
13.7140497193
 30
0.0
  0
SPLINE
  5
35E
100
AcDbEntity
  8
LAYER_FEATURE
100
AcDbSpline
 62
7
  6
CONTINUOUS
 70
0
 71
3
 72
14
 73
10
 74
0
 42
0.0000001
 43
0.0000001
 44
0.0000000001
 40
0.0
 40
0.0
 40
0.0
 40
0.0
 40
0.1178307327
 40
0.2383733121
 40
0.3613078649
 40
0.4863234346
 40
0.6130723083
 40
0.7411897253
 40
1.0
 40
1.0
 40
1.0
 40
1.0
 10
15.286024776
 20
13.7140497193
 30
0.0
 10
15.2855920925
 20
13.7143815368
 30
0.0
 10
15.2847004426
 20
13.7150317722
 30
0.0
 10
15.2833057878
 20
13.7159548992
 30
0.0
 10
15.2818437748
 20
13.7168335941
 30
0.0
 10
15.2803210209
 20
13.7176639197
 30
0.0
 10
15.2787441984
 20
13.7184422079
 30
0.0
 10
15.2765721586
 20
13.7194090044
 30
0.0
 10
15.2748943254
 20
13.7200409233
 30
0.0
 10
15.2737582834
 20
13.7204201293
 30
0.0
  0
SPLINE
  5
35F
100
AcDbEntity
  8
LAYER_FEATURE
100
AcDbSpline
 62
7
  6
CONTINUOUS
 70
0
 71
3
 72
11
 73
7
 74
0
 42
0.0000001
 43
0.0000001
 44
0.0000000001
 40
0.0
 40
0.0
 40
0.0
 40
0.0
 40
0.2580793823
 40
0.5093569889
 40
0.7558864148
 40
1.0
 40
1.0
 40
1.0
 40
1.0
 10
15.228576984
 20
13.7162227477
 30
0.0
 10
15.2283126667
 20
13.7159474487
 30
0.0
 10
15.2278188244
 20
13.7153763849
 30
0.0
 10
15.2271858355
 20
13.7144521528
 30
0.0
 10
15.2266754948
 20
13.7134780718
 30
0.0
 10
15.2264184146
 20
13.7127973061
 30
0.0
 10
15.2263118361
 20
13.7124524049
 30
0.0
  0
SPLINE
  5
360
100
AcDbEntity
  8
LAYER_FEATURE
100
AcDbSpline
 62
7
  6
CONTINUOUS
 70
0
 71
3
 72
26
 73
22
 74
0
 42
0.0000001
 43
0.0000001
 44
0.0000000001
 40
0.0
 40
0.0
 40
0.0
 40
0.0
 40
0.0295299995
 40
0.0595535284
 40
0.0900339148
 40
0.1209405102
 40
0.1838920756
 40
0.2481220717
 40
0.3133176323
 40
0.3791499772
 40
0.4452804607
 40
0.5113658027
 40
0.5770634228
 40
0.6420367428
 40
0.705960596
 40
0.7685268302
 40
0.8294502073
 40
0.8884747328
 40
0.9172086422
 40
0.945388818
 40
1.0
 40
1.0
 40
1.0
 40
1.0
 10
15.1167407145
 20
13.6717643895
 30
0.0
 10
15.1174755409
 20
13.6711748848
 30
0.0
 10
15.1189768575
 20
13.6700099817
 30
0.0
 10
15.1213000064
 20
13.6683202351
 30
0.0
 10
15.123709267
 20
13.6666764105
 30
0.0
 10
15.127050223
 20
13.6645372644
 30
0.0
 10
15.1314127434
 20
13.662001051
 30
0.0
 10
15.1368805764
 20
13.6592077274
 30
0.0
 10
15.1425712198
 20
13.6566673901
 30
0.0
 10
15.1484408015
 20
13.6543996377
 30
0.0
 10
15.1544442087
 20
13.6524218918
 30
0.0
 10
15.1605352501
 20
13.650749373
 30
0.0
 10
15.1666670711
 20
13.6493949459
 30
0.0
 10
15.1727925167
 20
13.6483690286
 30
0.0
 10
15.1788644882
 20
13.6476795117
 30
0.0
 10
15.1848363953
 20
13.6473317039
 30
0.0
 10
15.1906622481
 20
13.6473283022
 30
0.0
 10
15.1954002747
 20
13.6476150633
 30
0.0
 10
15.1990772826
 20
13.6480209335
 30
0.0
 10
15.2025987756
 20
13.6485314046
 30
0.0
 10
15.2051922884
 20
13.6490474634
 30
0.0
 10
15.2068862906
 20
13.649454438
 30
0.0
  0
SPLINE
  5
361
100
AcDbEntity
  8
LAYER_FEATURE
100
AcDbSpline
 62
7
  6
CONTINUOUS
 70
0
 71
3
 72
11
 73
7
 74
0
 42
0.0000001
 43
0.0000001
 44
0.0000000001
 40
0.0
 40
0.0
 40
0.0
 40
0.0
 40
0.2412396281
 40
0.4888096555
 40
0.7419921301
 40
1.0
 40
1.0
 40
1.0
 40
1.0
 10
15.1167407145
 20
13.6717643895
 30
0.0
 10
15.1154117419
 20
13.6728305399
 30
0.0
 10
15.1126600584
 20
13.6749183655
 30
0.0
 10
15.1083293323
 20
13.67787259
 30
0.0
 10
15.103760877
 20
13.6806773381
 30
0.0
 10
15.1005990622
 20
13.6824231355
 30
0.0
 10
15.0989847907
 20
13.6832684418
 30
0.0
  0
SPLINE
  5
362
100
AcDbEntity
  8
LAYER_FEATURE
100
AcDbSpline
 62
7
  6
CONTINUOUS
 70
0
 71
3
 72
15
 73
11
 74
0
 42
0.0000001
 43
0.0000001
 44
0.0000000001
 40
0.0
 40
0.0
 40
0.0
 40
0.0
 40
0.1228169192
 40
0.247006113
 40
0.372184998
 40
0.4979967976
 40
0.6240618391
 40
0.7499981065
 40
0.8754422476
 40
1.0
 40
1.0
 40
1.0
 40
1.0
 10
15.0989847907
 20
13.6832684418
 30
0.0
 10
15.0984657388
 20
13.6835402411
 30
0.0
 10
15.0974104855
 20
13.6840654813
 30
0.0
 10
15.0957903516
 20
13.6847929849
 30
0.0
 10
15.0941297778
 20
13.6854620242
 30
0.0
 10
15.0924362539
 20
13.6860696144
 30
0.0
 10
15.0907172759
 20
13.6866130385
 30
0.0
 10
15.0889804698
 20
13.6870899131
 30
0.0
 10
15.0872336487
 20
13.6874980612
 30
0.0
 10
15.086062257
 20
13.6877241912
 30
0.0
 10
15.0854766931
 20
13.6878252129
 30
0.0
  0
ENDSEC
  0
SECTION
  2
OBJECTS
  0
DICTIONARY
  5
C
100
AcDbDictionary
280
0
281
1
  3
ACAD_GROUP
350
D
  3
ACAD_MLINESTYLE
350
17
  3
ACAD_LAYOUT
350
1A
  3
ACAD_PLOTSETTINGS
350
19
  3
ACAD_PLOTSTYLENAME
350
E
  0
DICTIONARY
  5
D
102
{ACAD_REACTORS
330
C
102
}
100
AcDbDictionary
280
0
281
1
  0
ACDBDICTIONARYWDFLT
  5
E
102
{ACAD_REACTORS
330
C
102
}
100
AcDbDictionary
281
1
  3
Normal
350
F
100
AcDbDictionaryWithDefault
340
F
  0
DICTIONARY
  5
17
102
{ACAD_REACTORS
330
C
102
}
100
AcDbDictionary
280
0
281
1
  3
Standard
350
18
  0
DICTIONARY
  5
19
102
{ACAD_REACTORS
330
C
102
}
100
AcDbDictionary
281
1
  0
DICTIONARY
  5
1A
102
{ACAD_REACTORS
330
C
102
}
100
AcDbDictionary
281
1
  3
Model
350
363
  3
Layout1
350
364
  0
ACDBPLACEHOLDER
  5
F
102
{ACAD_REACTORS
330
E
102
}
  0
MLINESTYLE
  5
18
102
{ACAD_REACTORS
330
17
102
}
100
AcDbMlineStyle
  2
STANDARD
 70
0
  3

 62
256
 51
90.0
 52
90.0
 71
2
 49
0.5
 62
256
  6
BYLAYER
 49
-0.5
 62
256
  6
BYLAYER
  0
LAYOUT
  5
363
102
{ACAD_REACTORS
330
1A
102
}
100
AcDbPlotSettings
  1

  2
none_device
  4
ANSI_C_(22.00_x_17.00_Inches)
  6

 40
0.0
 41
0.0
 42
0.0
 43
0.0
 44
558.8
 45
431.8
 46
0.0
 47
0.0
 48
0.0
 49
0.0
140
0.0
141
0.0
142
1.0
143
1.0
 70
1024
 72
0
 73
0
 74
0
  7

 75
0
147
1.0
148
0.0
149
0.0
100
AcDbLayout
  1
Model
 70
0
 71
0
 10
0.0
 20
0.0
 11
22.0
 21
17.0
 12
0.0
 22
0.0
 32
0.0
 14
0.0
 24
0.0
 34
0.0
 15
0.0
 25
0.0
 35
0.0
146
0.0
 13
0.0
 23
0.0
 33
0.0
 16
1.0
 26
0.0
 36
0.0
 17
0.0
 27
1.0
 37
0.0
 76
0
330
222
345
0
346
0
  0
LAYOUT
  5
364
102
{ACAD_REACTORS
330
1A
102
}
100
AcDbPlotSettings
  1

  2
none_device
  4
ANSI_C_(22.00_x_17.00_Inches)
  6

 40
0.0
 41
0.0
 42
0.0
 43
0.0
 44
558.8
 45
431.8
 46
0.0
 47
0.0
 48
0.0
 49
0.0
140
0.0
141
0.0
142
1.0
143
1.0
 70
0
 72
0
 73
0
 74
0
  7

 75
0
147
1.0
148
0.0
149
0.0
100
AcDbLayout
  1
Layout1
 70
0
 71
1
 10
0.0
 20
0.0
 11
22.0
 21
17.0
 12
0.0
 22
0.0
 32
0.0
 14
0.0
 24
0.0
 34
0.0
 15
0.0
 25
0.0
 35
0.0
146
0.0
 13
0.0
 23
0.0
 33
0.0
 16
1.0
 26
0.0
 36
0.0
 17
0.0
 27
1.0
 37
0.0
 76
0
330
223
345
0
346
0
  0
ENDSEC
  0
EOF