999
DXF file: _cgs_temp_output.dxf
999
Pro/ENGINEER 2015110 by Parametric Technology Corporation
  0
SECTION
  2
HEADER
  9
$ACADVER
  1
AC1021
  9
$DWGCODEPAGE
  3
ANSI_1252
  9
$EXTMAX
 10
22.0
 20
17.0
 30
0.0
  9
$EXTMIN
 10
0.0
 20
0.0
 30
0.0
  9
$LIMMIN
 10
0.0
 20
0.0
  9
$LIMMAX
 10
22.0
 20
17.0
  9
$VIEWCTR
 10
11.0
 20
8.5
  9
$VIEWSIZE
 40
17.0
  9
$CLAYER
  8
0
  9
$LTSCALE
 40
1.21
  9
$CELTYPE
  6
BYLAYER
  9
$DIMSCALE
 40
1.0
  9
$DIMASZ
 40
0.1875
  9
$DIMEXO
 40
0.0625
  9
$DIMDLI
 40
0.836
  9
$DIMEXE
 40
0.125
  9
$DIMCEN
 40
0.198
  9
$DIMLFAC
 40
1.0
  9
$DIMBLK
  1
_CLOSED
  9
$DIMALT
 70
0
  9
$DIMALTF
 40
25.4
  9
$DIMTXT
 40
0.15625
  9
$DIMTOL
 70
0
  9
$DIMLIM
 70
0
  9
$DIMTFAC
 40
1.0
  9
$DIMGAP
 40
0.09
  9
$DIMDSEP
 70
46
  9
$AUNITS
 70
0
  9
$PDMODE
 70
3
  9
$PDSIZE
 40
0.3125
  9
$HANDSEED
  5
3DD
  9
$TILEMODE
 70
1
  9
$MEASUREMENT
 70
0
  9
$INSUNITS
 70
1
  0
ENDSEC
  0
SECTION
  2
CLASSES
  0
CLASS
  1
ACDBDICTIONARYWDFLT
  2
AcDbDictionaryWithDefault
  3
AutoCAD 2000
 90
0
 91
1
280
0
281
0
  0
CLASS
  1
ACDBPLACEHOLDER
  2
AcDbPlaceHolder
  3
AutoCAD 2000
 90
0
 91
1
280
0
281
0
  0
CLASS
  1
LAYOUT
  2
AcDbLayout
  3
AutoCAD 2000
 90
0
 91
0
280
0
281
0
  0
ENDSEC
  0
SECTION
  2
TABLES
  0
TABLE
  2
VPORT
  5
8
100
AcDbSymbolTable
 70
2
  0
VPORT
  5
1F4
100
AcDbSymbolTableRecord
100
AcDbViewportTableRecord
  2
*ACTIVE
 70
0
 10
0.0
 20
0.0
 11
1.0
 21
1.0
 12
11.0
 22
8.5
 13
0.0
 23
0.0
 14
1.0
 24
1.0
 15
0.0
 25
0.0
 16
0.0
 26
0.0
 36
1.0
 17
0.0
 27
0.0
 37
0.0
 40
17.0
 41
1.2941176471
 42
50.0
 43
0.0
 44
0.0
 50
0.0
 51
0.0
 71
0
 72
100
 73
1
 74
1
 75
0
 76
0
 77
0
 78
0
  0
ENDTAB
  0
TABLE
  2
LTYPE
  5
5
100
AcDbSymbolTable
 70
6
  0
LTYPE
  5
14
100
AcDbSymbolTableRecord
100
AcDbLinetypeTableRecord
  2
BYBLOCK
 70
0
  3

 72
65
 73
0
 40
0.0
  0
LTYPE
  5
15
100
AcDbSymbolTableRecord
100
AcDbLinetypeTableRecord
  2
BYLAYER
 70
0
  3

 72
65
 73
0
 40
0.0
  0
LTYPE
  5
16
100
AcDbSymbolTableRecord
100
AcDbLinetypeTableRecord
  2
CONTINUOUS
 70
64
  3
Solid line
 72
65
 73
0
 40
0.0
  0
LTYPE
  5
1F5
100
AcDbSymbolTableRecord
100
AcDbLinetypeTableRecord
  2
CENTER
 70
64
  3
____ _ ____ _ ____ _ ____ _ ____ _ ____ _ ____
 72
65
 73
4
 40
0.6
 49
0.375
 74
0
 49
-0.075
 74
0
 49
0.075
 74
0
 49
-0.075
 74
0
  0
LTYPE
  5
1F6
100
AcDbSymbolTableRecord
100
AcDbLinetypeTableRecord
  2
HIDDEN
 70
64
  3
- - - - - - - - - - - - - - - - - - - -
 72
65
 73
2
 40
0.2
 49
0.1
 74
0
 49
-0.1
 74
0
  0
LTYPE
  5
1F7
100
AcDbSymbolTableRecord
100
AcDbLinetypeTableRecord
  2
PHANTOM
 70
64
  3
_____ _ _ _____ _ _ _____ _ _ _____
 72
65
 73
6
 40
0.8
 49
0.45
 74
0
 49
-0.05
 74
0
 49
0.1
 74
0
 49
-0.05
 74
0
 49
0.1
 74
0
 49
-0.05
 74
0
  0
LTYPE
  5
1F8
100
AcDbSymbolTableRecord
100
AcDbLinetypeTableRecord
  2
DOT
 70
64
  3
. . . . . . . . . . . . . . . . . . . .
 72
65
 73
2
 40
0.2
 49
0.1
 74
0
 49
-0.1
 74
0
  0
LTYPE
  5
1F9
100
AcDbSymbolTableRecord
100
AcDbLinetypeTableRecord
  2
DASHED
 70
64
  3
- - - - - - - - - - - - - - - - - - - -
 72
65
 73
2
 40
0.2
 49
0.1
 74
0
 49
-0.1
 74
0
  0
ENDTAB
  0
TABLE
  2
LAYER
  5
2
100
AcDbSymbolTable
 70
36
  0
LAYER
  5
10
100
AcDbSymbolTableRecord
100
AcDbLayerTableRecord
  2
0
 70
0
 62
7
  6
CONTINUOUS
370
-3
390
F
  0
LAYER
  5
1FA
100
AcDbSymbolTableRecord
100
AcDbLayerTableRecord
  2
DEFAULT_1
 70
0
 62
7
  6
CENTER
370
-3
390
F
  0
LAYER
  5
1FB
100
AcDbSymbolTableRecord
100
AcDbLayerTableRecord
  2
DEFAULT_2
 70
0
 62
8
  6
HIDDEN
370
-3
390
F
  0
LAYER
  5
1FC
100
AcDbSymbolTableRecord
100
AcDbLayerTableRecord
  2
DEFAULT_3
 70
0
 62
7
  6
PHANTOM
370
-3
390
F
  0
LAYER
  5
1FD
100
AcDbSymbolTableRecord
100
AcDbLayerTableRecord
  2
01_ALL_DTM_PLN
 70
0
 62
7
  6
CONTINUOUS
370
-3
390
F
  0
LAYER
  5
1FE
100
AcDbSymbolTableRecord
100
AcDbLayerTableRecord
  2
01__ASM_ALL_DTM_PLN
 70
0
 62
7
  6
CONTINUOUS
370
-3
390
F
  0
LAYER
  5
1FF
100
AcDbSymbolTableRecord
100
AcDbLayerTableRecord
  2
01__ASM_DEF_DTM_PLN
 70
0
 62
7
  6
CONTINUOUS
370
-3
390
F
  0
LAYER
  5
200
100
AcDbSymbolTableRecord
100
AcDbLayerTableRecord
  2
01___PRT_ALL_DTM_PLN
 70
0
 62
7
  6
CONTINUOUS
370
-3
390
F
  0
LAYER
  5
201
100
AcDbSymbolTableRecord
100
AcDbLayerTableRecord
  2
01___PRT_DEF_DTM_PLN
 70
0
 62
7
  6
CONTINUOUS
370
-3
390
F
  0
LAYER
  5
202
100
AcDbSymbolTableRecord
100
AcDbLayerTableRecord
  2
02_ALL_AXES
 70
0
 62
7
  6
CONTINUOUS
370
-3
390
F
  0
LAYER
  5
203
100
AcDbSymbolTableRecord
100
AcDbLayerTableRecord
  2
02__ASM_ALL_AXES
 70
0
 62
7
  6
CONTINUOUS
370
-3
390
F
  0
LAYER
  5
204
100
AcDbSymbolTableRecord
100
AcDbLayerTableRecord
  2
02___PRT_ALL_AXES
 70
0
 62
7
  6
CONTINUOUS
370
-3
390
F
  0
LAYER
  5
205
100
AcDbSymbolTableRecord
100
AcDbLayerTableRecord
  2
03_ALL_CURVES
 70
0
 62
7
  6
CONTINUOUS
370
-3
390
F
  0
LAYER
  5
206
100
AcDbSymbolTableRecord
100
AcDbLayerTableRecord
  2
03__ASM_ALL_CURVES
 70
0
 62
7
  6
CONTINUOUS
370
-3
390
F
  0
LAYER
  5
207
100
AcDbSymbolTableRecord
100
AcDbLayerTableRecord
  2
03___PRT_ALL_CURVES
 70
0
 62
7
  6
CONTINUOUS
370
-3
390
F
  0
LAYER
  5
208
100
AcDbSymbolTableRecord
100
AcDbLayerTableRecord
  2
04_ALL_DTM_PNT
 70
0
 62
7
  6
CONTINUOUS
370
-3
390
F
  0
LAYER
  5
209
100
AcDbSymbolTableRecord
100
AcDbLayerTableRecord
  2
04__ASM_ALL_DTM_PNT
 70
0
 62
7
  6
CONTINUOUS
370
-3
390
F
  0
LAYER
  5
20A
100
AcDbSymbolTableRecord
100
AcDbLayerTableRecord
  2
04___PRT_ALL_DTM_PNT
 70
0
 62
7
  6
CONTINUOUS
370
-3
390
F
  0
LAYER
  5
20B
100
AcDbSymbolTableRecord
100
AcDbLayerTableRecord
  2
05_ALL_DTM_CSYS
 70
0
 62
7
  6
CONTINUOUS
370
-3
390
F
  0
LAYER
  5
20C
100
AcDbSymbolTableRecord
100
AcDbLayerTableRecord
  2
05__ASM_ALL_DTM_CSYS
 70
0
 62
7
  6
CONTINUOUS
370
-3
390
F
  0
LAYER
  5
20D
100
AcDbSymbolTableRecord
100
AcDbLayerTableRecord
  2
05__ASM_DEF_DTM_CSYS
 70
0
 62
7
  6
CONTINUOUS
370
-3
390
F
  0
LAYER
  5
20E
100
AcDbSymbolTableRecord
100
AcDbLayerTableRecord
  2
05___PRT_ALL_DTM_CSYS
 70
0
 62
7
  6
CONTINUOUS
370
-3
390
F
  0
LAYER
  5
20F
100
AcDbSymbolTableRecord
100
AcDbLayerTableRecord
  2
05___PRT_DEF_DTM_CSYS
 70
0
 62
7
  6
CONTINUOUS
370
-3
390
F
  0
LAYER
  5
210
100
AcDbSymbolTableRecord
100
AcDbLayerTableRecord
  2
06_ALL_SURFS
 70
0
 62
7
  6
CONTINUOUS
370
-3
390
F
  0
LAYER
  5
211
100
AcDbSymbolTableRecord
100
AcDbLayerTableRecord
  2
06__ASM_ALL_SURFS
 70
0
 62
7
  6
CONTINUOUS
370
-3
390
F
  0
LAYER
  5
212
100
AcDbSymbolTableRecord
100
AcDbLayerTableRecord
  2
06___PRT_ALL_SURFS
 70
0
 62
7
  6
CONTINUOUS
370
-3
390
F
  0
LAYER
  5
213
100
AcDbSymbolTableRecord
100
AcDbLayerTableRecord
  2
07__ASM_ALL_SKELETONS
 70
0
 62
7
  6
CONTINUOUS
370
-3
390
F
  0
LAYER
  5
214
100
AcDbSymbolTableRecord
100
AcDbLayerTableRecord
  2
LAYER_AXIS
 70
0
 62
7
  6
CONTINUOUS
370
-3
390
F
  0
LAYER
  5
215
100
AcDbSymbolTableRecord
100
AcDbLayerTableRecord
  2
LAYER_CHAMFER_FEAT
 70
0
 62
7
  6
CONTINUOUS
370
-3
390
F
  0
LAYER
  5
216
100
AcDbSymbolTableRecord
100
AcDbLayerTableRecord
  2
LAYER_CUT_FEAT
 70
0
 62
7
  6
CONTINUOUS
370
-3
390
F
  0
LAYER
  5
217
100
AcDbSymbolTableRecord
100
AcDbLayerTableRecord
  2
LAYER_DATUM
 70
0
 62
7
  6
CONTINUOUS
370
-3
390
F
  0
LAYER
  5
218
100
AcDbSymbolTableRecord
100
AcDbLayerTableRecord
  2
LAYER_DIM
 70
0
 62
7
  6
CONTINUOUS
370
-3
390
F
  0
LAYER
  5
219
100
AcDbSymbolTableRecord
100
AcDbLayerTableRecord
  2
LAYER_FEATURE
 70
0
 62
7
  6
CONTINUOUS
370
-3
390
F
  0
LAYER
  5
21A
100
AcDbSymbolTableRecord
100
AcDbLayerTableRecord
  2
LAYER_GEOM_FEAT
 70
0
 62
7
  6
CONTINUOUS
370
-3
390
F
  0
LAYER
  5
21B
100
AcDbSymbolTableRecord
100
AcDbLayerTableRecord
  2
LAYER_NOGEOM_FEAT
 70
0
 62
7
  6
CONTINUOUS
370
-3
390
F
  0
LAYER
  5
21C
100
AcDbSymbolTableRecord
100
AcDbLayerTableRecord
  2
LAYER_PARAMETER_DIM
 70
0
 62
7
  6
CONTINUOUS
370
-3
390
F
  0
LAYER
  5
21D
100
AcDbSymbolTableRecord
100
AcDbLayerTableRecord
  2
LAYER_PROTRUSION_FEAT
 70
0
 62
7
  6
CONTINUOUS
370
-3
390
F
  0
LAYER
  5
21E
100
AcDbSymbolTableRecord
100
AcDbLayerTableRecord
  2
LAYER_QUILT
 70
0
 62
7
  6
CONTINUOUS
370
-3
390
F
  0
LAYER
  5
21F
100
AcDbSymbolTableRecord
100
AcDbLayerTableRecord
  2
LAYER_ROUND_FEAT
 70
0
 62
7
  6
CONTINUOUS
370
-3
390
F
  0
ENDTAB
  0
TABLE
  2
STYLE
  5
3
100
AcDbSymbolTable
 70
1
  0
STYLE
  5
11
100
AcDbSymbolTableRecord
100
AcDbTextStyleTableRecord
  2
STANDARD
 70
0
 40
0.0
 41
0.8
 50
0.0
 71
0
 42
0.2
  3
txt
  4

  0
STYLE
  5
220
100
AcDbSymbolTableRecord
100
AcDbTextStyleTableRecord
  2
TEXTSTYLE_1
 70
0
 40
0.0
 41
0.8
 50
0.0
 71
0
 42
0.2
  3
gdt
  4

  0
ENDTAB
  0
TABLE
  2
VIEW
  5
6
100
AcDbSymbolTable
 70
0
  0
ENDTAB
  0
TABLE
  2
UCS
  5
7
100
AcDbSymbolTable
 70
0
  0
ENDTAB
  0
TABLE
  2
APPID
  5
9
100
AcDbSymbolTable
 70
1
  0
APPID
  5
221
100
AcDbSymbolTableRecord
100
AcDbRegAppTableRecord
  2
ACAD
 70
0
  0
ENDTAB
  0
TABLE
  2
BLOCK_RECORD
  5
1
100
AcDbSymbolTable
 70
0
  0
BLOCK_RECORD
  5
222
100
AcDbSymbolTableRecord
100
AcDbBlockTableRecord
  2
*Model_Space
  0
BLOCK_RECORD
  5
223
100
AcDbSymbolTableRecord
100
AcDbBlockTableRecord
  2
*Paper_Space
  0
ENDTAB
  0
TABLE
  2
DIMSTYLE
  5
A
100
AcDbSymbolTable
 70
1
100
AcDbDimStyleTable
 71
0
  0
DIMSTYLE
105
224
100
AcDbSymbolTableRecord
100
AcDbDimStyleTableRecord
  2
STANDARD
 70
0
  3

  4

 40
1.0
 41
0.1875
 42
0.0625
 43
0.38
 44
0.125
 45
0.0
 46
0.0
 47
0.0001
 48
0.0001
140
0.15625
141
0.09
142
0.0
143
25.4
144
1.0
145
0.0
146
1.0
147
0.09
 71
0.0
 72
0.0
 73
1
 74
1
 75
0
 76
0
 77
0
 78
4
170
0
171
2
172
0
173
0
174
0
175
0
176
0
177
0
178
0
270
2
271
4
272
4
273
2
274
2
275
0
280
0
281
0
282
0
283
1
284
4
285
0
286
0
287
3
288
0
340
11
278
46
  0
ENDTAB
  0
ENDSEC
  0
SECTION
  2
BLOCKS
  0
BLOCK
  5
20
100
AcDbEntity
  8
0
100
AcDbBlockBegin
  2
*Model_Space
 70
0
 10
0.0
 20
0.0
 30
0.0
  3
*Model_Space
  1

  0
ENDBLK
  5
21
100
AcDbEntity
  8
0
100
AcDbBlockEnd
  0
BLOCK
  5
1C
100
AcDbEntity
  8
0
100
AcDbBlockBegin
  2
*Paper_Space
 70
0
 10
0.0
 20
0.0
 30
0.0
  3
*Paper_Space
  1

  0
ENDBLK
  5
1D
100
AcDbEntity
  8
0
100
AcDbBlockEnd
  0
ENDSEC
  0
SECTION
  2
ENTITIES
  0
MTEXT
  5
225
100
AcDbEntity
  8
0
100
AcDbMText
 62
7
  6
CONTINUOUS
  7
STANDARD
 71
1
 72
1
 10
15.9560215477
 20
0.9479130325
 30
0.0
 11
1.0
 21
0.0
 31
0.0
 44
0.9
  1
SCALE: 1:2.000
 40
0.3
 41
3.36
  0
LINE
  5
226
100
AcDbEntity
  8
0
100
AcDbLine
 62
7
  6
CONTINUOUS
 10
0.0
 20
0.0
 11
0.0
 21
17.0
  0
LINE
  5
227
100
AcDbEntity
  8
0
100
AcDbLine
 62
7
  6
CONTINUOUS
 10
0.0
 20
0.0
 11
22.0
 21
0.0
  0
LINE
  5
228
100
AcDbEntity
  8
0
100
AcDbLine
 62
7
  6
CONTINUOUS
 10
0.0
 20
17.0
 11
22.0
 21
17.0
  0
LINE
  5
229
100
AcDbEntity
  8
0
100
AcDbLine
 62
7
  6
CONTINUOUS
 10
22.0
 20
0.0
 11
22.0
 21
17.0
  0
LINE
  5
22A
100
AcDbEntity
  8
LAYER_FEATURE
100
AcDbLine
 62
7
  6
CONTINUOUS
 10
5.9991672762
 20
6.3261198968
 11
5.9861136464
 21
6.3130662669
  0
LINE
  5
22B
100
AcDbEntity
  8
LAYER_FEATURE
100
AcDbLine
 62
7
  6
CONTINUOUS
 10
6.9363672762
 20
5.3889198968
 11
6.9232617275
 21
5.3758143481
  0
LINE
  5
22C
100
AcDbEntity
  8
LAYER_FEATURE
100
AcDbLine
 62
7
  6
CONTINUOUS
 10
6.2615672762
 20
6.3261198968
 11
6.274620906
 21
6.3130662669
  0
LINE
  5
22D
100
AcDbEntity
  8
LAYER_FEATURE
100
AcDbLine
 62
7
  6
CONTINUOUS
 10
6.9363672762
 20
5.6513198968
 11
6.9232617275
 21
5.6644254454
  0
LINE
  5
22E
100
AcDbEntity
  8
LAYER_FEATURE
100
AcDbLine
 62
7
  6
CONTINUOUS
 10
6.9363672762
 20
5.6513198968
 11
6.9363672762
 21
5.3889198968
  0
LINE
  5
22F
100
AcDbEntity
  8
LAYER_FEATURE
100
AcDbLine
 62
7
  6
CONTINUOUS
 10
5.9991672762
 20
6.3261198968
 11
6.2615672762
 21
6.3261198968
  0
LINE
  5
230
100
AcDbEntity
  8
LAYER_FEATURE
100
AcDbLine
 62
7
  6
CONTINUOUS
 10
4.8108720839
 20
12.5075477814
 11
4.8108720839
 21
12.5875477814
  0
LINE
  5
231
100
AcDbEntity
  8
LAYER_FEATURE
100
AcDbLine
 62
7
  6
CONTINUOUS
 10
4.8108720839
 20
13.2375477814
 11
4.8108720839
 21
13.3175477814
  0
LINE
  5
232
100
AcDbEntity
  8
02___PRT_ALL_AXES
100
AcDbLine
 62
7
  6
CONTINUOUS
 10
5.0378720839
 20
12.6225477814
 11
5.0378720839
 21
13.2025477814
  0
LINE
  5
233
100
AcDbEntity
  8
LAYER_FEATURE
100
AcDbLine
 62
7
  6
CONTINUOUS
 10
5.0379967012
 20
12.6225477814
 11
5.0379967012
 21
13.2025477814
  0
LINE
  5
234
100
AcDbEntity
  8
LAYER_FEATURE
100
AcDbLine
 62
7
  6
CONTINUOUS
 10
5.0471416742
 20
12.6225477814
 11
5.0471416742
 21
13.2025477814
  0
LINE
  5
235
100
AcDbEntity
  8
LAYER_FEATURE
100
AcDbLine
 62
7
  6
CONTINUOUS
 10
5.0519244574
 20
12.6225477814
 11
5.0519244574
 21
13.2025477814
  0
LINE
  5
236
100
AcDbEntity
  8
LAYER_FEATURE
100
AcDbLine
 62
7
  6
CONTINUOUS
 10
5.079155093
 20
12.6225477814
 11
5.079155093
 21
13.2025477814
  0
LINE
  5
237
100
AcDbEntity
  8
LAYER_FEATURE
100
AcDbLine
 62
7
  6
CONTINUOUS
 10
5.0886138198
 20
12.6225477814
 11
5.0886138198
 21
13.2025477814
  0
LINE
  5
238
100
AcDbEntity
  8
LAYER_FEATURE
100
AcDbLine
 62
7
  6
CONTINUOUS
 10
5.1333218305
 20
12.6225477814
 11
5.1333218305
 21
13.2025477814
  0
LINE
  5
239
100
AcDbEntity
  8
LAYER_FEATURE
100
AcDbLine
 62
7
  6
CONTINUOUS
 10
5.1472452087
 20
12.6225477814
 11
5.1472452087
 21
13.2025477814
  0
LINE
  5
23A
100
AcDbEntity
  8
0
100
AcDbLine
 62
7
  6
CONTINUOUS
 10
5.2082671339
 20
13.2025477814
 11
5.2082671339
 21
12.6225477814
  0
LINE
  5
23B
100
AcDbEntity
  8
LAYER_FEATURE
100
AcDbLine
 62
7
  6
CONTINUOUS
 10
5.2084318915
 20
12.6225477814
 11
5.2084318915
 21
13.2025477814
  0
LINE
  5
23C
100
AcDbEntity
  8
LAYER_FEATURE
100
AcDbLine
 62
7
  6
CONTINUOUS
 10
5.2265088958
 20
12.6225477814
 11
5.2265088958
 21
13.2025477814
  0
LINE
  5
23D
100
AcDbEntity
  8
02___PRT_ALL_AXES
100
AcDbLine
 62
7
  6
CONTINUOUS
 10
5.2648720839
 20
11.8825477814
 11
5.2648720839
 21
12.5075477814
  0
LINE
  5
23E
100
AcDbEntity
  8
0
100
AcDbLine
 62
7
  6
CONTINUOUS
 10
5.3020813297
 20
13.2025477814
 11
5.3020813297
 21
12.6225477814
  0
LINE
  5
23F
100
AcDbEntity
  8
LAYER_FEATURE
100
AcDbLine
 62
7
  6
CONTINUOUS
 10
5.3028074412
 20
12.6225477814
 11
5.3028074412
 21
13.2025477814
  0
LINE
  5
240
100
AcDbEntity
  8
LAYER_FEATURE
100
AcDbLine
 62
7
  6
CONTINUOUS
 10
5.3246342612
 20
12.6225477814
 11
5.3246342612
 21
13.2025477814
  0
LINE
  5
241
100
AcDbEntity
  8
02___PRT_ALL_AXES
100
AcDbLine
 62
7
  6
CONTINUOUS
 10
5.2648720979
 20
11.8825477814
 11
6.8768720698
 21
11.8825477814
  0
LINE
  5
242
100
AcDbEntity
  8
0
100
AcDbLine
 62
7
  6
CONTINUOUS
 10
5.4126669503
 20
13.2025477814
 11
5.4126669503
 21
12.6225477814
  0
LINE
  5
243
100
AcDbEntity
  8
LAYER_FEATURE
100
AcDbLine
 62
7
  6
CONTINUOUS
 10
5.4143402858
 20
12.6225477814
 11
5.4143402858
 21
13.2025477814
  0
LINE
  5
244
100
AcDbEntity
  8
LAYER_FEATURE
100
AcDbLine
 62
7
  6
CONTINUOUS
 10
5.4394293465
 20
12.6225477814
 11
5.4394293465
 21
13.2025477814
  0
LINE
  5
245
100
AcDbEntity
  8
0
100
AcDbLine
 62
7
  6
CONTINUOUS
 10
5.5375536957
 20
13.2025477814
 11
5.5375536957
 21
12.6225477814
  0
LINE
  5
246
100
AcDbEntity
  8
LAYER_FEATURE
100
AcDbLine
 62
7
  6
CONTINUOUS
 10
5.540538966
 20
12.6225477814
 11
5.540538966
 21
13.2025477814
  0
LINE
  5
247
100
AcDbEntity
  8
LAYER_FEATURE
100
AcDbLine
 62
7
  6
CONTINUOUS
 10
5.5683298191
 20
12.6225477814
 11
5.5683298191
 21
13.2025477814
  0
LINE
  5
248
100
AcDbEntity
  8
LAYER_CUT_FEAT
100
AcDbLine
 62
7
  6
CONTINUOUS
 10
6.0235293618
 20
12.1130477814
 11
6.1182148059
 21
12.1130477814
  0
LINE
  5
249
100
AcDbEntity
  8
0
100
AcDbLine
 62
7
  6
CONTINUOUS
 10
5.6739037686
 20
13.2025477814
 11
5.6739037686
 21
12.6225477814
  0
LINE
  5
24A
100
AcDbEntity
  8
LAYER_FEATURE
100
AcDbLine
 62
7
  6
CONTINUOUS
 10
5.6785844116
 20
12.6225477814
 11
5.6785844116
 21
13.2025477814
  0
LINE
  5
24B
100
AcDbEntity
  8
LAYER_FEATURE
100
AcDbLine
 62
7
  6
CONTINUOUS
 10
5.7084562554
 20
12.6225477814
 11
5.7084562554
 21
13.2025477814
  0
LINE
  5
24C
100
AcDbEntity
  8
LAYER_FEATURE
100
AcDbLine
 62
7
  6
CONTINUOUS
 10
4.8108720839
 20
12.5875477814
 11
4.8960908695
 21
12.6146628495
  0
LINE
  5
24D
100
AcDbEntity
  8
LAYER_CUT_FEAT
100
AcDbLine
 62
7
  6
CONTINUOUS
 10
6.1182148059
 20
12.2770477814
 11
6.0235293618
 21
12.2770477814
  0
LINE
  5
24E
100
AcDbEntity
  8
LAYER_CUT_FEAT
100
AcDbLine
 62
7
  6
CONTINUOUS
 10
5.9761866397
 20
12.1950477814
 11
6.0235293618
 21
12.1130477814
  0
LINE
  5
24F
100
AcDbEntity
  8
0
100
AcDbLine
 62
7
  6
CONTINUOUS
 10
5.8181178455
 20
13.2025477814
 11
5.8181178455
 21
12.6225477814
  0
LINE
  5
250
100
AcDbEntity
  8
LAYER_FEATURE
100
AcDbLine
 62
7
  6
CONTINUOUS
 10
5.8253929156
 20
12.6225477814
 11
5.8253929156
 21
13.2025477814
  0
LINE
  5
251
100
AcDbEntity
  8
LAYER_FEATURE
100
AcDbLine
 62
7
  6
CONTINUOUS
 10
5.8566784625
 20
12.6225477814
 11
5.8566784625
 21
13.2025477814
  0
LINE
  5
252
100
AcDbEntity
  8
LAYER_FEATURE
100
AcDbLine
 62
7
  6
CONTINUOUS
 10
7.2456532982
 20
13.2104327132
 11
7.3308720839
 21
13.2375477814
  0
LINE
  5
253
100
AcDbEntity
  8
LAYER_FEATURE
100
AcDbLine
 62
7
  6
CONTINUOUS
 10
5.9776850186
 20
12.6225477814
 11
5.9776850186
 21
13.2025477814
  0
LINE
  5
254
100
AcDbEntity
  8
LAYER_FEATURE
100
AcDbLine
 62
7
  6
CONTINUOUS
 10
4.8108720839
 20
12.5075477814
 11
7.3308720839
 21
12.5075477814
  0
LINE
  5
255
100
AcDbEntity
  8
LAYER_CUT_FEAT
100
AcDbLine
 62
7
  6
CONTINUOUS
 10
6.165557528
 20
12.1950477814
 11
6.1182148059
 21
12.2770477814
  0
LINE
  5
256
100
AcDbEntity
  8
LAYER_FEATURE
100
AcDbLine
 62
7
  6
CONTINUOUS
 10
6.0096854011
 20
12.6225477814
 11
6.0096854011
 21
13.2025477814
  0
LINE
  5
257
100
AcDbEntity
  8
LAYER_FEATURE
100
AcDbLine
 62
7
  6
CONTINUOUS
 10
4.8108720839
 20
12.5875477814
 11
7.3308720839
 21
12.5875477814
  0
LINE
  5
258
100
AcDbEntity
  8
LAYER_FEATURE
100
AcDbLine
 62
7
  6
CONTINUOUS
 10
6.1320587666
 20
12.6225477814
 11
6.1320587666
 21
13.2025477814
  0
LINE
  5
259
100
AcDbEntity
  8
LAYER_FEATURE
100
AcDbLine
 62
7
  6
CONTINUOUS
 10
6.1640591491
 20
12.6225477814
 11
6.1640591491
 21
13.2025477814
  0
LINE
  5
25A
100
AcDbEntity
  8
LAYER_FEATURE
100
AcDbLine
 62
7
  6
CONTINUOUS
 10
7.1948666128
 20
12.6225477814
 11
4.946877555
 21
12.6225477814
  0
LINE
  5
25B
100
AcDbEntity
  8
LAYER_CUT_FEAT
100
AcDbLine
 62
7
  6
CONTINUOUS
 10
6.0235293618
 20
12.2770477814
 11
5.9761866397
 21
12.1950477814
  0
LINE
  5
25C
100
AcDbEntity
  8
LAYER_FEATURE
100
AcDbLine
 62
7
  6
CONTINUOUS
 10
6.2850657052
 20
12.6225477814
 11
6.2850657052
 21
13.2025477814
  0
LINE
  5
25D
100
AcDbEntity
  8
LAYER_FEATURE
100
AcDbLine
 62
7
  6
CONTINUOUS
 10
6.3163512521
 20
12.6225477814
 11
6.3163512521
 21
13.2025477814
  0
LINE
  5
25E
100
AcDbEntity
  8
LAYER_CUT_FEAT
100
AcDbLine
 62
7
  6
CONTINUOUS
 10
6.3236263222
 20
13.2025477814
 11
6.3236263222
 21
12.6225477814
  0
LINE
  5
25F
100
AcDbEntity
  8
LAYER_CUT_FEAT
100
AcDbLine
 62
7
  6
CONTINUOUS
 10
6.1182148059
 20
12.1130477814
 11
6.165557528
 21
12.1950477814
  0
LINE
  5
260
100
AcDbEntity
  8
LAYER_FEATURE
100
AcDbLine
 62
7
  6
CONTINUOUS
 10
4.8960908695
 20
13.2104327132
 11
4.8108720839
 21
13.2375477814
  0
LINE
  5
261
100
AcDbEntity
  8
LAYER_FEATURE
100
AcDbLine
 62
7
  6
CONTINUOUS
 10
6.4332879123
 20
12.6225477814
 11
6.4332879123
 21
13.2025477814
  0
LINE
  5
262
100
AcDbEntity
  8
LAYER_FEATURE
100
AcDbLine
 62
7
  6
CONTINUOUS
 10
6.4631597561
 20
12.6225477814
 11
6.4631597561
 21
13.2025477814
  0
LINE
  5
263
100
AcDbEntity
  8
LAYER_CUT_FEAT
100
AcDbLine
 62
7
  6
CONTINUOUS
 10
6.4678403991
 20
13.2025477814
 11
6.4678403991
 21
12.6225477814
  0
LINE
  5
264
100
AcDbEntity
  8
LAYER_FEATURE
100
AcDbLine
 62
7
  6
CONTINUOUS
 10
7.3308720839
 20
12.5875477814
 11
7.2456532982
 21
12.6146628495
  0
LINE
  5
265
100
AcDbEntity
  8
LAYER_FEATURE
100
AcDbLine
 62
7
  6
CONTINUOUS
 10
6.871709041
 20
12.3314108243
 11
6.8768720839
 21
12.3262477814
  0
LINE
  5
266
100
AcDbEntity
  8
LAYER_FEATURE
100
AcDbLine
 62
7
  6
CONTINUOUS
 10
6.5734143487
 20
12.6225477814
 11
6.5734143487
 21
13.2025477814
  0
LINE
  5
267
100
AcDbEntity
  8
LAYER_FEATURE
100
AcDbLine
 62
7
  6
CONTINUOUS
 10
6.6012052017
 20
12.6225477814
 11
6.6012052017
 21
13.2025477814
  0
LINE
  5
268
100
AcDbEntity
  8
LAYER_CUT_FEAT
100
AcDbLine
 62
7
  6
CONTINUOUS
 10
6.604190472
 20
13.2025477814
 11
6.604190472
 21
12.6225477814
  0
LINE
  5
269
100
AcDbEntity
  8
LAYER_FEATURE
100
AcDbLine
 62
7
  6
CONTINUOUS
 10
6.7023148212
 20
12.6225477814
 11
6.7023148212
 21
13.2025477814
  0
LINE
  5
26A
100
AcDbEntity
  8
LAYER_FEATURE
100
AcDbLine
 62
7
  6
CONTINUOUS
 10
6.7274038819
 20
12.6225477814
 11
6.7274038819
 21
13.2025477814
  0
LINE
  5
26B
100
AcDbEntity
  8
LAYER_CUT_FEAT
100
AcDbLine
 62
7
  6
CONTINUOUS
 10
6.7290772174
 20
13.2025477814
 11
6.7290772174
 21
12.6225477814
  0
LINE
  5
26C
100
AcDbEntity
  8
LAYER_FEATURE
100
AcDbLine
 62
7
  6
CONTINUOUS
 10
7.1948666128
 20
13.2025477814
 11
4.946877555
 21
13.2025477814
  0
LINE
  5
26D
100
AcDbEntity
  8
LAYER_FEATURE
100
AcDbLine
 62
7
  6
CONTINUOUS
 10
4.8108720839
 20
13.2375477814
 11
7.3308720839
 21
13.2375477814
  0
LINE
  5
26E
100
AcDbEntity
  8
LAYER_FEATURE
100
AcDbLine
 62
7
  6
CONTINUOUS
 10
6.8171099065
 20
12.6225477814
 11
6.8171099065
 21
13.2025477814
  0
LINE
  5
26F
100
AcDbEntity
  8
LAYER_FEATURE
100
AcDbLine
 62
7
  6
CONTINUOUS
 10
6.8389367265
 20
12.6225477814
 11
6.8389367265
 21
13.2025477814
  0
LINE
  5
270
100
AcDbEntity
  8
LAYER_CUT_FEAT
100
AcDbLine
 62
7
  6
CONTINUOUS
 10
6.839662838
 20
13.2025477814
 11
6.839662838
 21
12.6225477814
  0
LINE
  5
271
100
AcDbEntity
  8
LAYER_FEATURE
100
AcDbLine
 62
7
  6
CONTINUOUS
 10
4.8108720839
 20
13.3175477814
 11
7.3308720839
 21
13.3175477814
  0
LINE
  5
272
100
AcDbEntity
  8
02___PRT_ALL_AXES
100
AcDbLine
 62
7
  6
CONTINUOUS
 10
6.8768720839
 20
11.8825477814
 11
6.8768720839
 21
12.0310477814
  0
LINE
  5
273
100
AcDbEntity
  8
LAYER_FEATURE
100
AcDbLine
 62
7
  6
CONTINUOUS
 10
6.8768720839
 20
12.0638478689
 11
6.8768720839
 21
12.3262476938
  0
LINE
  5
274
100
AcDbEntity
  8
02___PRT_ALL_AXES
100
AcDbLine
 62
7
  6
CONTINUOUS
 10
6.8768720839
 20
12.3590477814
 11
6.8768720839
 21
12.5075477814
  0
LINE
  5
275
100
AcDbEntity
  8
LAYER_FEATURE
100
AcDbLine
 62
7
  6
CONTINUOUS
 10
6.9152352719
 20
12.6225477814
 11
6.9152352719
 21
13.2025477814
  0
LINE
  5
276
100
AcDbEntity
  8
LAYER_FEATURE
100
AcDbLine
 62
7
  6
CONTINUOUS
 10
6.9333122762
 20
12.6225477814
 11
6.9333122762
 21
13.2025477814
  0
LINE
  5
277
100
AcDbEntity
  8
LAYER_CUT_FEAT
100
AcDbLine
 62
7
  6
CONTINUOUS
 10
6.9334770338
 20
13.2025477814
 11
6.9334770338
 21
12.6225477814
  0
LINE
  5
278
100
AcDbEntity
  8
LAYER_FEATURE
100
AcDbLine
 62
7
  6
CONTINUOUS
 10
6.994498959
 20
12.6225477814
 11
6.994498959
 21
13.2025477814
  0
LINE
  5
279
100
AcDbEntity
  8
LAYER_FEATURE
100
AcDbLine
 62
7
  6
CONTINUOUS
 10
7.0084223372
 20
12.6225477814
 11
7.0084223372
 21
13.2025477814
  0
LINE
  5
27A
100
AcDbEntity
  8
LAYER_FEATURE
100
AcDbLine
 62
7
  6
CONTINUOUS
 10
6.8717090392
 20
12.0586847367
 11
6.8768720839
 21
12.0638477814
  0
LINE
  5
27B
100
AcDbEntity
  8
LAYER_FEATURE
100
AcDbLine
 62
7
  6
CONTINUOUS
 10
7.0531303479
 20
12.6225477814
 11
7.0531303479
 21
13.2025477814
  0
LINE
  5
27C
100
AcDbEntity
  8
LAYER_FEATURE
100
AcDbLine
 62
7
  6
CONTINUOUS
 10
7.0625890748
 20
12.6225477814
 11
7.0625890748
 21
13.2025477814
  0
LINE
  5
27D
100
AcDbEntity
  8
LAYER_FEATURE
100
AcDbLine
 62
7
  6
CONTINUOUS
 10
7.0898197103
 20
12.6225477814
 11
7.0898197103
 21
13.2025477814
  0
LINE
  5
27E
100
AcDbEntity
  8
LAYER_FEATURE
100
AcDbLine
 62
7
  6
CONTINUOUS
 10
7.0946024935
 20
12.6225477814
 11
7.0946024935
 21
13.2025477814
  0
LINE
  5
27F
100
AcDbEntity
  8
LAYER_FEATURE
100
AcDbLine
 62
7
  6
CONTINUOUS
 10
7.1037474665
 20
12.6225477814
 11
7.1037474665
 21
13.2025477814
  0
LINE
  5
280
100
AcDbEntity
  8
02___PRT_ALL_AXES
100
AcDbLine
 62
7
  6
CONTINUOUS
 10
7.1038720839
 20
12.6225477814
 11
7.1038720839
 21
13.2025477814
  0
LINE
  5
281
100
AcDbEntity
  8
LAYER_FEATURE
100
AcDbLine
 62
7
  6
CONTINUOUS
 10
7.3308720839
 20
12.5075477814
 11
7.3308720839
 21
12.5875477814
  0
LINE
  5
282
100
AcDbEntity
  8
LAYER_FEATURE
100
AcDbLine
 62
7
  6
CONTINUOUS
 10
7.3308720839
 20
13.2375477814
 11
7.3308720839
 21
13.3175477814
  0
LINE
  5
283
100
AcDbEntity
  8
LAYER_FEATURE
100
AcDbLine
 62
7
  6
CONTINUOUS
 10
16.2778552569
 20
4.2006247044
 11
16.1978552569
 21
4.2006247044
  0
LINE
  5
284
100
AcDbEntity
  8
LAYER_FEATURE
100
AcDbLine
 62
7
  6
CONTINUOUS
 10
15.5478552569
 20
4.2006247044
 11
15.4678552569
 21
4.2006247044
  0
LINE
  5
285
100
AcDbEntity
  8
LAYER_FEATURE
100
AcDbLine
 62
7
  6
CONTINUOUS
 10
15.5828552569
 20
4.4294384022
 11
16.1628552569
 21
4.4294384022
  0
LINE
  5
286
100
AcDbEntity
  8
LAYER_FEATURE
100
AcDbLine
 62
7
  6
CONTINUOUS
 10
15.5828552569
 20
4.4318364994
 11
16.1628552569
 21
4.4318364994
  0
LINE
  5
287
100
AcDbEntity
  8
LAYER_FEATURE
100
AcDbLine
 62
7
  6
CONTINUOUS
 10
15.5828552569
 20
4.4500753031
 11
16.1628552569
 21
4.4500753031
  0
LINE
  5
288
100
AcDbEntity
  8
LAYER_FEATURE
100
AcDbLine
 62
7
  6
CONTINUOUS
 10
15.5828552569
 20
4.457216025
 11
16.1628552569
 21
4.457216025
  0
LINE
  5
289
100
AcDbEntity
  8
LAYER_FEATURE
100
AcDbLine
 62
7
  6
CONTINUOUS
 10
15.5828552569
 20
4.4932862077
 11
16.1628552569
 21
4.4932862077
  0
LINE
  5
28A
100
AcDbEntity
  8
LAYER_FEATURE
100
AcDbLine
 62
7
  6
CONTINUOUS
 10
15.5828552569
 20
4.5050100425
 11
16.1628552569
 21
4.5050100425
  0
LINE
  5
28B
100
AcDbEntity
  8
LAYER_FEATURE
100
AcDbLine
 62
7
  6
CONTINUOUS
 10
15.0189926311
 20
6.2614620786
 11
15.0241552569
 21
6.2666247044
  0
LINE
  5
28C
100
AcDbEntity
  8
LAYER_CUT_FEAT
100
AcDbLine
 62
7
  6
CONTINUOUS
 10
16.1628552569
 20
4.5580728096
 11
15.5828552569
 21
4.5580728096
  0
LINE
  5
28D
100
AcDbEntity
  8
LAYER_FEATURE
100
AcDbLine
 62
7
  6
CONTINUOUS
 10
15.5828552569
 20
4.5581058558
 11
16.1628552569
 21
4.5581058558
  0
LINE
  5
28E
100
AcDbEntity
  8
LAYER_FEATURE
100
AcDbLine
 62
7
  6
CONTINUOUS
 10
15.5828552569
 20
4.5741509123
 11
16.1628552569
 21
4.5741509123
  0
LINE
  5
28F
100
AcDbEntity
  8
LAYER_CUT_FEAT
100
AcDbLine
 62
7
  6
CONTINUOUS
 10
16.1628552569
 20
4.6426900729
 11
15.5828552569
 21
4.6426900729
  0
LINE
  5
290
100
AcDbEntity
  8
LAYER_FEATURE
100
AcDbLine
 62
7
  6
CONTINUOUS
 10
15.5828552569
 20
4.6430862837
 11
16.1628552569
 21
4.6430862837
  0
LINE
  5
291
100
AcDbEntity
  8
02___PRT_ALL_AXES
100
AcDbLine
 62
7
  6
CONTINUOUS
 10
15.4678552569
 20
4.6546247044
 11
14.8428552569
 21
4.6546247044
  0
LINE
  5
292
100
AcDbEntity
  8
LAYER_FEATURE
100
AcDbLine
 62
7
  6
CONTINUOUS
 10
15.5828552569
 20
4.6630941419
 11
16.1628552569
 21
4.6630941419
  0
LINE
  5
293
100
AcDbEntity
  8
02___PRT_ALL_AXES
100
AcDbLine
 62
7
  6
CONTINUOUS
 10
14.8428552569
 20
6.2666247044
 11
14.8428552569
 21
4.6546247044
  0
LINE
  5
294
100
AcDbEntity
  8
LAYER_CUT_FEAT
100
AcDbLine
 62
7
  6
CONTINUOUS
 10
16.1628552569
 20
4.7451765541
 11
15.5828552569
 21
4.7451765541
  0
LINE
  5
295
100
AcDbEntity
  8
LAYER_FEATURE
100
AcDbLine
 62
7
  6
CONTINUOUS
 10
15.5828552569
 20
4.7463291689
 11
16.1628552569
 21
4.7463291689
  0
LINE
  5
296
100
AcDbEntity
  8
LAYER_FEATURE
100
AcDbLine
 62
7
  6
CONTINUOUS
 10
15.5828552569
 20
4.7698528863
 11
16.1628552569
 21
4.7698528863
  0
LINE
  5
297
100
AcDbEntity
  8
LAYER_CUT_FEAT
100
AcDbLine
 62
7
  6
CONTINUOUS
 10
16.1628552569
 20
4.8632428745
 11
15.5828552569
 21
4.8632428745
  0
LINE
  5
298
100
AcDbEntity
  8
LAYER_FEATURE
100
AcDbLine
 62
7
  6
CONTINUOUS
 10
15.5828552569
 20
4.8655282361
 11
16.1628552569
 21
4.8655282361
  0
LINE
  5
299
100
AcDbEntity
  8
LAYER_FEATURE
100
AcDbLine
 62
7
  6
CONTINUOUS
 10
15.5828552569
 20
4.8920423317
 11
16.1628552569
 21
4.8920423317
  0
LINE
  5
29A
100
AcDbEntity
  8
LAYER_CUT_FEAT
100
AcDbLine
 62
7
  6
CONTINUOUS
 10
15.0733552569
 20
5.5079674265
 11
15.0733552569
 21
5.4132819824
  0
LINE
  5
29B
100
AcDbEntity
  8
LAYER_CUT_FEAT
100
AcDbLine
 62
7
  6
CONTINUOUS
 10
16.1628552569
 20
4.9942516275
 11
15.5828552569
 21
4.9942516275
  0
LINE
  5
29C
100
AcDbEntity
  8
LAYER_FEATURE
100
AcDbLine
 62
7
  6
CONTINUOUS
 10
15.5828552569
 20
4.998020775
 11
16.1628552569
 21
4.998020775
  0
LINE
  5
29D
100
AcDbEntity
  8
LAYER_FEATURE
100
AcDbLine
 62
7
  6
CONTINUOUS
 10
15.5828552569
 20
5.0269329678
 11
16.1628552569
 21
5.0269329678
  0
LINE
  5
29E
100
AcDbEntity
  8
LAYER_CUT_FEAT
100
AcDbLine
 62
7
  6
CONTINUOUS
 10
15.2373552569
 20
5.4132819824
 11
15.2373552569
 21
5.5079674265
  0
LINE
  5
29F
100
AcDbEntity
  8
LAYER_CUT_FEAT
100
AcDbLine
 62
7
  6
CONTINUOUS
 10
15.1553552569
 20
5.5553101486
 11
15.0733552569
 21
5.5079674265
  0
LINE
  5
2A0
100
AcDbEntity
  8
LAYER_CUT_FEAT
100
AcDbLine
 62
7
  6
CONTINUOUS
 10
16.1628552569
 20
5.1349983127
 11
15.5828552569
 21
5.1349983127
  0
LINE
  5
2A1
100
AcDbEntity
  8
LAYER_FEATURE
100
AcDbLine
 62
7
  6
CONTINUOUS
 10
15.5828552569
 20
5.1408471212
 11
16.1628552569
 21
5.1408471212
  0
LINE
  5
2A2
100
AcDbEntity
  8
LAYER_FEATURE
100
AcDbLine
 62
7
  6
CONTINUOUS
 10
15.5828552569
 20
5.1715115605
 11
16.1628552569
 21
5.1715115605
  0
LINE
  5
2A3
100
AcDbEntity
  8
LAYER_CUT_FEAT
100
AcDbLine
 62
7
  6
CONTINUOUS
 10
15.0733552569
 20
5.4132819824
 11
15.1553552569
 21
5.3659392603
  0
LINE
  5
2A4
100
AcDbEntity
  8
LAYER_FEATURE
100
AcDbLine
 62
7
  6
CONTINUOUS
 10
15.4678552569
 20
6.7206247044
 11
15.4678552569
 21
4.2006247044
  0
LINE
  5
2A5
100
AcDbEntity
  8
LAYER_CUT_FEAT
100
AcDbLine
 62
7
  6
CONTINUOUS
 10
15.1553552569
 20
5.3659392603
 11
15.2373552569
 21
5.4132819824
  0
LINE
  5
2A6
100
AcDbEntity
  8
LAYER_CUT_FEAT
100
AcDbLine
 62
7
  6
CONTINUOUS
 10
16.1628552569
 20
5.2818653185
 11
15.5828552569
 21
5.2818653185
  0
LINE
  5
2A7
100
AcDbEntity
  8
LAYER_FEATURE
100
AcDbLine
 62
7
  6
CONTINUOUS
 10
15.5828552569
 20
5.2908167702
 11
16.1628552569
 21
5.2908167702
  0
LINE
  5
2A8
100
AcDbEntity
  8
LAYER_FEATURE
100
AcDbLine
 62
7
  6
CONTINUOUS
 10
15.5828552569
 20
5.3225484632
 11
16.1628552569
 21
5.3225484632
  0
LINE
  5
2A9
100
AcDbEntity
  8
LAYER_CUT_FEAT
100
AcDbLine
 62
7
  6
CONTINUOUS
 10
15.2373552569
 20
5.5079674265
 11
15.1553552569
 21
5.5553101486
  0
LINE
  5
2AA
100
AcDbEntity
  8
LAYER_FEATURE
100
AcDbLine
 62
7
  6
CONTINUOUS
 10
15.5478552569
 20
6.7206247044
 11
15.5478552569
 21
4.2006247044
  0
LINE
  5
2AB
100
AcDbEntity
  8
LAYER_FEATURE
100
AcDbLine
 62
7
  6
CONTINUOUS
 10
15.5828552569
 20
5.4445796479
 11
16.1628552569
 21
5.4445796479
  0
LINE
  5
2AC
100
AcDbEntity
  8
LAYER_FEATURE
100
AcDbLine
 62
7
  6
CONTINUOUS
 10
15.5828552569
 20
4.3366301027
 11
15.5828552569
 21
6.5846193062
  0
LINE
  5
2AD
100
AcDbEntity
  8
LAYER_FEATURE
100
AcDbLine
 62
7
  6
CONTINUOUS
 10
15.5828552569
 20
5.476669761
 11
16.1628552569
 21
5.476669761
  0
LINE
  5
2AE
100
AcDbEntity
  8
LAYER_FEATURE
100
AcDbLine
 62
7
  6
CONTINUOUS
 10
15.5828552569
 20
5.5987009457
 11
16.1628552569
 21
5.5987009457
  0
LINE
  5
2AF
100
AcDbEntity
  8
LAYER_FEATURE
100
AcDbLine
 62
7
  6
CONTINUOUS
 10
15.5828552569
 20
5.6304326386
 11
16.1628552569
 21
5.6304326386
  0
LINE
  5
2B0
100
AcDbEntity
  8
LAYER_CUT_FEAT
100
AcDbLine
 62
7
  6
CONTINUOUS
 10
16.1628552569
 20
5.6393840904
 11
15.5828552569
 21
5.6393840904
  0
LINE
  5
2B1
100
AcDbEntity
  8
LAYER_FEATURE
100
AcDbLine
 62
7
  6
CONTINUOUS
 10
16.1978552569
 20
6.7206247044
 11
16.1707401888
 21
6.6354059188
  0
LINE
  5
2B2
100
AcDbEntity
  8
LAYER_FEATURE
100
AcDbLine
 62
7
  6
CONTINUOUS
 10
15.5828552569
 20
5.7497378483
 11
16.1628552569
 21
5.7497378483
  0
LINE
  5
2B3
100
AcDbEntity
  8
LAYER_FEATURE
100
AcDbLine
 62
7
  6
CONTINUOUS
 10
16.1978552569
 20
4.2006247044
 11
16.1707401888
 21
4.2858434901
  0
LINE
  5
2B4
100
AcDbEntity
  8
LAYER_FEATURE
100
AcDbLine
 62
7
  6
CONTINUOUS
 10
15.5749703251
 20
4.2858434901
 11
15.5478552569
 21
4.2006247044
  0
LINE
  5
2B5
100
AcDbEntity
  8
LAYER_FEATURE
100
AcDbLine
 62
7
  6
CONTINUOUS
 10
15.5828552569
 20
5.7804022877
 11
16.1628552569
 21
5.7804022877
  0
LINE
  5
2B6
100
AcDbEntity
  8
LAYER_CUT_FEAT
100
AcDbLine
 62
7
  6
CONTINUOUS
 10
16.1628552569
 20
5.7862510962
 11
15.5828552569
 21
5.7862510962
  0
LINE
  5
2B7
100
AcDbEntity
  8
LAYER_FEATURE
100
AcDbLine
 62
7
  6
CONTINUOUS
 10
15.2917178834
 20
6.261462078
 11
15.2865552569
 21
6.2666247044
  0
LINE
  5
2B8
100
AcDbEntity
  8
LAYER_FEATURE
100
AcDbLine
 62
7
  6
CONTINUOUS
 10
15.5749703251
 20
6.6354059188
 11
15.5478552569
 21
6.7206247044
  0
LINE
  5
2B9
100
AcDbEntity
  8
LAYER_FEATURE
100
AcDbLine
 62
7
  6
CONTINUOUS
 10
15.5828552569
 20
5.8943164411
 11
16.1628552569
 21
5.8943164411
  0
LINE
  5
2BA
100
AcDbEntity
  8
LAYER_FEATURE
100
AcDbLine
 62
7
  6
CONTINUOUS
 10
15.5828552569
 20
5.9232286339
 11
16.1628552569
 21
5.9232286339
  0
LINE
  5
2BB
100
AcDbEntity
  8
LAYER_CUT_FEAT
100
AcDbLine
 62
7
  6
CONTINUOUS
 10
16.1628552569
 20
5.9269977813
 11
15.5828552569
 21
5.9269977813
  0
LINE
  5
2BC
100
AcDbEntity
  8
LAYER_FEATURE
100
AcDbLine
 62
7
  6
CONTINUOUS
 10
15.5828552569
 20
6.0292070772
 11
16.1628552569
 21
6.0292070772
  0
LINE
  5
2BD
100
AcDbEntity
  8
LAYER_FEATURE
100
AcDbLine
 62
7
  6
CONTINUOUS
 10
16.1628552569
 20
4.3366301027
 11
16.1628552569
 21
6.5846193062
  0
LINE
  5
2BE
100
AcDbEntity
  8
LAYER_FEATURE
100
AcDbLine
 62
7
  6
CONTINUOUS
 10
16.1978552569
 20
6.7206247044
 11
16.1978552569
 21
4.2006247044
  0
LINE
  5
2BF
100
AcDbEntity
  8
LAYER_FEATURE
100
AcDbLine
 62
7
  6
CONTINUOUS
 10
15.5828552569
 20
6.0557211728
 11
16.1628552569
 21
6.0557211728
  0
LINE
  5
2C0
100
AcDbEntity
  8
LAYER_CUT_FEAT
100
AcDbLine
 62
7
  6
CONTINUOUS
 10
16.1628552569
 20
6.0580065344
 11
15.5828552569
 21
6.0580065344
  0
LINE
  5
2C1
100
AcDbEntity
  8
LAYER_FEATURE
100
AcDbLine
 62
7
  6
CONTINUOUS
 10
16.2778552569
 20
6.7206247044
 11
16.2778552569
 21
4.2006247044
  0
LINE
  5
2C2
100
AcDbEntity
  8
LAYER_FEATURE
100
AcDbLine
 62
7
  6
CONTINUOUS
 10
15.5828552569
 20
6.1513965226
 11
16.1628552569
 21
6.1513965226
  0
LINE
  5
2C3
100
AcDbEntity
  8
LAYER_FEATURE
100
AcDbLine
 62
7
  6
CONTINUOUS
 10
15.5828552569
 20
6.17492024
 11
16.1628552569
 21
6.17492024
  0
LINE
  5
2C4
100
AcDbEntity
  8
LAYER_CUT_FEAT
100
AcDbLine
 62
7
  6
CONTINUOUS
 10
16.1628552569
 20
6.1760728548
 11
15.5828552569
 21
6.1760728548
  0
LINE
  5
2C5
100
AcDbEntity
  8
LAYER_FEATURE
100
AcDbLine
 62
7
  6
CONTINUOUS
 10
15.5828552569
 20
6.258155267
 11
16.1628552569
 21
6.258155267
  0
LINE
  5
2C6
100
AcDbEntity
  8
02___PRT_ALL_AXES
100
AcDbLine
 62
7
  6
CONTINUOUS
 10
15.4678552569
 20
6.2666247044
 11
15.3193552569
 21
6.2666247044
  0
LINE
  5
2C7
100
AcDbEntity
  8
02___PRT_ALL_AXES
100
AcDbLine
 62
7
  6
CONTINUOUS
 10
14.9913552569
 20
6.2666247044
 11
14.8428552569
 21
6.2666247044
  0
LINE
  5
2C8
100
AcDbEntity
  8
LAYER_FEATURE
100
AcDbLine
 62
7
  6
CONTINUOUS
 10
15.02415533
 20
6.2666247044
 11
15.2865551839
 21
6.2666247044
  0
LINE
  5
2C9
100
AcDbEntity
  8
LAYER_FEATURE
100
AcDbLine
 62
7
  6
CONTINUOUS
 10
15.5828552569
 20
6.2781631252
 11
16.1628552569
 21
6.2781631252
  0
LINE
  5
2CA
100
AcDbEntity
  8
LAYER_CUT_FEAT
100
AcDbLine
 62
7
  6
CONTINUOUS
 10
16.1628552569
 20
6.2785593359
 11
15.5828552569
 21
6.2785593359
  0
LINE
  5
2CB
100
AcDbEntity
  8
LAYER_FEATURE
100
AcDbLine
 62
7
  6
CONTINUOUS
 10
15.5828552569
 20
6.3470984965
 11
16.1628552569
 21
6.3470984965
  0
LINE
  5
2CC
100
AcDbEntity
  8
LAYER_FEATURE
100
AcDbLine
 62
7
  6
CONTINUOUS
 10
15.5828552569
 20
6.363143553
 11
16.1628552569
 21
6.363143553
  0
LINE
  5
2CD
100
AcDbEntity
  8
LAYER_CUT_FEAT
100
AcDbLine
 62
7
  6
CONTINUOUS
 10
16.1628552569
 20
6.3631765993
 11
15.5828552569
 21
6.3631765993
  0
LINE
  5
2CE
100
AcDbEntity
  8
LAYER_FEATURE
100
AcDbLine
 62
7
  6
CONTINUOUS
 10
15.5828552569
 20
6.4162393664
 11
16.1628552569
 21
6.4162393664
  0
LINE
  5
2CF
100
AcDbEntity
  8
LAYER_FEATURE
100
AcDbLine
 62
7
  6
CONTINUOUS
 10
15.5828552569
 20
6.4279632012
 11
16.1628552569
 21
6.4279632012
  0
LINE
  5
2D0
100
AcDbEntity
  8
LAYER_FEATURE
100
AcDbLine
 62
7
  6
CONTINUOUS
 10
15.5828552569
 20
6.4640333839
 11
16.1628552569
 21
6.4640333839
  0
LINE
  5
2D1
100
AcDbEntity
  8
LAYER_FEATURE
100
AcDbLine
 62
7
  6
CONTINUOUS
 10
15.5828552569
 20
6.4711741058
 11
16.1628552569
 21
6.4711741058
  0
LINE
  5
2D2
100
AcDbEntity
  8
LAYER_FEATURE
100
AcDbLine
 62
7
  6
CONTINUOUS
 10
15.5828552569
 20
6.4894129095
 11
16.1628552569
 21
6.4894129095
  0
LINE
  5
2D3
100
AcDbEntity
  8
LAYER_FEATURE
100
AcDbLine
 62
7
  6
CONTINUOUS
 10
15.5828552569
 20
6.4918110067
 11
16.1628552569
 21
6.4918110067
  0
LINE
  5
2D4
100
AcDbEntity
  8
LAYER_FEATURE
100
AcDbLine
 62
7
  6
CONTINUOUS
 10
16.2778552569
 20
6.7206247044
 11
16.1978552569
 21
6.7206247044
  0
LINE
  5
2D5
100
AcDbEntity
  8
LAYER_FEATURE
100
AcDbLine
 62
7
  6
CONTINUOUS
 10
15.5478552569
 20
6.7206247044
 11
15.4678552569
 21
6.7206247044
  0
LINE
  5
2D6
100
AcDbEntity
  8
LAYER_FEATURE
100
AcDbLine
 62
7
  6
CONTINUOUS
 10
14.1692453437
 20
12.669253479
 11
14.1886106496
 21
12.7319196318
  0
LINE
  5
2D7
100
AcDbEntity
  8
LAYER_FEATURE
100
AcDbLine
 62
7
  6
CONTINUOUS
 10
14.3459537598
 20
13.2410821231
 11
14.3653190657
 21
13.3037482758
  0
LINE
  5
2D8
100
AcDbEntity
  8
LAYER_FEATURE
100
AcDbLine
 62
7
  6
CONTINUOUS
 10
14.5279924621
 20
13.0596748219
 11
14.5494814484
 21
13.1292132071
  0
LINE
  5
2D9
100
AcDbEntity
  8
LAYER_FEATURE
100
AcDbLine
 62
7
  6
CONTINUOUS
 10
14.5321667182
 20
13.0613027358
 11
14.5735102531
 21
13.1950904638
  0
LINE
  5
2DA
100
AcDbEntity
  8
LAYER_FEATURE
100
AcDbLine
 62
7
  6
CONTINUOUS
 10
14.5361110393
 20
13.0628409777
 11
14.5820723674
 21
13.21157189
  0
LINE
  5
2DB
100
AcDbEntity
  8
LAYER_FEATURE
100
AcDbLine
 62
7
  6
CONTINUOUS
 10
14.5618670991
 20
13.0726910516
 11
14.6231629942
 21
13.2710446411
  0
LINE
  5
2DC
100
AcDbEntity
  8
LAYER_FEATURE
100
AcDbLine
 62
7
  6
CONTINUOUS
 10
14.5712807166
 20
13.0759407147
 11
14.6360911081
 21
13.2856672183
  0
LINE
  5
2DD
100
AcDbEntity
  8
LAYER_FEATURE
100
AcDbLine
 62
7
  6
CONTINUOUS
 10
14.6171072324
 20
13.0907640179
 11
14.6933256603
 21
13.3374069408
  0
LINE
  5
2DE
100
AcDbEntity
  8
LAYER_FEATURE
100
AcDbLine
 62
7
  6
CONTINUOUS
 10
14.6316120065
 20
13.09510933
 11
14.710330981
 21
13.3498440249
  0
LINE
  5
2DF
100
AcDbEntity
  8
LAYER_CUT_FEAT
100
AcDbLine
 62
7
  6
CONTINUOUS
 10
14.4893113266
 20
12.5703456096
 11
14.4977836479
 21
12.5977620514
  0
LINE
  5
2E0
100
AcDbEntity
  8
LAYER_FEATURE
100
AcDbLine
 62
7
  6
CONTINUOUS
 10
14.7824309333
 20
13.3926949389
 11
14.7820911849
 21
13.3918382758
  0
LINE
  5
2E1
100
AcDbEntity
  8
0
100
AcDbLine
 62
7
  6
CONTINUOUS
 10
14.7820911836
 20
13.3918382762
 11
14.6952905088
 21
13.1109511896
  0
LINE
  5
2E2
100
AcDbEntity
  8
LAYER_FEATURE
100
AcDbLine
 62
7
  6
CONTINUOUS
 10
14.695371205
 20
13.1109695551
 11
14.7824309333
 21
13.3926949389
  0
LINE
  5
2E3
100
AcDbEntity
  8
LAYER_FEATURE
100
AcDbLine
 62
7
  6
CONTINUOUS
 10
14.7142466741
 20
13.1150305406
 11
14.8031335901
 21
13.402668706
  0
LINE
  5
2E4
100
AcDbEntity
  8
02___PRT_ALL_AXES
100
AcDbLine
 62
7
  6
CONTINUOUS
 10
14.4517149549
 20
12.0456318539
 11
14.603006407
 21
12.5352111724
  0
LINE
  5
2E5
100
AcDbEntity
  8
0
100
AcDbLine
 62
7
  6
CONTINUOUS
 10
14.8872801068
 20
13.4334947993
 11
14.7930601438
 21
13.1285988873
  0
LINE
  5
2E6
100
AcDbEntity
  8
LAYER_FEATURE
100
AcDbLine
 62
7
  6
CONTINUOUS
 10
14.7936171357
 20
13.1286702351
 11
14.8884883486
 21
13.4356735929
  0
LINE
  5
2E7
100
AcDbEntity
  8
LAYER_FEATURE
100
AcDbLine
 62
7
  6
CONTINUOUS
 10
14.8161963952
 20
13.1315625238
 11
14.9124258783
 21
13.4429612454
  0
LINE
  5
2E8
100
AcDbEntity
  8
0
100
AcDbLine
 62
7
  6
CONTINUOUS
 10
15.0066948497
 20
13.462049293
 11
14.9071624737
 21
13.1399624061
  0
LINE
  5
2E9
100
AcDbEntity
  8
LAYER_FEATURE
100
AcDbLine
 62
7
  6
CONTINUOUS
 10
14.9085966955
 20
13.1400609539
 11
15.009128759
 21
13.4653828305
  0
LINE
  5
2EA
100
AcDbEntity
  8
LAYER_FEATURE
100
AcDbLine
 62
7
  6
CONTINUOUS
 10
14.934268332
 20
13.1413735872
 11
15.0357664367
 21
13.4698215745
  0
LINE
  5
2EB
100
AcDbEntity
  8
0
100
AcDbLine
 62
7
  6
CONTINUOUS
 10
15.1376678842
 20
13.4768638969
 11
15.0344311293
 21
13.1427896354
  0
LINE
  5
2EC
100
AcDbEntity
  8
LAYER_FEATURE
100
AcDbLine
 62
7
  6
CONTINUOUS
 10
15.0370824275
 20
13.1427547247
 11
15.1416572568
 21
13.4811589967
  0
LINE
  5
2ED
100
AcDbEntity
  8
LAYER_FEATURE
100
AcDbLine
 62
7
  6
CONTINUOUS
 10
15.0651606571
 20
13.1420949067
 11
15.170400041
 21
13.4826496778
  0
LINE
  5
2EE
100
AcDbEntity
  8
0
100
AcDbLine
 62
7
  6
CONTINUOUS
 10
15.2772322917
 20
13.4774772065
 11
15.1715623903
 21
13.1355292802
  0
LINE
  5
2EF
100
AcDbEntity
  8
LAYER_FEATURE
100
AcDbLine
 62
7
  6
CONTINUOUS
 10
15.1757301002
 20
13.1351572744
 11
15.2831133746
 21
13.4826496778
  0
LINE
  5
2F0
100
AcDbEntity
  8
LAYER_FEATURE
100
AcDbLine
 62
7
  6
CONTINUOUS
 10
15.2772952997
 20
13.4776767501
 11
15.2772323181
 21
13.4774771983
  0
LINE
  5
2F1
100
AcDbEntity
  8
LAYER_CUT_FEAT
100
AcDbLine
 62
7
  6
CONTINUOUS
 10
16.0686880672
 20
11.9935947158
 11
16.0173177455
 21
11.9935947158
  0
LINE
  5
2F2
100
AcDbEntity
  8
LAYER_FEATURE
100
AcDbLine
 62
7
  6
CONTINUOUS
 10
15.2054913523
 20
13.1322279576
 11
15.3133191988
 21
13.4811589967
  0
LINE
  5
2F3
100
AcDbEntity
  8
LAYER_CUT_FEAT
100
AcDbLine
 62
7
  6
CONTINUOUS
 10
15.0278100408
 20
12.6177025727
 11
14.9643550676
 21
12.5534697661
  0
LINE
  5
2F4
100
AcDbEntity
  8
LAYER_CUT_FEAT
100
AcDbLine
 62
7
  6
CONTINUOUS
 10
16.0740959934
 20
12.0872562303
 11
16.0095332025
 21
12.0872562303
  0
LINE
  5
2F5
100
AcDbEntity
  8
LAYER_CUT_FEAT
100
AcDbLine
 62
7
  6
CONTINUOUS
 10
14.9643550676
 20
12.5534697661
 11
14.9958759508
 21
12.4892369595
  0
LINE
  5
2F6
100
AcDbEntity
  8
LAYER_CUT_FEAT
100
AcDbLine
 62
7
  6
CONTINUOUS
 10
15.0278100408
 20
12.6177025727
 11
15.0778369069
 21
12.5157585379
  0
LINE
  5
2F7
100
AcDbEntity
  8
LAYER_CUT_FEAT
100
AcDbLine
 62
7
  6
CONTINUOUS
 10
14.9643550676
 20
12.5534697661
 11
14.9881111638
 21
12.4892369595
  0
LINE
  5
2F8
100
AcDbEntity
  8
LAYER_CUT_FEAT
100
AcDbLine
 62
7
  6
CONTINUOUS
 10
15.4210989334
 20
13.4614857348
 11
15.3147745421
 21
13.1174198784
  0
LINE
  5
2F9
100
AcDbEntity
  8
LAYER_FEATURE
100
AcDbLine
 62
7
  6
CONTINUOUS
 10
15.3211190429
 20
13.1163914357
 11
15.4303372164
 21
13.4698215745
  0
LINE
  5
2FA
100
AcDbEntity
  8
LAYER_FEATURE
100
AcDbLine
 62
7
  6
CONTINUOUS
 10
15.3518401308
 20
13.1110691724
 11
15.4613313324
 21
13.4653828305
  0
LINE
  5
2FB
100
AcDbEntity
  8
LAYER_CUT_FEAT
100
AcDbLine
 62
7
  6
CONTINUOUS
 10
15.0778369069
 20
12.5157585379
 11
15.0516364942
 21
12.4892369595
  0
LINE
  5
2FC
100
AcDbEntity
  8
LAYER_CUT_FEAT
100
AcDbLine
 62
7
  6
CONTINUOUS
 10
15.0753222331
 20
12.4892369595
 11
15.1387772062
 21
12.5534697661
  0
LINE
  5
2FD
100
AcDbEntity
  8
LAYER_CUT_FEAT
100
AcDbLine
 62
7
  6
CONTINUOUS
 10
15.1387772062
 20
12.5534697661
 11
15.1150211101
 21
12.6177025727
  0
LINE
  5
2FE
100
AcDbEntity
  8
LAYER_FEATURE
100
AcDbLine
 62
7
  6
CONTINUOUS
 10
15.4698056996
 20
13.0862427737
 11
15.5800400447
 21
13.4429612454
  0
LINE
  5
2FF
100
AcDbEntity
  8
LAYER_FEATURE
100
AcDbLine
 62
7
  6
CONTINUOUS
 10
15.5007672653
 20
13.0785393441
 11
15.6111300953
 21
13.4356735929
  0
LINE
  5
300
100
AcDbEntity
  8
LAYER_FEATURE
100
AcDbLine
 62
7
  6
CONTINUOUS
 10
15.618364359
 20
13.0450472547
 11
15.728877746
 21
13.402668706
  0
LINE
  5
301
100
AcDbEntity
  8
LAYER_FEATURE
100
AcDbLine
 62
7
  6
CONTINUOUS
 10
15.6488605559
 20
13.0350887361
 11
15.7593692307
 21
13.3926949389
  0
LINE
  5
302
100
AcDbEntity
  8
LAYER_CUT_FEAT
100
AcDbLine
 62
7
  6
CONTINUOUS
 10
14.9881111638
 20
12.4892369595
 11
15.0753222331
 21
12.4892369595
  0
LINE
  5
303
100
AcDbEntity
  8
LAYER_CUT_FEAT
100
AcDbLine
 62
7
  6
CONTINUOUS
 10
15.1015226458
 20
12.5157585379
 11
15.0778369069
 21
12.5157585379
  0
LINE
  5
304
100
AcDbEntity
  8
LAYER_CUT_FEAT
100
AcDbLine
 62
7
  6
CONTINUOUS
 10
15.1150211101
 20
12.6177025727
 11
15.0278100408
 21
12.6177025727
  0
LINE
  5
305
100
AcDbEntity
  8
LAYER_FEATURE
100
AcDbLine
 62
7
  6
CONTINUOUS
 10
15.7634461544
 20
12.9936270294
 11
15.8735255317
 21
13.3498440249
  0
LINE
  5
306
100
AcDbEntity
  8
LAYER_FEATURE
100
AcDbLine
 62
7
  6
CONTINUOUS
 10
15.7927978863
 20
12.981642799
 11
15.9027373212
 21
13.3374069408
  0
LINE
  5
307
100
AcDbEntity
  8
LAYER_CUT_FEAT
100
AcDbLine
 62
7
  6
CONTINUOUS
 10
15.9067941523
 20
13.3224905793
 11
15.8004929033
 21
12.9784996115
  0
LINE
  5
308
100
AcDbEntity
  8
LAYER_FEATURE
100
AcDbLine
 62
7
  6
CONTINUOUS
 10
16.0365957652
 20
12.2010732257
 11
16.0614062612
 21
12.1713490069
  0
LINE
  5
309
100
AcDbEntity
  8
LAYER_FEATURE
100
AcDbLine
 62
7
  6
CONTINUOUS
 10
15.9018188235
 20
12.9331586521
 11
16.0107522095
 21
13.2856672183
  0
LINE
  5
30A
100
AcDbEntity
  8
LAYER_FEATURE
100
AcDbLine
 62
7
  6
CONTINUOUS
 10
15.9294192932
 20
12.9195745676
 11
16.0380317607
 21
13.2710446411
  0
LINE
  5
30B
100
AcDbEntity
  8
LAYER_CUT_FEAT
100
AcDbLine
 62
7
  6
CONTINUOUS
 10
16.0404530762
 20
13.2606911155
 11
15.9342980693
 21
12.9171733873
  0
LINE
  5
30C
100
AcDbEntity
  8
LAYER_CUT_FEAT
100
AcDbLine
 62
7
  6
CONTINUOUS
 10
16.0055140918
 20
12.0176480331
 11
16.0343971164
 21
11.9587906172
  0
LINE
  5
30D
100
AcDbEntity
  8
LAYER_CUT_FEAT
100
AcDbLine
 62
7
  6
CONTINUOUS
 10
16.0740959934
 20
12.0872562303
 11
16.0452129688
 21
12.1461136463
  0
LINE
  5
30E
100
AcDbEntity
  8
LAYER_FEATURE
100
AcDbLine
 62
7
  6
CONTINUOUS
 10
16.0305483312
 20
12.8655008796
 11
16.137492362
 21
13.21157189
  0
LINE
  5
30F
100
AcDbEntity
  8
LAYER_FEATURE
100
AcDbLine
 62
7
  6
CONTINUOUS
 10
16.0558062425
 20
12.8507021044
 11
16.1622302948
 21
13.1950904638
  0
LINE
  5
310
100
AcDbEntity
  8
LAYER_CUT_FEAT
100
AcDbLine
 62
7
  6
CONTINUOUS
 10
16.1637417271
 20
13.1882655978
 11
16.0588716914
 21
12.8489060379
  0
LINE
  5
311
100
AcDbEntity
  8
LAYER_CUT_FEAT
100
AcDbLine
 62
7
  6
CONTINUOUS
 10
16.010922018
 20
12.1113095476
 11
16.0055140918
 21
12.0176480331
  0
LINE
  5
312
100
AcDbEntity
  8
LAYER_FEATURE
100
AcDbLine
 62
7
  6
CONTINUOUS
 10
16.1469791364
 20
12.7928771994
 11
16.2509148238
 21
13.1292132071
  0
LINE
  5
313
100
AcDbEntity
  8
LAYER_FEATURE
100
AcDbLine
 62
7
  6
CONTINUOUS
 10
16.1693692341
 20
12.7773204043
 11
16.2725585336
 21
13.1112410998
  0
LINE
  5
314
100
AcDbEntity
  8
LAYER_CUT_FEAT
100
AcDbLine
 62
7
  6
CONTINUOUS
 10
16.273100742
 20
13.1060854706
 11
16.1711271974
 21
12.7760989592
  0
LINE
  5
315
100
AcDbEntity
  8
LAYER_CUT_FEAT
100
AcDbLine
 62
7
  6
CONTINUOUS
 10
16.0686880672
 20
11.9935947158
 11
16.0740959934
 21
12.0872562303
  0
LINE
  5
316
100
AcDbEntity
  8
LAYER_FEATURE
100
AcDbLine
 62
7
  6
CONTINUOUS
 10
16.2488322147
 20
12.7179514036
 11
16.3484859244
 21
13.0404309265
  0
LINE
  5
317
100
AcDbEntity
  8
LAYER_FEATURE
100
AcDbLine
 62
7
  6
CONTINUOUS
 10
16.2679499503
 20
12.7022934933
 11
16.3665519266
 21
13.0213696054
  0
LINE
  5
318
100
AcDbEntity
  8
LAYER_CUT_FEAT
100
AcDbLine
 62
7
  6
CONTINUOUS
 10
16.3664969645
 20
13.017879665
 11
16.2687651635
 21
12.7016194412
  0
LINE
  5
319
100
AcDbEntity
  8
LAYER_CUT_FEAT
100
AcDbLine
 62
7
  6
CONTINUOUS
 10
16.0452129688
 20
12.1461136463
 11
16.010922018
 21
12.1113095476
  0
LINE
  5
31A
100
AcDbEntity
  8
02___PRT_ALL_AXES
100
AcDbLine
 62
7
  6
CONTINUOUS
 10
15.9918533558
 20
11.569693091
 11
16.143144808
 21
12.0592724096
  0
LINE
  5
31B
100
AcDbEntity
  8
LAYER_FEATURE
100
AcDbLine
 62
7
  6
CONTINUOUS
 10
16.3343199398
 20
12.6439750953
 11
16.4280260867
 21
12.9472082977
  0
LINE
  5
31C
100
AcDbEntity
  8
LAYER_FEATURE
100
AcDbLine
 62
7
  6
CONTINUOUS
 10
16.3499544911
 20
12.6292655826
 11
16.4421108166
 21
12.9274835611
  0
LINE
  5
31D
100
AcDbEntity
  8
LAYER_CUT_FEAT
100
AcDbLine
 62
7
  6
CONTINUOUS
 10
16.4418440772
 20
12.9256185531
 11
16.3501912501
 21
12.6290298958
  0
LINE
  5
31E
100
AcDbEntity
  8
LAYER_FEATURE
100
AcDbLine
 62
7
  6
CONTINUOUS
 10
16.0365957652
 20
11.9038310377
 11
16.0614062612
 21
11.9335552565
  0
LINE
  5
31F
100
AcDbEntity
  8
LAYER_CUT_FEAT
100
AcDbLine
 62
7
  6
CONTINUOUS
 10
16.0343971164
 20
11.9587906172
 11
16.0686880672
 21
11.9935947158
  0
LINE
  5
320
100
AcDbEntity
  8
LAYER_FEATURE
100
AcDbLine
 62
7
  6
CONTINUOUS
 10
16.402387762
 20
12.5753679025
 11
16.4877585149
 21
12.8516277602
  0
LINE
  5
321
100
AcDbEntity
  8
LAYER_FEATURE
100
AcDbLine
 62
7
  6
CONTINUOUS
 10
16.4142323431
 20
12.5620727879
 11
16.4975473429
 21
12.8316802261
  0
LINE
  5
322
100
AcDbEntity
  8
LAYER_CUT_FEAT
100
AcDbLine
 62
7
  6
CONTINUOUS
 10
16.2568398884
 20
12.0241379724
 11
16.2653122097
 21
12.0515544142
  0
LINE
  5
323
100
AcDbEntity
  8
LAYER_FEATURE
100
AcDbLine
 62
7
  6
CONTINUOUS
 10
16.4524495726
 20
12.5166861616
 11
16.5263488853
 21
12.7558244252
  0
LINE
  5
324
100
AcDbEntity
  8
LAYER_FEATURE
100
AcDbLine
 62
7
  6
CONTINUOUS
 10
16.4605880604
 20
12.5062300702
 11
16.5316231451
 21
12.7360996886
  0
LINE
  5
325
100
AcDbEntity
  8
LAYER_FEATURE
100
AcDbLine
 62
7
  6
CONTINUOUS
 10
16.4847260606
 20
12.4735736897
 11
16.5429351527
 21
12.661938381
  0
LINE
  5
326
100
AcDbEntity
  8
LAYER_FEATURE
100
AcDbLine
 62
7
  6
CONTINUOUS
 10
16.4892491494
 20
12.4670719859
 11
16.5435770262
 21
12.6428770598
  0
LINE
  5
327
100
AcDbEntity
  8
LAYER_FEATURE
100
AcDbLine
 62
7
  6
CONTINUOUS
 10
16.4999430241
 20
12.4516753994
 11
16.5371468074
 21
12.5720668865
  0
LINE
  5
328
100
AcDbEntity
  8
LAYER_FEATURE
100
AcDbLine
 62
7
  6
CONTINUOUS
 10
16.5009858233
 20
12.4500374953
 11
16.5331419561
 21
12.5540947792
  0
LINE
  5
329
100
AcDbEntity
  8
LAYER_FEATURE
100
AcDbLine
 62
7
  6
CONTINUOUS
 10
16.5769058713
 20
11.9252301029
 11
16.5962711771
 21
11.9878962557
  0
LINE
  5
32A
100
AcDbEntity
  8
LAYER_FEATURE
100
AcDbLine
 62
7
  6
CONTINUOUS
 10
16.7536142873
 20
12.4970587469
 11
16.7729795932
 21
12.5597248997
  0
CIRCLE
  5
32B
100
AcDbEntity
  8
LAYER_FEATURE
100
AcDbCircle
 62
7
  6
CONTINUOUS
 10
6.1303672762
 20
5.5201198968
 40
1.26
  0
CIRCLE
  5
32C
100
AcDbEntity
  8
LAYER_FEATURE
100
AcDbCircle
 62
7
  6
CONTINUOUS
 10
6.1303672762
 20
5.5201198968
 40
1.15
  0
CIRCLE
  5
32D
100
AcDbEntity
  8
LAYER_CUT_FEAT
100
AcDbCircle
 62
7
  6
CONTINUOUS
 10
6.1303672762
 20
5.5201198968
 40
0.925
  0
CIRCLE
  5
32E
100
AcDbEntity
  8
02___PRT_ALL_AXES
100
AcDbCircle
 62
7
  6
CONTINUOUS
 10
6.1303672762
 20
5.5201198968
 40
0.806
  0
CIRCLE
  5
32F
100
AcDbEntity
  8
LAYER_CHAMFER_FEAT
100
AcDbCircle
 62
7
  6
CONTINUOUS
 10
6.1303672762
 20
5.5201198968
 40
0.2875
  0
CIRCLE
  5
330
100
AcDbEntity
  8
LAYER_CHAMFER_FEAT
100
AcDbCircle
 62
7
  6
CONTINUOUS
 10
6.1303672762
 20
5.5201198968
 40
0.25
  0
ARC
  5
331
100
AcDbEntity
  8
LAYER_FEATURE
100
AcDbCircle
 62
7
  6
CONTINUOUS
 10
7.1948666856
 20
12.4550477814
 40
0.1675
100
AcDbArc
 50
72.3498757801
 51
90.0
  0
ARC
  5
332
100
AcDbEntity
  8
LAYER_FEATURE
100
AcDbCircle
 62
7
  6
CONTINUOUS
 10
4.9468774821
 20
12.4550477814
 40
0.1675
100
AcDbArc
 50
90.0
 51
107.6501242199
  0
ARC
  5
333
100
AcDbEntity
  8
LAYER_FEATURE
100
AcDbCircle
 62
7
  6
CONTINUOUS
 10
7.1948666856
 20
13.3700477814
 40
0.1675
100
AcDbArc
 50
270.0
 51
287.6501242199
  0
ARC
  5
334
100
AcDbEntity
  8
LAYER_FEATURE
100
AcDbCircle
 62
7
  6
CONTINUOUS
 10
4.9468774821
 20
13.3700477814
 40
0.1675
100
AcDbArc
 50
252.3498757801
 51
270.0
  0
CIRCLE
  5
335
100
AcDbEntity
  8
02___PRT_ALL_AXES
100
AcDbCircle
 62
7
  6
CONTINUOUS
 10
6.0708720839
 20
12.1950477814
 40
0.164
  0
CIRCLE
  5
336
100
AcDbEntity
  8
LAYER_FEATURE
100
AcDbCircle
 62
7
  6
CONTINUOUS
 10
6.0708720839
 20
12.1950477814
 40
0.1312
  0
ARC
  5
337
100
AcDbEntity
  8
LAYER_FEATURE
100
AcDbCircle
 62
7
  6
CONTINUOUS
 10
15.4153552569
 20
4.3366301027
 40
0.1675
100
AcDbArc
 50
342.3498757801
 51
360.0
  0
ARC
  5
338
100
AcDbEntity
  8
LAYER_FEATURE
100
AcDbCircle
 62
7
  6
CONTINUOUS
 10
15.4153552569
 20
6.5846193062
 40
0.1675
100
AcDbArc
 50
0.0
 51
17.6501242199
  0
ARC
  5
339
100
AcDbEntity
  8
LAYER_FEATURE
100
AcDbCircle
 62
7
  6
CONTINUOUS
 10
16.3303552569
 20
4.3366301027
 40
0.1675
100
AcDbArc
 50
180.0
 51
197.6501242199
  0
ARC
  5
33A
100
AcDbEntity
  8
LAYER_FEATURE
100
AcDbCircle
 62
7
  6
CONTINUOUS
 10
16.3303552569
 20
6.5846193062
 40
0.1675
100
AcDbArc
 50
162.3498757801
 51
180.0
  0
CIRCLE
  5
33B
100
AcDbEntity
  8
02___PRT_ALL_AXES
100
AcDbCircle
 62
7
  6
CONTINUOUS
 10
15.1553552569
 20
5.4606247044
 40
0.164
  0
CIRCLE
  5
33C
100
AcDbEntity
  8
LAYER_FEATURE
100
AcDbCircle
 62
7
  6
CONTINUOUS
 10
15.1553552569
 20
5.4606247044
 40
0.1312
  0
ARC
  5
33D
100
AcDbEntity
  8
LAYER_FEATURE
100
AcDbCircle
 62
7
  6
CONTINUOUS
 10
15.1836321309
 20
11.6841653985
 40
1.802927175
100
AcDbArc
 50
71.3773085078
 51
72.396841945
  0
ARC
  5
33E
100
AcDbEntity
  8
LAYER_FEATURE
100
AcDbCircle
 62
7
  6
CONTINUOUS
 10
15.1901436558
 20
11.7096528967
 40
1.7766195501
100
AcDbArc
 50
76.2928578416
 51
77.3226995837
  0
ARC
  5
33F
100
AcDbEntity
  8
LAYER_FEATURE
100
AcDbCircle
 62
7
  6
CONTINUOUS
 10
15.2030709506
 20
11.7345793212
 40
1.7488823313
100
AcDbArc
 50
66.4177665476
 51
67.4579270627
  0
ARC
  5
340
100
AcDbEntity
  8
LAYER_FEATURE
100
AcDbCircle
 62
7
  6
CONTINUOUS
 10
15.2086080057
 20
11.8111384313
 40
1.6734376631
100
AcDbArc
 50
81.3139316352
 51
82.3859624656
  0
ARC
  5
341
100
AcDbEntity
  8
LAYER_FEATURE
100
AcDbCircle
 62
7
  6
CONTINUOUS
 10
15.2583206834
 20
11.8491905388
 40
1.6216098335
100
AcDbArc
 50
61.2606807468
 51
62.3542950399
  0
ARC
  5
342
100
AcDbEntity
  8
LAYER_FEATURE
100
AcDbCircle
 62
7
  6
CONTINUOUS
 10
15.223946942
 20
11.9769769714
 40
1.5068347505
100
AcDbArc
 50
86.5997199475
 51
87.7496811913
  0
ARC
  5
343
100
AcDbEntity
  8
LAYER_FEATURE
100
AcDbCircle
 62
7
  6
CONTINUOUS
 10
15.352845662
 20
12.0070439251
 40
1.4375528033
100
AcDbArc
 50
55.734432291
 51
56.9192051258
  0
ARC
  5
344
100
AcDbEntity
  8
LAYER_FEATURE
100
AcDbCircle
 62
7
  6
CONTINUOUS
 10
15.2232430834
 20
12.1858994493
 40
1.2978264684
100
AcDbArc
 50
92.3335327005
 51
93.6041858753
  0
ARC
  5
345
100
AcDbEntity
  8
LAYER_FEATURE
100
AcDbCircle
 62
7
  6
CONTINUOUS
 10
15.4827059736
 20
12.1820447627
 40
1.2195379861
100
AcDbArc
 50
49.6341864195
 51
50.95593179
  0
ARC
  5
346
100
AcDbEntity
  8
LAYER_FEATURE
100
AcDbCircle
 62
7
  6
CONTINUOUS
 10
15.1985190329
 20
12.41096676
 40
1.0712898421
100
AcDbArc
 50
98.7383311866
 51
100.1826757798
  0
ARC
  5
347
100
AcDbEntity
  8
LAYER_FEATURE
100
AcDbCircle
 62
7
  6
CONTINUOUS
 10
15.6370076394
 20
12.34801169
 40
0.9927969325
100
AcDbArc
 50
42.7065240974
 51
44.2222110618
  0
ARC
  5
348
100
AcDbEntity
  8
LAYER_FEATURE
100
AcDbCircle
 62
7
  6
CONTINUOUS
 10
15.1484987162
 20
12.6245827446
 40
0.8517474716
100
AcDbArc
 50
106.0909531423
 51
107.7742260139
  0
ARC
  5
349
100
AcDbEntity
  8
LAYER_FEATURE
100
AcDbCircle
 62
7
  6
CONTINUOUS
 10
15.7997290847
 20
12.4836727821
 40
0.7807831306
100
AcDbArc
 50
34.6399453399
 51
36.4186064144
  0
ARC
  5
34A
100
AcDbEntity
  8
LAYER_FEATURE
100
AcDbCircle
 62
7
  6
CONTINUOUS
 10
15.0789980196
 20
12.8035806608
 40
0.659551112
100
AcDbArc
 50
114.724838271
 51
116.7212236072
  0
ARC
  5
34B
100
AcDbEntity
  8
LAYER_FEATURE
100
AcDbCircle
 62
7
  6
CONTINUOUS
 10
15.9525696001
 20
12.5766195903
 40
0.6017114492
100
AcDbArc
 50
25.0805472037
 51
27.1964792455
  0
ARC
  5
34C
100
AcDbEntity
  8
LAYER_CUT_FEAT
100
AcDbCircle
 62
7
  6
CONTINUOUS
 10
15.0113203787
 20
12.5378592694
 40
0.5460938463
100
AcDbArc
 50
206.1431666889
 51
207.3275889663
  0
ARC
  5
34D
100
AcDbEntity
  8
LAYER_FEATURE
100
AcDbCircle
 62
7
  6
CONTINUOUS
 10
15.0018642667
 20
12.9333840272
 40
0.5083606854
100
AcDbArc
 50
124.9930623912
 51
127.3677459212
  0
ARC
  5
34E
100
AcDbEntity
  8
02___PRT_ALL_AXES
100
AcDbCircle
 62
7
  6
CONTINUOUS
 10
15.6037801093
 20
12.0927272174
 40
0.4915904173
100
AcDbArc
 50
345.6414355092
 51
346.2631037325
  0
ARC
  5
34F
100
AcDbEntity
  8
LAYER_FEATURE
100
AcDbCircle
 62
7
  6
CONTINUOUS
 10
16.0782629167
 20
12.6254417794
 40
0.466669765
100
AcDbArc
 50
13.7167709737
 51
16.2237732811
  0
ARC
  5
350
100
AcDbEntity
  8
LAYER_FEATURE
100
AcDbCircle
 62
7
  6
CONTINUOUS
 10
14.9326725713
 20
13.0104273059
 40
0.4046202833
100
AcDbArc
 50
137.1374043774
 51
139.901508805
  0
ARC
  5
351
100
AcDbEntity
  8
LAYER_FEATURE
100
AcDbCircle
 62
7
  6
CONTINUOUS
 10
16.1637064589
 20
12.6396267159
 40
0.3798844727
100
AcDbArc
 50
0.4902365662
 51
3.3670771972
  0
ARC
  5
352
100
AcDbEntity
  8
LAYER_FEATURE
100
AcDbCircle
 62
7
  6
CONTINUOUS
 10
14.8876343335
 20
13.0423674733
 40
0.3492824785
100
AcDbArc
 50
151.0245833641
 51
154.0715895006
  0
ARC
  5
353
100
AcDbEntity
  8
LAYER_FEATURE
100
AcDbCircle
 62
7
  6
CONTINUOUS
 10
16.2025470956
 20
12.6371958303
 40
0.3408793723
100
AcDbArc
 50
345.8899969077
 51
348.9852580321
  0
ARC
  5
354
100
AcDbEntity
  8
LAYER_FEATURE
100
AcDbCircle
 62
7
  6
CONTINUOUS
 10
14.6291286751
 20
13.1971873053
 40
0.0904265044
100
AcDbArc
 50
68.9477854314
 51
78.5461169229
  0
ARC
  5
355
100
AcDbEntity
  8
LAYER_FEATURE
100
AcDbCircle
 62
7
  6
CONTINUOUS
 10
16.4860676446
 20
12.6769996162
 40
0.0901227424
100
AcDbArc
 50
70.1239094946
 51
79.7438477202
  0
ARC
  5
356
100
AcDbEntity
  8
LAYER_FEATURE
100
AcDbCircle
 62
7
  6
CONTINUOUS
 10
16.4967050342
 20
12.5869253172
 40
0.0898354481
100
AcDbArc
 50
65.2049263107
 51
74.8454121031
  0
ARC
  5
357
100
AcDbEntity
  8
LAYER_FEATURE
100
AcDbCircle
 62
7
  6
CONTINUOUS
 10
14.5827134535
 20
13.1264628055
 40
0.086903722
100
AcDbArc
 50
75.4944593408
 51
83.6231914946
  0
ARC
  5
358
100
AcDbEntity
  8
LAYER_FEATURE
100
AcDbCircle
 62
7
  6
CONTINUOUS
 10
16.5421157305
 20
12.7544414279
 40
0.0837262702
100
AcDbArc
 50
249.6696149561
 51
254.8189129792
  0
ARC
  5
359
100
AcDbEntity
  8
LAYER_FEATURE
100
AcDbCircle
 62
7
  6
CONTINUOUS
 10
14.6915996433
 20
13.3594895314
 40
0.0834832569
100
AcDbArc
 50
248.948286172
 51
258.4475581549
  0
ARC
  5
35A
100
AcDbEntity
  8
LAYER_FEATURE
100
AcDbCircle
 62
7
  6
CONTINUOUS
 10
16.4891746517
 20
12.5088066491
 40
0.0811978451
100
AcDbArc
 50
59.9236978492
 51
64.0420058737
  0
ARC
  5
35B
100
AcDbEntity
  8
LAYER_FEATURE
100
AcDbCircle
 62
7
  6
CONTINUOUS
 10
16.0240199976
 20
13.2657633107
 40
0.0171980583
100
AcDbArc
 50
342.8467588244
 51
352.7285317916
  0
SPLINE
  5
35C
100
AcDbEntity
  8
02___PRT_ALL_AXES
100
AcDbSpline
 62
7
  6
CONTINUOUS
 70
0
 71
3
 72
27
 73
23
 74
0
 42
0.0000001
 43
0.0000001
 44
0.0000000001
 40
0.0
 40
0.0
 40
0.0
 40
0.0
 40
0.038645246
 40
0.085269324
 40
0.1476585685
 40
0.2233442267
 40
0.2652993624
 40
0.3094841157
 40
0.3554873896
 40
0.4028771068
 40
0.4512027197
 40
0.4999999991
 40
0.5487972785
 40
0.5971228915
 40
0.6445126087
 40
0.6905158826
 40
0.734700636
 40
0.7766557719
 40
0.8523414302
 40
0.914730675
 40
0.9613547536
 40
1.0
 40
1.0
 40
1.0
 40
1.0
 10
6.8768720839
 20
12.0310477814
 30
0.0
 10
6.8760237478
 20
12.0352169686
 30
0.0
 10
6.8742176758
 20
12.0444295578
 30
0.0
 10
6.8713463447
 20
12.0604310984
 30
0.0
 10
6.868174021
 20
12.0805182562
 30
0.0
 10
6.8656139651
 20
12.1001757688
 30
0.0
 10
6.8637319051
 20
12.1178927824
 30
0.0
 10
6.8624487356
 20
12.132385042
 30
0.0
 10
6.8613924667
 20
12.1474955167
 30
0.0
 10
6.86060558
 20
12.163079003
 30
0.0
 10
6.8601200679
 20
12.1789826053
 30
0.0
 10
6.8599559943
 20
12.1950477811
 30
0.0
 10
6.8601200679
 20
12.2111129568
 30
0.0
 10
6.8606055799
 20
12.2270165591
 30
0.0
 10
6.8613924667
 20
12.2426000455
 30
0.0
 10
6.8624487356
 20
12.2577105202
 30
0.0
 10
6.863731905
 20
12.2722027798
 30
0.0
 10
6.865613965
 20
12.2899197934
 30
0.0
 10
6.868174021
 20
12.3095773062
 30
0.0
 10
6.8713463447
 20
12.3296644641
 30
0.0
 10
6.8742176758
 20
12.3456660048
 30
0.0
 10
6.8760237478
 20
12.3548785941
 30
0.0
 10
6.8768720839
 20
12.3590477814
 30
0.0
  0
SPLINE
  5
35D
100
AcDbEntity
  8
02___PRT_ALL_AXES
100
AcDbSpline
 62
7
  6
CONTINUOUS
 70
0
 71
3
 72
27
 73
23
 74
0
 42
0.0000001
 43
0.0000001
 44
0.0000000001
 40
0.0
 40
0.0
 40
0.0
 40
0.0
 40
0.0386452386
 40
0.0852692884
 40
0.1476585352
 40
0.2233442058
 40
0.2652993552
 40
0.3094841051
 40
0.3554873857
 40
0.4028771053
 40
0.4512027227
 40
0.5000000003
 40
0.5487972779
 40
0.5971228952
 40
0.6445126144
 40
0.6905158953
 40
0.7347006451
 40
0.7766557946
 40
0.852341465
 40
0.9147307119
 40
0.9613547615
 40
1.0
 40
1.0
 40
1.0
 40
1.0
 10
15.3193552569
 20
6.2666247044
 30
0.0
 10
15.3151860706
 20
6.2657763682
 30
0.0
 10
15.3059734852
 20
6.2639702968
 30
0.0
 10
15.2899719482
 20
6.2610989671
 30
0.0
 10
15.2698847918
 20
6.2579266439
 30
0.0
 10
15.2502272763
 20
6.2553665852
 30
0.0
 10
15.23251026
 20
6.2534845274
 30
0.0
 10
15.2180179989
 20
6.2522013537
 30
0.0
 10
15.2029075232
 20
6.2511450898
 30
0.0
 10
15.1873240356
 20
6.2503581976
 30
0.0
 10
15.1714204326
 20
6.2498726901
 30
0.0
 10
15.1553552568
 20
6.2497086124
 30
0.0
 10
15.139290081
 20
6.2498726901
 30
0.0
 10
15.1233864781
 20
6.2503581976
 30
0.0
 10
15.1078029906
 20
6.2511450898
 30
0.0
 10
15.0926925149
 20
6.2522013537
 30
0.0
 10
15.0782002537
 20
6.2534845274
 30
0.0
 10
15.0604832375
 20
6.2553665852
 30
0.0
 10
15.040825722
 20
6.2579266439
 30
0.0
 10
15.0207385656
 20
6.2610989671
 30
0.0
 10
15.0047370286
 20
6.2639702968
 30
0.0
 10
14.9955244433
 20
6.2657763682
 30
0.0
 10
14.9913552569
 20
6.2666247044
 30
0.0
  0
SPLINE
  5
35E
100
AcDbEntity
  8
02___PRT_ALL_AXES
100
AcDbSpline
 62
7
  6
CONTINUOUS
 70
0
 71
3
 72
60
 73
56
 74
0
 42
0.0000001
 43
0.0000001
 44
0.0000000001
 40
0.0
 40
0.0
 40
0.0
 40
0.0
 40
0.0136497162
 40
0.0277940682
 40
0.0424139829
 40
0.0574916506
 40
0.0730075955
 40
0.0889407423
 40
0.1052691528
 40
0.1219702342
 40
0.1390205704
 40
0.1563962424
 40
0.1740728744
 40
0.1920257526
 40
0.2286595249
 40
0.2660977781
 40
0.3041399518
 40
0.3425873624
 40
0.381244642
 40
0.4199207886
 40
0.4584300697
 40
0.4965929262
 40
0.5342369745
 40
0.571198274
 40
0.6073228726
 40
0.6250277767
 40
0.6424713443
 40
0.6596380054
 40
0.6765132341
 40
0.6930835627
 40
0.7093367256
 40
0.7252616477
 40
0.740848611
 40
0.7560892648
 40
0.7709766803
 40
0.7855055117
 40
0.7996719356
 40
0.8134738514
 40
0.8269108408
 40
0.8399843192
 40
0.8526976028
 40
0.8650559336
 40
0.877066691
 40
0.8887393607
 40
0.9000857536
 40
0.9111200398
 40
0.9218588795
 40
0.932321545
 40
0.9425299285
 40
0.9525086636
 40
0.9622850299
 40
0.9718889438
 40
0.981352753
 40
0.9907109795
 40
1.0
 40
1.0
 40
1.0
 40
1.0
 10
16.0001061656
 20
11.9239865185
 30
0.0
 10
15.9994485078
 20
11.9253266841
 30
0.0
 10
15.9981399009
 20
11.9280706579
 30
0.0
 10
15.9962290268
 20
11.9322978116
 30
0.0
 10
15.9943378639
 20
11.9367042953
 30
0.0
 10
15.9924698853
 20
11.9412830611
 30
0.0
 10
15.9906286144
 20
11.9460270179
 30
0.0
 10
15.9888177553
 20
11.9509287466
 30
0.0
 10
15.9870411343
 20
11.9559805858
 30
0.0
 10
15.9853026624
 20
11.9611746825
 30
0.0
 10
15.9836063517
 20
11.9665030234
 30
0.0
 10
15.981956287
 20
11.9719574259
 30
0.0
 10
15.9803566057
 20
11.9775295954
 30
0.0
 10
15.9782825987
 20
11.9851560824
 30
0.0
 10
15.9758458638
 20
11.994922643
 30
0.0
 10
15.9732090425
 20
12.0068990109
 30
0.0
 10
15.9708740299
 20
12.0191400059
 30
0.0
 10
15.9688740943
 20
12.0315753677
 30
0.0
 10
15.9672414346
 20
12.044134366
 30
0.0
 10
15.9660066504
 20
12.0567457231
 30
0.0
 10
15.9651981552
 20
12.0693376527
 30
0.0
 10
15.9648415301
 20
12.0818378499
 30
0.0
 10
15.9649588145
 20
12.0941736887
 30
0.0
 10
15.965567758
 20
12.1062721112
 30
0.0
 10
15.9665017121
 20
12.116161489
 30
0.0
 10
15.9675116541
 20
12.1238914039
 30
0.0
 10
15.9683925847
 20
12.1295453859
 30
0.0
 10
15.9694018669
 20
12.1350856767
 30
0.0
 10
15.9705389143
 20
12.1405036657
 30
0.0
 10
15.9718028125
 20
12.1457908495
 30
0.0
 10
15.9731920339
 20
12.1509389697
 30
0.0
 10
15.9747048014
 20
12.1559399454
 30
0.0
 10
15.9763387489
 20
12.1607859863
 30
0.0
 10
15.9780911537
 20
12.1654695585
 30
0.0
 10
15.9799588991
 20
12.1699834127
 30
0.0
 10
15.9819383511
 20
12.1743206609
 30
0.0
 10
15.9840256597
 20
12.178474677
 30
0.0
 10
15.9862164255
 20
12.1824392605
 30
0.0
 10
15.988506053
 20
12.1862084957
 30
0.0
 10
15.9908895517
 20
12.189776862
 30
0.0
 10
15.9933616326
 20
12.1931392098
 30
0.0
 10
15.9959168192
 20
12.1962906902
 30
0.0
 10
15.99854927
 20
12.199226904
 30
0.0
 10
16.0012530672
 20
12.2019436893
 30
0.0
 10
16.0040219865
 20
12.204437323
 30
0.0
 10
16.0068497126
 20
12.206704342
 30
0.0
 10
16.0097297609
 20
12.2087416176
 30
0.0
 10
16.012655498
 20
12.2105463631
 30
0.0
 10
16.0156202332
 20
12.2121160028
 30
0.0
 10
16.0186171067
 20
12.2134483681
 30
0.0
 10
16.0216392425
 20
12.2145414534
 30
0.0
 10
16.0246796139
 20
12.2153936489
 30
0.0
 10
16.0277312464
 20
12.2160035797
 30
0.0
 10
16.0307867758
 20
12.2163701934
 30
0.0
 10
16.0328270921
 20
12.2164521299
 30
0.0
 10
16.0338430091
 20
12.2164521315
 30
0.0
  0
SPLINE
  5
35F
100
AcDbEntity
  8
02___PRT_ALL_AXES
100
AcDbSpline
 62
7
  6
CONTINUOUS
 70
0
 71
3
 72
29
 73
25
 74
0
 42
0.0000001
 43
0.0000001
 44
0.0000000001
 40
0.0
 40
0.0
 40
0.0
 40
0.0
 40
0.0752977494
 40
0.1489228401
 40
0.2207565278
 40
0.2907082597
 40
0.3587172455
 40
0.4247573241
 40
0.4888396474
 40
0.5510157627
 40
0.6113797045
 40
0.6700693404
 40
0.6988471525
 40
0.7272781158
 40
0.7553916459
 40
0.7832194132
 40
0.8107954942
 40
0.838155928
 40
0.8653386134
 40
0.8923829507
 40
0.9193295562
 40
0.9462199304
 40
0.9730960499
 40
1.0
 40
1.0
 40
1.0
 40
1.0
 10
15.0118672599
 20
12.425004153
 30
0.0
 10
15.0088264118
 20
12.425004153
 30
0.0
 10
15.0028113318
 20
12.425133556
 30
0.0
 10
14.9939131076
 20
12.4257297332
 30
0.0
 10
14.9852674576
 20
12.4267247296
 30
0.0
 10
14.9769063121
 20
12.4281164961
 30
0.0
 10
14.9688594734
 20
12.42990224
 30
0.0
 10
14.9611549054
 20
12.4320784286
 30
0.0
 10
14.953818601
 20
12.4346408469
 30
0.0
 10
14.9468745105
 20
12.4375847108
 30
0.0
 10
14.9403450293
 20
12.4409043518
 30
0.0
 10
14.9352324034
 20
12.4439993863
 30
0.0
 10
14.9313782594
 20
12.4466568987
 30
0.0
 10
14.9286220341
 20
12.4487263956
 30
0.0
 10
14.9259836085
 20
12.4508840014
 30
0.0
 10
14.9234648722
 20
12.4531287057
 30
0.0
 10
14.9210676046
 20
12.4554593164
 30
0.0
 10
14.918793538
 20
12.4578746721
 30
0.0
 10
14.9166442479
 20
12.4603734764
 30
0.0
 10
14.9146212633
 20
12.4629544196
 30
0.0
 10
14.9127259814
 20
12.4656160782
 30
0.0
 10
14.9109597087
 20
12.468356999
 30
0.0
 10
14.9093237079
 20
12.4711755432
 30
0.0
 10
14.9083215546
 20
12.4731034257
 30
0.0
 10
14.9078429087
 20
12.4740788103
 30
0.0
  0
SPLINE
  5
360
100
AcDbEntity
  8
LAYER_CUT_FEAT
100
AcDbSpline
 62
7
  6
CONTINUOUS
 70
0
 71
3
 72
22
 73
18
 74
0
 42
0.0000001
 43
0.0000001
 44
0.0000000001
 40
0.0
 40
0.0
 40
0.0
 40
0.0
 40
0.1381197631
 40
0.2053664309
 40
0.2714549167
 40
0.336437138
 40
0.400372579
 40
0.4633278437
 40
0.5253764097
 40
0.5865986125
 40
0.6470813093
 40
0.7069174431
 40
0.7662055021
 40
0.8250488573
 40
0.8835549588
 40
0.9418344159
 40
1.0
 40
1.0
 40
1.0
 40
1.0
 10
14.521094188
 20
12.297241791
 30
0.0
 10
14.51538046
 20
12.3088851445
 30
0.0
 10
14.5075073907
 20
12.3265167089
 30
0.0
 10
14.49852791
 20
12.3503783799
 30
0.0
 10
14.492689009
 20
12.3680678643
 30
0.0
 10
14.4876927342
 20
12.3856904147
 30
0.0
 10
14.4835438026
 20
12.4032296878
 30
0.0
 10
14.4802464162
 20
12.4206687803
 30
0.0
 10
14.4778039301
 20
12.4379910296
 30
0.0
 10
14.4762188948
 20
12.4551797934
 30
0.0
 10
14.4754930114
 20
12.4722185326
 30
0.0
 10
14.475627166
 20
12.4890908049
 30
0.0
 10
14.4766214234
 20
12.5057802996
 30
0.0
 10
14.478474959
 20
12.5222707869
 30
0.0
 10
14.4811861364
 20
12.5385464058
 30
0.0
 10
14.4847522235
 20
12.5545907171
 30
0.0
 10
14.48769873
 20
12.5651272172
 30
0.0
 10
14.4893113291
 20
12.5703456088
 30
0.0
  0
SPLINE
  5
361
100
AcDbEntity
  8
LAYER_CHAMFER_FEAT
100
AcDbSpline
 62
7
  6
CONTINUOUS
 70
0
 71
3
 72
24
 73
20
 74
0
 42
0.0000001
 43
0.0000001
 44
0.0000000001
 40
0.0
 40
0.0
 40
0.0
 40
0.0
 40
0.0739320632
 40
0.1460696261
 40
0.2164172958
 40
0.2849941458
 40
0.3518348008
 40
0.4169905501
 40
0.4805300664
 40
0.5425401285
 40
0.6031262803
 40
0.6624129241
 40
0.7205429676
 40
0.7776770877
 40
0.8339923263
 40
0.8896798659
 40
0.9449422446
 40
0.9724845781
 40
1.0
 40
1.0
 40
1.0
 40
1.0
 10
15.0752601945
 20
11.9815483368
 30
0.0
 10
15.0725820575
 20
11.9807257648
 30
0.0
 10
15.0673231485
 20
11.9789925467
 30
0.0
 10
15.0596502386
 20
11.9760899056
 30
0.0
 10
15.0523032932
 20
11.972921539
 30
0.0
 10
15.0452964853
 20
11.9694933979
 30
0.0
 10
15.0386431475
 20
11.9658118398
 30
0.0
 10
15.0323560001
 20
11.9618837421
 30
0.0
 10
15.0264470965
 20
11.9577164116
 30
0.0
 10
15.0209278412
 20
11.9533175819
 30
0.0
 10
15.0158089246
 20
11.9486954664
 30
0.0
 10
15.0111003266
 20
11.9438587294
 30
0.0
 10
15.0068113277
 20
11.9388164555
 30
0.0
 10
15.0029504673
 20
11.9335782148
 30
0.0
 10
14.9995254371
 20
11.928153978
 30
0.0
 10
14.9965432138
 20
11.9225544652
 30
0.0
 10
14.9944294222
 20
11.9177448745
 30
0.0
 10
14.9929684188
 20
11.9138271215
 30
0.0
 10
14.9923142887
 20
11.9118452715
 30
0.0
 10
14.9920064403
 20
11.9108490717
 30
0.0
  0
SPLINE
  5
362
100
AcDbEntity
  8
LAYER_CHAMFER_FEAT
100
AcDbSpline
 62
7
  6
CONTINUOUS
 70
0
 71
3
 72
24
 73
20
 74
0
 42
0.0000001
 43
0.0000001
 44
0.0000000001
 40
0.0
 40
0.0
 40
0.0
 40
0.0
 40
0.0739039979
 40
0.1460164649
 40
0.2163424347
 40
0.2849013674
 40
0.3517281605
 40
0.4168743012
 40
0.4804086215
 40
0.5424179503
 40
0.6030077313
 40
0.6623022031
 40
0.7204439949
 40
0.7775933511
 40
0.8339267799
 40
0.8896348384
 40
0.9449193427
 40
0.9724730746
 40
1.0
 40
1.0
 40
1.0
 40
1.0
 10
15.4410443043
 20
11.8683420551
 30
0.0
 10
15.4427832868
 20
11.8661559168
 30
0.0
 10
15.4461316295
 20
11.861766057
 30
0.0
 10
15.4508064841
 20
11.8550536408
 30
0.0
 10
15.4550638088
 20
11.8483062575
 30
0.0
 10
15.458895342
 20
11.84153674
 30
0.0
 10
15.4622937243
 20
11.8347577757
 30
0.0
 10
15.4652523887
 20
11.8279821362
 30
0.0
 10
15.4677655699
 20
11.8212225773
 30
0.0
 10
15.4698282703
 20
11.814491838
 30
0.0
 10
15.4714363219
 20
11.8078026443
 30
0.0
 10
15.4725864169
 20
11.801167702
 30
0.0
 10
15.4732760579
 20
11.7945996661
 30
0.0
 10
15.4735036022
 20
11.7881111721
 30
0.0
 10
15.4732683381
 20
11.7817147113
 30
0.0
 10
15.4725705669
 20
11.7754229875
 30
0.0
 10
15.4716032525
 20
11.7702707418
 30
0.0
 10
15.4706009022
 20
11.7662205548
 30
0.0
 10
15.4700240389
 20
11.7642194744
 30
0.0
 10
15.4697168447
 20
11.7632253914
 30
0.0
  0
SPLINE
  5
363
100
AcDbEntity
  8
LAYER_FEATURE
100
AcDbSpline
 62
7
  6
CONTINUOUS
 70
0
 71
3
 72
42
 73
38
 74
0
 42
0.0000001
 43
0.0000001
 44
0.0000000001
 40
0.0
 40
0.0
 40
0.0
 40
0.0
 40
0.0099900262
 40
0.0202818204
 40
0.0308785562
 40
0.0417820552
 40
0.0529932069
 40
0.064511813
 40
0.0884642514
 40
0.1136226715
 40
0.1399565931
 40
0.1674254238
 40
0.1959797803
 40
0.2255626717
 40
0.256110444
 40
0.2875535762
 40
0.3198173583
 40
0.3528225942
 40
0.3864862022
 40
0.4207217504
 40
0.4554399444
 40
0.490549143
 40
0.5259558556
 40
0.5615651922
 40
0.5972813054
 40
0.63300785
 40
0.6686484436
 40
0.7041071014
 40
0.7392886726
 40
0.7740993143
 40
0.8084469766
 40
0.8422418009
 40
0.8753966949
 40
0.9078278944
 40
0.9394546739
 40
0.970203299
 40
1.0
 40
1.0
 40
1.0
 40
1.0
 10
16.0614062601
 20
12.1713490008
 30
0.0
 10
16.0618481395
 20
12.1708196033
 30
0.0
 10
16.0627255793
 20
12.1697282615
 30
0.0
 10
16.0640039949
 20
12.1680223092
 30
0.0
 10
16.0652631191
 20
12.1662245245
 30
0.0
 10
16.0665019799
 20
12.1643363864
 30
0.0
 10
16.0677195896
 20
12.1623593523
 30
0.0
 10
16.0693344816
 20
12.1595705181
 30
0.0
 10
16.0712896578
 20
12.1558681542
 30
0.0
 10
16.0735062935
 20
12.1511539611
 30
0.0
 10
16.0756161103
 20
12.1461268161
 30
0.0
 10
16.077612428
 20
12.1408026378
 30
0.0
 10
16.0794889549
 20
12.1351981822
 30
0.0
 10
16.0812397389
 20
12.1293311587
 30
0.0
 10
16.0828592162
 20
12.1232201172
 30
0.0
 10
16.0843422266
 20
12.1168844051
 30
0.0
 10
16.0856840539
 20
12.1103441035
 30
0.0
 10
16.0868804247
 20
12.1036199554
 30
0.0
 10
16.0879275239
 20
12.0967332944
 30
0.0
 10
16.0888220051
 20
12.0897059775
 30
0.0
 10
16.089561016
 20
12.0825603179
 30
0.0
 10
16.0901422047
 20
12.0753190107
 30
0.0
 10
16.0905637171
 20
12.0680050567
 30
0.0
 10
16.0908242043
 20
12.0606416896
 30
0.0
 10
16.0909228301
 20
12.053252303
 30
0.0
 10
16.0908592869
 20
12.0458603743
 30
0.0
 10
16.0906337793
 20
12.0384893883
 30
0.0
 10
16.0902470255
 20
12.0311627628
 30
0.0
 10
16.0897002522
 20
12.0239037744
 30
0.0
 10
16.0889952087
 20
12.0167354802
 30
0.0
 10
16.0881341478
 20
12.0096806464
 30
0.0
 10
16.0871198178
 20
12.0027616735
 30
0.0
 10
16.085955448
 20
11.9960005173
 30
0.0
 10
16.0846447454
 20
11.9894186788
 30
0.0
 10
16.0831919025
 20
11.9830369023
 30
0.0
 10
16.0816015377
 20
11.9768756352
 30
0.0
 10
16.0804337912
 20
11.9728619841
 30
0.0
 10
16.0798265355
 20
11.9708969039
 30
0.0
  0
SPLINE
  5
364
100
AcDbEntity
  8
LAYER_FEATURE
100
AcDbSpline
 62
7
  6
CONTINUOUS
 70
0
 71
3
 72
15
 73
11
 74
0
 42
0.0000001
 43
0.0000001
 44
0.0000000001
 40
0.0
 40
0.0
 40
0.0
 40
0.0
 40
0.1030415528
 40
0.2124413609
 40
0.3282547734
 40
0.4504493039
 40
0.5789186337
 40
0.7134889495
 40
0.8539445788
 40
1.0
 40
1.0
 40
1.0
 40
1.0
 10
16.0614062599
 20
11.9335552638
 30
0.0
 10
16.0623282446
 20
11.9346598412
 30
0.0
 10
16.0641425163
 20
11.9370103859
 30
0.0
 10
16.0667008484
 20
11.9408167338
 30
0.0
 10
16.0691688663
 20
11.9449958609
 30
0.0
 10
16.0715383857
 20
11.9495337754
 30
0.0
 10
16.0738017005
 20
11.954415573
 30
0.0
 10
16.0759514103
 20
11.9596251725
 30
0.0
 10
16.0779802489
 20
11.9651451474
 30
0.0
 10
16.0792244032
 20
11.968948403
 30
0.0
 10
16.0798265355
 20
11.9708969039
 30
0.0
  0
SPLINE
  5
365
100
AcDbEntity
  8
02___PRT_ALL_AXES
100
AcDbSpline
 62
7
  6
CONTINUOUS
 70
0
 71
3
 72
26
 73
22
 74
0
 42
0.0000001
 43
0.0000001
 44
0.0000000001
 40
0.0
 40
0.0
 40
0.0
 40
0.0
 40
0.0199982218
 40
0.0401585979
 40
0.0605759026
 40
0.0813412433
 40
0.102540519
 40
0.1242537137
 40
0.1694943808
 40
0.2175937343
 40
0.2689602884
 40
0.3239082053
 40
0.3826710188
 40
0.4454145128
 40
0.5122463605
 40
0.5832277325
 40
0.6583796274
 40
0.7376868415
 40
0.8211077482
 40
0.908580095
 40
1.0
 40
1.0
 40
1.0
 40
1.0
 10
16.0338430091
 20
11.8884521319
 30
0.0
 10
16.033502366
 20
11.888452131
 30
0.0
 10
16.0328180809
 20
11.8884762794
 30
0.0
 10
16.0317911524
 20
11.8885844148
 30
0.0
 10
16.0307610776
 20
11.8887644845
 30
0.0
 10
16.0297280211
 20
11.8890164141
 30
0.0
 10
16.0286920174
 20
11.8893400727
 30
0.0
 10
16.0272878311
 20
11.8898742303
 30
0.0
 10
16.0255202175
 20
11.8907305106
 30
0.0
 10
16.0234200321
 20
11.892027634
 30
0.0
 10
16.0213118723
 20
11.8936055926
 30
0.0
 10
16.0191962865
 20
11.8954615401
 30
0.0
 10
16.0170738793
 20
11.8975925537
 30
0.0
 10
16.0149457823
 20
11.8999953092
 30
0.0
 10
16.0128134697
 20
11.9026660101
 30
0.0
 10
16.0106788328
 20
11.9056003575
 30
0.0
 10
16.0085441175
 20
11.9087934795
 30
0.0
 10
16.0064118783
 20
11.912239937
 30
0.0
 10
16.0042849577
 20
11.9159338381
 30
0.0
 10
16.0021666294
 20
11.9198685337
 30
0.0
 10
16.0007921859
 20
11.9225885561
 30
0.0
 10
16.0001061656
 20
11.9239865185
 30
0.0
  0
SPLINE
  5
366
100
AcDbEntity
  8
LAYER_FEATURE
100
AcDbSpline
 62
7
  6
CONTINUOUS
 70
0
 71
3
 72
39
 73
35
 74
0
 42
0.0000001
 43
0.0000001
 44
0.0000000001
 40
0.0
 40
0.0
 40
0.0
 40
0.0
 40
0.0261423888
 40
0.0523252823
 40
0.0785888749
 40
0.1049727484
 40
0.1315155884
 40
0.1582549139
 40
0.1852268318
 40
0.2124658343
 40
0.2400046182
 40
0.2678739238
 40
0.2961024336
 40
0.3247166915
 40
0.3537410315
 40
0.3831975539
 40
0.4131061327
 40
0.4434844153
 40
0.474347844
 40
0.5057097206
 40
0.5375812559
 40
0.5699716101
 40
0.6028879831
 40
0.6363356916
 40
0.6703182207
 40
0.704837309
 40
0.7398930414
 40
0.7754839083
 40
0.8116068708
 40
0.848257458
 40
0.8854298318
 40
0.9231168337
 40
0.9613100741
 40
1.0
 40
1.0
 40
1.0
 40
1.0
 10
14.1692453506
 20
12.6692534769
 30
0.0
 10
14.1672917459
 20
12.6629316002
 30
0.0
 10
14.1636851452
 20
12.6501819173
 30
0.0
 10
14.1591940026
 20
12.6307966503
 30
0.0
 10
14.155622941
 20
12.6111584542
 30
0.0
 10
14.1529747971
 20
12.5912829768
 30
0.0
 10
14.1512514824
 20
12.571185297
 30
0.0
 10
14.1504542321
 20
12.5508808455
 30
0.0
 10
14.1505835002
 20
12.5303851335
 30
0.0
 10
14.1516390606
 20
12.5097138016
 30
0.0
 10
14.1536199918
 20
12.4888825956
 30
0.0
 10
14.1565246137
 20
12.4679073518
 30
0.0
 10
14.1603505673
 20
12.4468039874
 30
0.0
 10
14.1650948317
 20
12.4255884981
 30
0.0
 10
14.1707536622
 20
12.4042769373
 30
0.0
 10
14.1773226259
 20
12.3828854089
 30
0.0
 10
14.1847966472
 20
12.3614300699
 30
0.0
 10
14.1931699713
 20
12.3399271144
 30
0.0
 10
14.2024361438
 20
12.3183927509
 30
0.0
 10
14.2125880774
 20
12.2968432146
 30
0.0
 10
14.2236180425
 20
12.2752947577
 30
0.0
 10
14.2355176162
 20
12.2537636105
 30
0.0
 10
14.2482777445
 20
12.2322659965
 30
0.0
 10
14.2618887564
 20
12.2108181287
 30
0.0
 10
14.2763403187
 20
12.1894361704
 30
0.0
 10
14.2916214638
 20
12.1681362334
 30
0.0
 10
14.3077206284
 20
12.1469343859
 30
0.0
 10
14.3246256306
 20
12.1258466245
 30
0.0
 10
14.3423236579
 20
12.1048888451
 30
0.0
 10
14.3608013258
 20
12.0840768613
 30
0.0
 10
14.3800446623
 20
12.0634264009
 30
0.0
 10
14.4000391335
 20
12.0429530099
 30
0.0
 10
14.4207694812
 20
12.0226722587
 30
0.0
 10
14.4349797078
 20
12.0093747833
 30
0.0
 10
14.4422016001
 20
12.0027610192
 30
0.0
  0
SPLINE
  5
367
100
AcDbEntity
  8
LAYER_FEATURE
100
AcDbSpline
 62
7
  6
CONTINUOUS
 70
0
 71
3
 72
23
 73
19
 74
0
 42
0.0000001
 43
0.0000001
 44
0.0000000001
 40
0.0
 40
0.0
 40
0.0
 40
0.0
 40
0.0597769511
 40
0.11962241
 40
0.1796044915
 40
0.2397905501
 40
0.3002468005
 40
0.3610379685
 40
0.4222269938
 40
0.4838746888
 40
0.5460395299
 40
0.6087773974
 40
0.6721413763
 40
0.7361816526
 40
0.8009453042
 40
0.8664762951
 40
0.9328153692
 40
1.0
 40
1.0
 40
1.0
 40
1.0
 10
14.3459537667
 20
13.2410821209
 30
0.0
 10
14.3442740435
 20
13.2356465263
 30
0.0
 10
14.3411371089
 20
13.2246982858
 30
0.0
 10
14.3371101221
 20
13.2080809766
 30
0.0
 10
14.3337624175
 20
13.1912736377
 30
0.0
 10
14.3310960136
 20
13.1742861289
 30
0.0
 10
14.329112351
 20
13.1571279547
 30
0.0
 10
14.3278124734
 20
13.1398088341
 30
0.0
 10
14.3271971221
 20
13.1223385287
 30
0.0
 10
14.3272665258
 20
13.1047268898
 30
0.0
 10
14.3280206147
 20
13.0869838314
 30
0.0
 10
14.3294589038
 20
13.0691193336
 30
0.0
 10
14.331580475
 20
13.0511434261
 30
0.0
 10
14.3343841298
 20
13.0330661989
 30
0.0
 10
14.3378681665
 20
13.0148977916
 30
0.0
 10
14.3420306123
 20
12.9966483172
 30
0.0
 10
14.3468690046
 20
12.9783282345
 30
0.0
 10
14.3505198044
 20
12.9661531554
 30
0.0
 10
14.3524543511
 20
12.9600585884
 30
0.0
  0
SPLINE
  5
368
100
AcDbEntity
  8
LAYER_FEATURE
100
AcDbSpline
 62
7
  6
CONTINUOUS
 70
0
 71
3
 72
39
 73
35
 74
0
 42
0.0000001
 43
0.0000001
 44
0.0000000001
 40
0.0
 40
0.0
 40
0.0
 40
0.0
 40
0.0261413159
 40
0.0523231479
 40
0.0785857033
 40
0.104968575
 40
0.1315104571
 40
0.1582488802
 40
0.185219963
 40
0.2124582019
 40
0.2399962996
 40
0.2678650098
 40
0.2960930155
 40
0.3247068598
 40
0.3537308881
 40
0.3831872015
 40
0.4130956672
 40
0.4434739371
 40
0.4743374582
 40
0.505699522
 40
0.5375713343
 40
0.569962064
 40
0.6028788996
 40
0.636327146
 40
0.6703102948
 40
0.7048300772
 40
0.7398865625
 40
0.7754782397
 40
0.8116020696
 40
0.8482535642
 40
0.8854268755
 40
0.9231148494
 40
0.9613090793
 40
1.0
 40
1.0
 40
1.0
 40
1.0
 10
16.5769058644
 20
11.925230105
 30
0.0
 10
16.5749519331
 20
11.918907171
 30
0.0
 10
16.5707359761
 20
11.906343471
 30
0.0
 10
16.5635060991
 20
11.8878010633
 30
0.0
 10
16.5553735326
 20
11.8695690217
 30
0.0
 10
16.546344782
 20
11.8516618702
 30
0.0
 10
16.5364268014
 20
11.8340931322
 30
0.0
 10
16.5256272654
 20
11.816876258
 30
0.0
 10
16.5139545401
 20
11.8000243281
 30
0.0
 10
16.5014176639
 20
11.7835501211
 30
0.0
 10
16.4880262916
 20
11.7674661168
 30
0.0
 10
16.4737907216
 20
11.7517844728
 30
0.0
 10
16.4587219058
 20
11.7365169927
 30
0.0
 10
16.4428313834
 20
11.7216751685
 30
0.0
 10
16.4261312856
 20
11.7072701728
 30
0.0
 10
16.4086343708
 20
11.6933128013
 30
0.0
 10
16.3903539679
 20
11.6798135171
 30
0.0
 10
16.3713039634
 20
11.666782459
 30
0.0
 10
16.3514988299
 20
11.6542293865
 30
0.0
 10
16.3309536015
 20
11.6421636913
 30
0.0
 10
16.309683841
 20
11.630594427
 30
0.0
 10
16.287705653
 20
11.619530275
 30
0.0
 10
16.2650356854
 20
11.6089795092
 30
0.0
 10
16.2416910879
 20
11.5989500458
 30
0.0
 10
16.2176895089
 20
11.58944943
 30
0.0
 10
16.1930491066
 20
11.5804847749
 30
0.0
 10
16.1677885129
 20
11.5720628069
 30
0.0
 10
16.1419268174
 20
11.5641898724
 30
0.0
 10
16.1154835735
 20
11.5568718842
 30
0.0
 10
16.0884787727
 20
11.5501143299
 30
0.0
 10
16.060932837
 20
11.543922306
 30
0.0
 10
16.0328665429
 20
11.5383004762
 30
0.0
 10
16.0043012883
 20
11.533253078
 30
0.0
 10
15.9850616087
 20
11.5302924224
 30
0.0
 10
15.9753650722
 20
11.5289069011
 30
0.0
  0
SPLINE
  5
369
100
AcDbEntity
  8
LAYER_FEATURE
100
AcDbSpline
 62
7
  6
CONTINUOUS
 70
0
 71
3
 72
23
 73
19
 74
0
 42
0.0000001
 43
0.0000001
 44
0.0000000001
 40
0.0
 40
0.0
 40
0.0
 40
0.0
 40
0.0597805902
 40
0.1196295896
 40
0.1796150196
 40
0.2398041326
 40
0.3002630609
 40
0.3610564386
 40
0.4222471178
 40
0.4838958504
 40
0.546061022
 40
0.6087984689
 40
0.6721612133
 40
0.736199381
 40
0.8009600362
 40
0.8664870782
 40
0.9328212501
 40
1.0
 40
1.0
 40
1.0
 40
1.0
 10
16.7536142805
 20
12.497058749
 30
0.0
 10
16.7519358121
 20
12.4916272148
 30
0.0
 10
16.7483520032
 20
12.4808259842
 30
0.0
 10
16.7423072091
 20
12.4648455622
 30
0.0
 10
16.7355953024
 20
12.449091137
 30
0.0
 10
16.728220248
 20
12.4335719347
 30
0.0
 10
16.7201861495
 20
12.4182966225
 30
0.0
 10
16.7114976374
 20
12.403273787
 30
0.0
 10
16.702159618
 20
12.3885118708
 30
0.0
 10
16.692177392
 20
12.3740191559
 30
0.0
 10
16.6815566564
 20
12.3598037279
 30
0.0
 10
16.6703033805
 20
12.3458735699
 30
0.0
 10
16.6584239779
 20
12.3322364205
 30
0.0
 10
16.645925135
 20
12.3188998956
 30
0.0
 10
16.6328139129
 20
12.3058714382
 30
0.0
 10
16.6190976748
 20
12.2931582192
 30
0.0
 10
16.6047842973
 20
12.2807675098
 30
0.0
 10
16.5949129682
 20
12.2727780968
 30
0.0
 10
16.5898833423
 20
12.2688390737
 30
0.0
  0
SPLINE
  5
36A
100
AcDbEntity
  8
LAYER_CUT_FEAT
100
AcDbSpline
 62
7
  6
CONTINUOUS
 70
0
 71
3
 72
24
 73
20
 74
0
 42
0.0000001
 43
0.0000001
 44
0.0000000001
 40
0.0
 40
0.0
 40
0.0
 40
0.0
 40
0.0579012062
 40
0.1159240606
 40
0.174188953
 40
0.2328137996
 40
0.2919128973
 40
0.3515958926
 40
0.4119668957
 40
0.473123737
 40
0.535157366
 40
0.5981514016
 40
0.6621818552
 40
0.7273169691
 40
0.7603198775
 40
0.7936209311
 40
0.8611388098
 40
0.929919334
 40
1.0
 40
1.0
 40
1.0
 40
1.0
 10
16.2568398859
 20
12.0241379731
 30
0.0
 10
16.2551691656
 20
12.018731501
 30
0.0
 10
16.2515201089
 20
12.0079985025
 30
0.0
 10
16.2451451562
 20
11.9922045303
 30
0.0
 10
16.237872863
 20
11.9767244648
 30
0.0
 10
16.229711135
 20
11.9615751007
 30
0.0
 10
16.2206685677
 20
11.9467719846
 30
0.0
 10
16.2107547611
 20
11.9323304695
 30
0.0
 10
16.1999801823
 20
11.9182654213
 30
0.0
 10
16.1883561661
 20
11.9045912842
 30
0.0
 10
16.1758949147
 20
11.8913220596
 30
0.0
 10
16.1626094246
 20
11.8784712392
 30
0.0
 10
16.1485136993
 20
11.866052023
 30
0.0
 10
16.1361585713
 20
11.8561165437
 30
0.0
 10
16.1258916975
 20
11.8483949412
 30
0.0
 10
16.1152733765
 20
11.8407580875
 30
0.0
 10
16.1015140501
 20
11.8315068076
 30
0.0
 10
16.0843312043
 20
11.8209351473
 30
0.0
 10
16.0725013623
 20
11.8142767977
 30
0.0
 10
16.066471471
 20
11.8110287573
 30
0.0
  0
SPLINE
  5
36B
100
AcDbEntity
  8
02___PRT_ALL_AXES
100
AcDbSpline
 62
7
  6
CONTINUOUS
 70
0
 71
3
 72
49
 73
45
 74
0
 42
0.0000001
 43
0.0000001
 44
0.0000000001
 40
0.0
 40
0.0
 40
0.0
 40
0.0
 40
0.0136098817
 40
0.0271991939
 40
0.0407742764
 40
0.0543416893
 40
0.0679082284
 40
0.0814808912
 40
0.0950668763
 40
0.1086735311
 40
0.1223083615
 40
0.1359789578
 40
0.1496929925
 40
0.1634581338
 40
0.1772820395
 40
0.1911722658
 40
0.2051362537
 40
0.2191812347
 40
0.2333141917
 40
0.2475417982
 40
0.2618703707
 40
0.2763058103
 40
0.3055130939
 40
0.3352064378
 40
0.3654135893
 40
0.3961520648
 40
0.4274286286
 40
0.4592390343
 40
0.4915680762
 40
0.524389768
 40
0.5576677288
 40
0.591355574
 40
0.6253974556
 40
0.6597285806
 40
0.694275874
 40
0.7289586761
 40
0.7636896372
 40
0.7983757376
 40
0.8329195743
 40
0.8672208576
 40
0.901178167
 40
0.9346911101
 40
0.9676621499
 40
1.0
 40
1.0
 40
1.0
 40
1.0
 10
15.2022988876
 20
12.6185768171
 30
0.0
 10
15.2029397204
 20
12.6172709296
 30
0.0
 10
15.2041646492
 20
12.6146333254
 30
0.0
 10
15.2058287666
 20
12.6106041302
 30
0.0
 10
15.2073155527
 20
12.6065109155
 30
0.0
 10
15.2086226013
 20
12.6023593809
 30
0.0
 10
15.2097477623
 20
12.5981551591
 30
0.0
 10
15.2106890608
 20
12.5939039557
 30
0.0
 10
15.2114447956
 20
12.5896115177
 30
0.0
 10
15.2120134189
 20
12.5852836089
 30
0.0
 10
15.2123937351
 20
12.5809260282
 30
0.0
 10
15.212584665
 20
12.5765445676
 30
0.0
 10
15.2125855602
 20
12.5721450272
 30
0.0
 10
15.2123958562
 20
12.5677331863
 30
0.0
 10
15.2120154783
 20
12.5633147915
 30
0.0
 10
15.2114444259
 20
12.5588955577
 30
0.0
 10
15.2106832055
 20
12.5544811201
 30
0.0
 10
15.209732424
 20
12.5500770706
 30
0.0
 10
15.2085931618
 20
12.5456888771
 30
0.0
 10
15.207266667
 20
12.5413219609
 30
0.0
 10
15.205754544
 20
12.5369815105
 30
0.0
 10
15.2034848664
 20
12.5312146429
 30
0.0
 10
15.2001865355
 20
12.5240947379
 30
0.0
 10
15.1955390843
 20
12.5157719487
 30
0.0
 10
15.1902115409
 20
12.5076709
 30
0.0
 10
15.1842331175
 20
12.4998245449
 30
0.0
 10
15.1776361608
 20
12.4922623832
 30
0.0
 10
15.1704559368
 20
12.4850111522
 30
0.0
 10
15.1627301734
 20
12.4780947997
 30
0.0
 10
15.1544987273
 20
12.4715347355
 30
0.0
 10
15.1458032996
 20
12.4653500632
 30
0.0
 10
15.136687214
 20
12.4595578427
 30
0.0
 10
15.1271952636
 20
12.4541733433
 30
0.0
 10
15.1173735947
 20
12.4492102766
 30
0.0
 10
15.107269631
 20
12.4446809937
 30
0.0
 10
15.096931998
 20
12.4405966383
 30
0.0
 10
15.0864104438
 20
12.4369672524
 30
0.0
 10
15.0757557195
 20
12.4338018325
 30
0.0
 10
15.0650194173
 20
12.4311083421
 30
0.0
 10
15.0542537309
 20
12.4288936909
 30
0.0
 10
15.0435111879
 20
12.4271636722
 30
0.0
 10
15.0328441667
 20
12.4259229293
 30
0.0
 10
15.0223049549
 20
12.4251748349
 30
0.0
 10
15.0153235925
 20
12.425004153
 30
0.0
 10
15.0118672599
 20
12.425004153
 30
0.0
  0
SPLINE
  5
36C
100
AcDbEntity
  8
02___PRT_ALL_AXES
100
AcDbSpline
 62
7
  6
CONTINUOUS
 70
0
 71
3
 72
72
 73
68
 74
0
 42
0.0000001
 43
0.0000001
 44
0.0000000001
 40
0.0
 40
0.0
 40
0.0
 40
0.0
 40
0.0106253559
 40
0.0212733553
 40
0.0319664039
 40
0.04272644
 40
0.0535747196
 40
0.0645316226
 40
0.0756164847
 40
0.086847458
 40
0.0982413998
 40
0.1098137921
 40
0.1215786867
 40
0.133548676
 40
0.1396144691
 40
0.1457355831
 40
0.1581476775
 40
0.1707938917
 40
0.1836810623
 40
0.1968146741
 40
0.2101989113
 40
0.223836712
 40
0.2377298266
 40
0.251878876
 40
0.2662834101
 40
0.2809419659
 40
0.2958521241
 40
0.3110105634
 40
0.3264131134
 40
0.3420548058
 40
0.3579299226
 40
0.3740320431
 40
0.3903540879
 40
0.406888362
 40
0.4236265954
 40
0.4405599823
 40
0.4576792182
 40
0.4749745368
 40
0.492435744
 40
0.5100522522
 40
0.5278131126
 40
0.545707047
 40
0.5637224786
 40
0.5818475619
 40
0.6000702124
 40
0.6183781353
 40
0.636758854
 40
0.6551997378
 40
0.6736880298
 40
0.6922108743
 40
0.7107553436
 40
0.7293084655
 40
0.7478572496
 40
0.7663887148
 40
0.7848899156
 40
0.8033479693
 40
0.8217500832
 40
0.8400835816
 40
0.8583359337
 40
0.8764947812
 40
0.8945479664
 40
0.9124835611
 40
0.9302898968
 40
0.9479555893
 40
0.965469589
 40
0.9828211503
 40
1.0
 40
1.0
 40
1.0
 40
1.0
 10
14.4517149562
 20
12.0456318535
 30
0.0
 10
14.4502487437
 20
12.0408871923
 30
0.0
 10
14.4475806378
 20
12.0313027346
 30
0.0
 10
14.4443887086
 20
12.0166996915
 30
0.0
 10
14.4420082306
 20
12.0018784883
 30
0.0
 10
14.4404418041
 20
11.9868554478
 30
0.0
 10
14.439690895
 20
11.971646321
 30
0.0
 10
14.4397561387
 20
11.9562672202
 30
0.0
 10
14.4406372707
 20
11.9407343374
 30
0.0
 10
14.4423331628
 20
11.925063989
 30
0.0
 10
14.4448418232
 20
11.9092725988
 30
0.0
 10
14.4481604352
 20
11.8933766171
 30
0.0
 10
14.4522852757
 20
11.8773927823
 30
0.0
 10
14.4563726234
 20
11.8640727102
 30
0.0
 10
14.4600346219
 20
11.8533919487
 30
0.0
 10
14.4639957022
 20
11.8425980321
 30
0.0
 10
14.4694486611
 20
11.8290792994
 30
0.0
 10
14.47674559
 20
11.8129101847
 30
0.0
 10
14.4848183323
 20
11.7967364159
 30
0.0
 10
14.4936583212
 20
11.7805749403
 30
0.0
 10
14.5032563049
 20
11.7644424397
 30
0.0
 10
14.5136022329
 20
11.7483556371
 30
0.0
 10
14.5246852972
 20
11.7323311925
 30
0.0
 10
14.5364939323
 20
11.7163857112
 30
0.0
 10
14.5490158279
 20
11.7005357211
 30
0.0
 10
14.5622379386
 20
11.6847976571
 30
0.0
 10
14.5761464967
 20
11.6691878438
 30
0.0
 10
14.5907270244
 20
11.6537224788
 30
0.0
 10
14.6059643478
 20
11.6384176149
 30
0.0
 10
14.6218426119
 20
11.6232891437
 30
0.0
 10
14.6383452963
 20
11.6083527783
 30
0.0
 10
14.6554552317
 20
11.5936240365
 30
0.0
 10
14.6731546173
 20
11.5791182244
 30
0.0
 10
14.6914250387
 20
11.5648504198
 30
0.0
 10
14.7102474872
 20
11.5508354564
 30
0.0
 10
14.7296023787
 20
11.5370879076
 30
0.0
 10
14.7494695746
 20
11.5236220711
 30
0.0
 10
14.769828402
 20
11.5104519539
 30
0.0
 10
14.7906576751
 20
11.4975912566
 30
0.0
 10
14.8119357178
 20
11.4850533599
 30
0.0
 10
14.833640386
 20
11.4728513096
 30
0.0
 10
14.8557490904
 20
11.4609978034
 30
0.0
 10
14.8782388206
 20
11.4495051772
 30
0.0
 10
14.9010861686
 20
11.4383853921
 30
0.0
 10
14.9242673537
 20
11.4276500218
 30
0.0
 10
14.9477582466
 20
11.4173102404
 30
0.0
 10
14.9715343953
 20
11.4073768109
 30
0.0
 10
14.9955710502
 20
11.3978600734
 30
0.0
 10
15.01984319
 20
11.3887699343
 30
0.0
 10
15.0443255479
 20
11.3801158563
 30
0.0
 10
15.0689926381
 20
11.3719068479
 30
0.0
 10
15.0938187822
 20
11.3641514548
 30
0.0
 10
15.1187781363
 20
11.3568577503
 30
0.0
 10
15.1438447178
 20
11.350033327
 30
0.0
 10
15.1689924327
 20
11.3436852892
 30
0.0
 10
15.1941951027
 20
11.3378202452
 30
0.0
 10
15.2194264926
 20
11.3324443002
 30
0.0
 10
15.2446603378
 20
11.3275630507
 30
0.0
 10
15.2698703718
 20
11.3231815776
 30
0.0
 10
15.2950303535
 20
11.3193044415
 30
0.0
 10
15.3201140948
 20
11.3159356786
 30
0.0
 10
15.3450954875
 20
11.3130787952
 30
0.0
 10
15.3699485333
 20
11.3107367665
 30
0.0
 10
15.3946473599
 20
11.3089120292
 30
0.0
 10
15.4191662938
 20
11.3076064879
 30
0.0
 10
15.443479682
 20
11.3068214977
 30
0.0
 10
15.4596189062
 20
11.306644838
 30
0.0
 10
15.4676478999
 20
11.306644838
 30
0.0
  0
SPLINE
  5
36D
100
AcDbEntity
  8
02___PRT_ALL_AXES
100
AcDbSpline
 62
7
  6
CONTINUOUS
 70
0
 71
3
 72
44
 73
40
 74
0
 42
0.0000001
 43
0.0000001
 44
0.0000000001
 40
0.0
 40
0.0
 40
0.0
 40
0.0
 40
0.0123993417
 40
0.0248058637
 40
0.0372267258
 40
0.0496690472
 40
0.0621398854
 40
0.0746462182
 40
0.0871949242
 40
0.0997927642
 40
0.1251597125
 40
0.1508007738
 40
0.1767642593
 40
0.2030952775
 40
0.229835453
 40
0.2570227265
 40
0.2846912306
 40
0.3128712326
 40
0.3271623188
 40
0.3415908547
 40
0.3708692412
 40
0.4007269649
 40
0.4311792604
 40
0.4622378789
 40
0.4939112358
 40
0.5262045677
 40
0.5591200919
 40
0.5926571686
 40
0.6268124602
 40
0.6615800872
 40
0.6969517795
 40
0.7329170217
 40
0.7694631927
 40
0.8065756979
 40
0.8442381002
 40
0.8824322307
 40
0.9211383512
 40
0.9603351051
 40
1.0
 40
1.0
 40
1.0
 40
1.0
 10
15.9918533546
 20
11.5696930914
 30
0.0
 10
15.9910898524
 20
11.5672223996
 30
0.0
 10
15.989489727
 20
11.5623017079
 30
0.0
 10
15.9868727758
 20
11.5549910172
 30
0.0
 10
15.9840394948
 20
11.5477517176
 30
0.0
 10
15.9809907027
 20
11.5405859556
 30
0.0
 10
15.9777272693
 20
11.5334957334
 30
0.0
 10
15.9742501331
 20
11.5264830875
 30
0.0
 10
15.970560238
 20
11.5195499437
 30
0.0
 10
15.9653466503
 20
11.5103941451
 30
0.0
 10
15.9582935661
 20
11.4991500777
 30
0.0
 10
15.9490165278
 20
11.4860395211
 30
0.0
 10
15.9389169622
 20
11.4732940533
 30
0.0
 10
15.9280067451
 20
11.4609283661
 30
0.0
 10
15.9162984507
 20
11.4489562809
 30
0.0
 10
15.9038055217
 20
11.4373912036
 30
0.0
 10
15.8905424358
 20
11.4262461695
 30
0.0
 10
15.8789152812
 20
11.4173607723
 30
0.0
 10
15.8692510918
 20
11.4104728103
 30
0.0
 10
15.8592490178
 20
11.4036691333
 30
0.0
 10
15.8462865456
 20
11.3954522479
 30
0.0
 10
15.8301019038
 20
11.3861063264
 30
0.0
 10
15.8132305672
 20
11.3772373705
 30
0.0
 10
15.7956918003
 20
11.3688553841
 30
0.0
 10
15.7775053566
 20
11.3609696704
 30
0.0
 10
15.7586917762
 20
11.3535890318
 30
0.0
 10
15.7392722799
 20
11.3467217009
 30
0.0
 10
15.7192687713
 20
11.3403753472
 30
0.0
 10
15.6987038079
 20
11.3345570635
 30
0.0
 10
15.6776005795
 20
11.3292733579
 30
0.0
 10
15.6559828826
 20
11.3245301452
 30
0.0
 10
15.6338750956
 20
11.3203327386
 30
0.0
 10
15.6113021511
 20
11.3166858431
 30
0.0
 10
15.5882895105
 20
11.3135935473
 30
0.0
 10
15.5648631315
 20
11.3110593203
 30
0.0
 10
15.54104945
 20
11.3090860031
 30
0.0
 10
15.5168753065
 20
11.3076758145
 30
0.0
 10
15.4923681249
 20
11.3068303275
 30
0.0
 10
15.475920301
 20
11.306644838
 30
0.0
 10
15.4676478999
 20
11.306644838
 30
0.0
  0
SPLINE
  5
36E
100
AcDbEntity
  8
LAYER_CHAMFER_FEAT
100
AcDbSpline
 62
7
  6
CONTINUOUS
 70
0
 71
3
 72
15
 73
11
 74
0
 42
0.0000001
 43
0.0000001
 44
0.0000000001
 40
0.0
 40
0.0
 40
0.0
 40
0.0
 40
0.131763246
 40
0.2617726251
 40
0.389918871
 40
0.5161209296
 40
0.6402989255
 40
0.7623789514
 40
0.8822974787
 40
1.0
 40
1.0
 40
1.0
 40
1.0
 10
15.1340846187
 20
11.9863753383
 30
0.0
 10
15.1307651269
 20
11.9863753383
 30
0.0
 10
15.1241699926
 20
11.9862916505
 30
0.0
 10
15.1143531488
 20
11.9859097131
 30
0.0
 10
15.1046898423
 20
11.9852726166
 30
0.0
 10
15.0951941648
 20
11.9843813055
 30
0.0
 10
15.0858795299
 20
11.983237078
 30
0.0
 10
15.0767592379
 20
11.9818415042
 30
0.0
 10
15.0678464702
 20
11.9801965987
 30
0.0
 10
15.061995836
 20
11.9789232503
 30
0.0
 10
15.0591093251
 20
11.9782444028
 30
0.0
  0
SPLINE
  5
36F
100
AcDbEntity
  8
LAYER_CHAMFER_FEAT
100
AcDbSpline
 62
7
  6
CONTINUOUS
 70
0
 71
3
 72
39
 73
35
 74
0
 42
0.0000001
 43
0.0000001
 44
0.0000000001
 40
0.0
 40
0.0
 40
0.0
 40
0.0
 40
0.0305397023
 40
0.0614592497
 40
0.0927264804
 40
0.1243126111
 40
0.1561858814
 40
0.1883135653
 40
0.220662362
 40
0.253198073
 40
0.2858858922
 40
0.3186905367
 40
0.3515763197
 40
0.3845072964
 40
0.4174473797
 40
0.4503604447
 40
0.4832104616
 40
0.5159616034
 40
0.5485783586
 40
0.5810256711
 40
0.6132690405
 40
0.6452746409
 40
0.6770094777
 40
0.7084414854
 40
0.7395396507
 40
0.7702741947
 40
0.8006166762
 40
0.8305401211
 40
0.8600192334
 40
0.8890305185
 40
0.9175524226
 40
0.9455655739
 40
0.9730529436
 40
1.0
 40
1.0
 40
1.0
 40
1.0
 10
15.1340846187
 20
11.9863753383
 30
0.0
 10
15.1376734348
 20
11.9863753383
 30
0.0
 10
15.1448960583
 20
11.9862762612
 30
0.0
 10
15.1557849869
 20
11.9858375482
 30
0.0
 10
15.1667816149
 20
11.9851083945
 30
0.0
 10
15.1778677325
 20
11.9840900466
 30
0.0
 10
15.1890254526
 20
11.9827841549
 30
0.0
 10
15.200236556
 20
11.9811928492
 30
0.0
 10
15.211482765
 20
11.9793187112
 30
0.0
 10
15.222745763
 20
11.9771648021
 30
0.0
 10
15.2340071952
 20
11.974734645
 30
0.0
 10
15.2452487037
 20
11.9720321803
 30
0.0
 10
15.2564519684
 20
11.9690618162
 30
0.0
 10
15.2675987341
 20
11.9658284111
 30
0.0
 10
15.2786708285
 20
11.9623372173
 30
0.0
 10
15.2896502044
 20
11.9585939221
 30
0.0
 10
15.3005189739
 20
11.9546046463
 30
0.0
 10
15.3112594186
 20
11.9503758788
 30
0.0
 10
15.3218540296
 20
11.9459145016
 30
0.0
 10
15.33228555
 20
11.9412278072
 30
0.0
 10
15.3425369768
 20
11.9363234248
 30
0.0
 10
15.3525915969
 20
11.9312093305
 30
0.0
 10
15.3624330379
 20
11.9258938783
 30
0.0
 10
15.3720452637
 20
11.9203857246
 30
0.0
 10
15.3814126023
 20
11.9146938218
 30
0.0
 10
15.3905198059
 20
11.9088274594
 30
0.0
 10
15.3993520416
 20
11.9027961908
 30
0.0
 10
15.407894909
 20
11.8966098122
 30
0.0
 10
15.4161345059
 20
11.8902784074
 30
0.0
 10
15.4240574226
 20
11.8838122798
 30
0.0
 10
15.4316507321
 20
11.8772219325
 30
0.0
 10
15.4389021075
 20
11.8705180538
 30
0.0
 10
15.4457996469
 20
11.8637116683
 30
0.0
 10
15.450199171
 20
11.8590660145
 30
0.0
 10
15.452335301
 20
11.8567283847
 30
0.0
  0
SPLINE
  5
370
100
AcDbEntity
  8
LAYER_FEATURE
100
AcDbSpline
 62
7
  6
CONTINUOUS
 70
0
 71
3
 72
80
 73
76
 74
0
 42
0.0000001
 43
0.0000001
 44
0.0000000001
 40
0.0
 40
0.0
 40
0.0
 40
0.0
 40
0.017178625
 40
0.0345301896
 40
0.0520439856
 40
0.0697095611
 40
0.0875157513
 40
0.105451206
 40
0.1235042502
 40
0.1416629551
 40
0.159915164
 40
0.1782485184
 40
0.1966504877
 40
0.2151083967
 40
0.2336094524
 40
0.2521407721
 40
0.2706894106
 40
0.2892423869
 40
0.3077867108
 40
0.3263094099
 40
0.3447975567
 40
0.3632382956
 40
0.3816188701
 40
0.3999266497
 40
0.4181491573
 40
0.4362740982
 40
0.4542893881
 40
0.4721831821
 40
0.4899439035
 40
0.5075602738
 40
0.5250213437
 40
0.5423165259
 40
0.5594356272
 40
0.5763688815
 40
0.5931069843
 40
0.6096411291
 40
0.6259630453
 40
0.6420650388
 40
0.6579400309
 40
0.673581601
 40
0.6889840307
 40
0.7041423508
 40
0.7190523912
 40
0.7337108317
 40
0.7481152531
 40
0.7622641923
 40
0.7761571984
 40
0.7897948916
 40
0.8031790229
 40
0.8163125314
 40
0.8291996012
 40
0.8418457167
 40
0.8542577138
 40
0.8603787793
 40
0.8664445248
 40
0.8784144197
 40
0.8901792221
 40
0.8959889949
 40
0.9017523402
 40
0.9131461931
 40
0.9243770779
 40
0.9299370835
 40
0.935462781
 40
0.9409564793
 40
0.9464205592
 40
0.9518574755
 40
0.9572697442
 40
0.9626599452
 40
0.9680307112
 40
0.9733847242
 40
0.9787247102
 40
0.9840534294
 40
0.9893736733
 40
0.9946882542
 40
1.0
 40
1.0
 40
1.0
 40
1.0
 10
15.1847965775
 20
13.7149651478
 30
0.0
 10
15.1973480403
 20
13.7149651478
 30
0.0
 10
15.2225781289
 20
13.7146889691
 30
0.0
 10
15.26058664
 20
13.713461834
 30
0.0
 10
15.298916555
 20
13.7114208901
 30
0.0
 10
15.337527588
 20
13.7085683389
 30
0.0
 10
15.3763797559
 20
13.7049071003
 30
0.0
 10
15.4154325504
 20
13.700441007
 30
0.0
 10
15.4546453474
 20
13.6951746989
 30
0.0
 10
15.4939773287
 20
13.6891136648
 30
0.0
 10
15.5333875553
 20
13.6822642154
 30
0.0
 10
15.5728350057
 20
13.67463348
 30
0.0
 10
15.6122786181
 20
13.6662294003
 30
0.0
 10
15.6516773327
 20
13.6570607201
 30
0.0
 10
15.6909901371
 20
13.6471369862
 30
0.0
 10
15.7301761079
 20
13.6364685321
 30
0.0
 10
15.7691944531
 20
13.6250664642
 30
0.0
 10
15.8080045551
 20
13.6129426513
 30
0.0
 10
15.8465660116
 20
13.6001097115
 30
0.0
 10
15.8848386792
 20
13.586581001
 30
0.0
 10
15.9227827177
 20
13.5723706074
 30
0.0
 10
15.9603586294
 20
13.557493325
 30
0.0
 10
15.9975272995
 20
13.5419646405
 30
0.0
 10
16.0342500369
 20
13.5258007173
 30
0.0
 10
16.0704886142
 20
13.5090183768
 30
0.0
 10
16.1062053107
 20
13.4916350876
 30
0.0
 10
16.1413629523
 20
13.4736689461
 30
0.0
 10
16.1759249469
 20
13.4551386515
 30
0.0
 10
16.2098553229
 20
13.4360634879
 30
0.0
 10
16.2431187656
 20
13.4164633037
 30
0.0
 10
16.2756806549
 20
13.3963584897
 30
0.0
 10
16.3075071071
 20
13.3757699668
 30
0.0
 10
16.3385650055
 20
13.354719155
 30
0.0
 10
16.3688220335
 20
13.3332279509
 30
0.0
 10
16.3982467078
 20
13.3113187053
 30
0.0
 10
16.4268084101
 20
13.2890141979
 30
0.0
 10
16.4544774223
 20
13.2663376163
 30
0.0
 10
16.4812249616
 20
13.2433125347
 30
0.0
 10
16.5070232022
 20
13.2199628815
 30
0.0
 10
16.5318453042
 20
13.1963129152
 30
0.0
 10
16.5556654401
 20
13.1723871992
 30
0.0
 10
16.5784588196
 20
13.1482105732
 30
0.0
 10
16.6002017235
 20
13.1238081341
 30
0.0
 10
16.6208715229
 20
13.0992052048
 30
0.0
 10
16.6404466962
 20
13.0744273053
 30
0.0
 10
16.6589068494
 20
13.0495001276
 30
0.0
 10
16.6762327343
 20
13.024449508
 30
0.0
 10
16.6924062663
 20
12.9993014033
 30
0.0
 10
16.7074105545
 20
12.9740818607
 30
0.0
 10
16.7212298903
 20
12.9488170229
 30
0.0
 10
16.733849812
 20
12.9235329678
 30
0.0
 10
16.7452569248
 20
12.8982561898
 30
0.0
 10
16.7537814046
 20
12.8771226843
 30
0.0
 10
16.7599736568
 20
12.8602488248
 30
0.0
 10
16.7656983763
 20
12.8435518265
 30
0.0
 10
16.7720879808
 20
12.8227290903
 30
0.0
 10
16.7774839517
 20
12.8018194586
 30
0.0
 10
16.7811614197
 20
12.7851675603
 30
0.0
 10
16.7843902585
 20
12.768699053
 30
0.0
 10
16.7876459496
 20
12.7482057357
 30
0.0
 10
16.7898625793
 20
12.7277229054
 30
0.0
 10
16.7909921981
 20
12.7114550645
 30
0.0
 10
16.7915183229
 20
12.6993514273
 30
0.0
 10
16.7917259733
 20
12.6873082816
 30
0.0
 10
16.7916150494
 20
12.6753286863
 30
0.0
 10
16.7911856347
 20
12.6634157937
 30
0.0
 10
16.7904377682
 20
12.6515727118
 30
0.0
 10
16.7893716814
 20
12.6398025373
 30
0.0
 10
16.7879876368
 20
12.6281083465
 30
0.0
 10
16.7862859609
 20
12.6164932037
 30
0.0
 10
16.7842671504
 20
12.6049601367
 30
0.0
 10
16.7819316612
 20
12.5935121836
 30
0.0
 10
16.7792801514
 20
12.5821522983
 30
0.0
 10
16.7763133169
 20
12.570883576
 30
0.0
 10
16.7741254387
 20
12.5634328871
 30
0.0
 10
16.7729795864
 20
12.5597249018
 30
0.0
  0
SPLINE
  5
371
100
AcDbEntity
  8
LAYER_FEATURE
100
AcDbSpline
 62
7
  6
CONTINUOUS
 70
0
 71
3
 72
50
 73
46
 74
0
 42
0.0000001
 43
0.0000001
 44
0.0000000001
 40
0.0
 40
0.0
 40
0.0
 40
0.0
 40
0.0396641793
 40
0.0788606661
 40
0.1175661307
 40
0.1557597858
 40
0.1934216622
 40
0.2305336657
 40
0.2670793388
 40
0.3030440904
 40
0.3384152998
 40
0.3731824522
 40
0.4073372782
 40
0.4408738985
 40
0.4737889752
 40
0.5060818677
 40
0.5377547925
 40
0.5688129867
 40
0.5992648666
 40
0.6291221833
 40
0.6584001714
 40
0.6728285106
 40
0.6871194029
 40
0.7152990215
 40
0.7429671481
 40
0.7566197094
 40
0.7701560775
 40
0.7835806402
 40
0.7968980187
 40
0.8101130807
 40
0.8232309096
 40
0.8362568292
 40
0.8491963692
 40
0.8620552768
 40
0.874839498
 40
0.8875551653
 40
0.9002085963
 40
0.9128062638
 40
0.9253547993
 40
0.9378609614
 40
0.9503316297
 40
0.9627737816
 40
0.9751944743
 40
0.9876008274
 40
1.0
 40
1.0
 40
1.0
 40
1.0
 10
15.0080881614
 20
13.1431365038
 30
0.0
 10
14.995156177
 20
13.1431365038
 30
0.0
 10
14.9694436682
 20
13.1428465231
 30
0.0
 10
14.9311322044
 20
13.1415248142
 30
0.0
 10
14.8933413012
 20
13.139320278
 30
0.0
 10
14.8561139883
 20
13.1362354533
 30
0.0
 10
14.8194920942
 20
13.1322737532
 30
0.0
 10
14.7835170008
 20
13.1274396472
 30
0.0
 10
14.74822927
 20
13.1217385453
 30
0.0
 10
14.7136687102
 20
13.1151768417
 30
0.0
 10
14.6798742969
 20
13.1077618922
 30
0.0
 10
14.6468841393
 20
13.0995020041
 30
0.0
 10
14.6147354374
 20
13.0904064242
 30
0.0
 10
14.583464443
 20
13.0804853264
 30
0.0
 10
14.5531064202
 20
13.0697497983
 30
0.0
 10
14.5236956114
 20
13.0582118284
 30
0.0
 10
14.4952651915
 20
13.0458842847
 30
0.0
 10
14.4678472697
 20
13.0327809298
 30
0.0
 10
14.4414727245
 20
13.0189163078
 30
0.0
 10
14.416171673
 20
13.004306059
 30
0.0
 10
14.3959077539
 20
12.9914608035
 30
0.0
 10
14.3802717641
 20
12.9808247862
 30
0.0
 10
14.3651639471
 20
12.9700569853
 30
0.0
 10
14.3469876823
 20
12.9561668298
 30
0.0
 10
14.3296327582
 20
12.9415833481
 30
0.0
 10
14.3163637535
 20
12.9295885466
 30
0.0
 10
14.3067596199
 20
12.9204707286
 30
0.0
 10
14.2974622832
 20
12.9111943999
 30
0.0
 10
14.2884743493
 20
12.9017620948
 30
0.0
 10
14.2797983418
 20
12.8921765313
 30
0.0
 10
14.271436774
 20
12.8824403596
 30
0.0
 10
14.2633919735
 20
12.8725563749
 30
0.0
 10
14.2556662644
 20
12.8625273355
 30
0.0
 10
14.2482618299
 20
12.8523560889
 30
0.0
 10
14.2411807669
 20
12.8420455166
 30
0.0
 10
14.2344251285
 20
12.8315985105
 30
0.0
 10
14.2279967838
 20
12.8210180633
 30
0.0
 10
14.2218976297
 20
12.8103071304
 30
0.0
 10
14.2161293441
 20
12.7994687824
 30
0.0
 10
14.2106936149
 20
12.7885060668
 30
0.0
 10
14.2055919739
 20
12.7774221006
 30
0.0
 10
14.2008258646
 20
12.7662200425
 30
0.0
 10
14.1963966768
 20
12.7549030195
 30
0.0
 10
14.1923056489
 20
12.7434744008
 30
0.0
 10
14.189804218
 20
12.7357820024
 30
0.0
 10
14.1886106564
 20
12.7319196297
 30
0.0
  0
SPLINE
  5
372
100
AcDbEntity
  8
LAYER_FEATURE
100
AcDbSpline
 62
7
  6
CONTINUOUS
 70
0
 71
3
 72
50
 73
46
 74
0
 42
0.0000001
 43
0.0000001
 44
0.0000000001
 40
0.0
 40
0.0
 40
0.0
 40
0.0
 40
0.0396641793
 40
0.0788606661
 40
0.1175661307
 40
0.1557597858
 40
0.1934216622
 40
0.2305336657
 40
0.2670793388
 40
0.3030440904
 40
0.3384152998
 40
0.3731824522
 40
0.4073372782
 40
0.4408738985
 40
0.4737889752
 40
0.5060818677
 40
0.5377547925
 40
0.5688129867
 40
0.5992648666
 40
0.6291221833
 40
0.6584001714
 40
0.6728285106
 40
0.6871194029
 40
0.7152990215
 40
0.7429671481
 40
0.7566197094
 40
0.7701560775
 40
0.7835806402
 40
0.7968980187
 40
0.8101130807
 40
0.8232309096
 40
0.8362568292
 40
0.8491963692
 40
0.8620552768
 40
0.874839498
 40
0.8875551653
 40
0.9002085963
 40
0.9128062638
 40
0.9253547993
 40
0.9378609614
 40
0.9503316297
 40
0.9627737816
 40
0.9751944743
 40
0.9876008274
 40
1.0
 40
1.0
 40
1.0
 40
1.0
 10
15.1847965775
 20
13.7149651478
 30
0.0
 10
15.1718645931
 20
13.7149651478
 30
0.0
 10
15.1461520843
 20
13.7146751671
 30
0.0
 10
15.1078406205
 20
13.7133534582
 30
0.0
 10
15.0700497173
 20
13.711148922
 30
0.0
 10
15.0328224044
 20
13.7080640973
 30
0.0
 10
14.9962005102
 20
13.7041023972
 30
0.0
 10
14.9602254169
 20
13.6992682912
 30
0.0
 10
14.9249376861
 20
13.6935671894
 30
0.0
 10
14.8903771263
 20
13.6870054857
 30
0.0
 10
14.856582713
 20
13.6795905362
 30
0.0
 10
14.8235925553
 20
13.6713306481
 30
0.0
 10
14.7914438535
 20
13.6622350682
 30
0.0
 10
14.7601728591
 20
13.6523139704
 30
0.0
 10
14.7298148363
 20
13.6415784423
 30
0.0
 10
14.7004040275
 20
13.6300404724
 30
0.0
 10
14.6719736076
 20
13.6177129287
 30
0.0
 10
14.6445556858
 20
13.6046095738
 30
0.0
 10
14.6181811406
 20
13.5907449518
 30
0.0
 10
14.5928800891
 20
13.576134703
 30
0.0
 10
14.57261617
 20
13.5632894475
 30
0.0
 10
14.5569801802
 20
13.5526534302
 30
0.0
 10
14.5418723632
 20
13.5418856294
 30
0.0
 10
14.5236960984
 20
13.5279954738
 30
0.0
 10
14.5063411743
 20
13.5134119922
 30
0.0
 10
14.4930721696
 20
13.5014171906
 30
0.0
 10
14.483468036
 20
13.4922993726
 30
0.0
 10
14.4741706993
 20
13.483023044
 30
0.0
 10
14.4651827654
 20
13.4735907389
 30
0.0
 10
14.4565067579
 20
13.4640051753
 30
0.0
 10
14.4481451901
 20
13.4542690036
 30
0.0
 10
14.4401003896
 20
13.444385019
 30
0.0
 10
14.4323746805
 20
13.4343559796
 30
0.0
 10
14.424970246
 20
13.4241847329
 30
0.0
 10
14.417889183
 20
13.4138741606
 30
0.0
 10
14.4111335446
 20
13.4034271545
 30
0.0
 10
14.4047051999
 20
13.3928467074
 30
0.0
 10
14.3986060458
 20
13.3821357745
 30
0.0
 10
14.3928377602
 20
13.3712974264
 30
0.0
 10
14.387402031
 20
13.3603347109
 30
0.0
 10
14.38230039
 20
13.3492507447
 30
0.0
 10
14.3775342807
 20
13.3380486865
 30
0.0
 10
14.3731050929
 20
13.3267316636
 30
0.0
 10
14.369014065
 20
13.3153030448
 30
0.0
 10
14.3665126341
 20
13.3076106464
 30
0.0
 10
14.3653190725
 20
13.3037482737
 30
0.0
  0
SPLINE
  5
373
100
AcDbEntity
  8
LAYER_FEATURE
100
AcDbSpline
 62
7
  6
CONTINUOUS
 70
0
 71
3
 72
80
 73
76
 74
0
 42
0.0000001
 43
0.0000001
 44
0.0000000001
 40
0.0
 40
0.0
 40
0.0
 40
0.0
 40
0.017178625
 40
0.0345301896
 40
0.0520439856
 40
0.0697095611
 40
0.0875157513
 40
0.105451206
 40
0.1235042502
 40
0.1416629551
 40
0.159915164
 40
0.1782485184
 40
0.1966504877
 40
0.2151083967
 40
0.2336094524
 40
0.2521407721
 40
0.2706894106
 40
0.2892423869
 40
0.3077867108
 40
0.3263094099
 40
0.3447975567
 40
0.3632382956
 40
0.3816188701
 40
0.3999266497
 40
0.4181491573
 40
0.4362740982
 40
0.4542893881
 40
0.4721831821
 40
0.4899439035
 40
0.5075602738
 40
0.5250213437
 40
0.5423165259
 40
0.5594356272
 40
0.5763688815
 40
0.5931069843
 40
0.6096411291
 40
0.6259630453
 40
0.6420650388
 40
0.6579400309
 40
0.673581601
 40
0.6889840307
 40
0.7041423508
 40
0.7190523912
 40
0.7337108317
 40
0.7481152531
 40
0.7622641923
 40
0.7761571984
 40
0.7897948916
 40
0.8031790229
 40
0.8163125314
 40
0.8291996012
 40
0.8418457167
 40
0.8542577138
 40
0.8603787793
 40
0.8664445248
 40
0.8784144197
 40
0.8901792221
 40
0.8959889949
 40
0.9017523402
 40
0.9131461931
 40
0.9243770779
 40
0.9299370835
 40
0.935462781
 40
0.9409564793
 40
0.9464205592
 40
0.9518574755
 40
0.9572697442
 40
0.9626599452
 40
0.9680307112
 40
0.9733847242
 40
0.9787247102
 40
0.9840534294
 40
0.9893736733
 40
0.9946882542
 40
1.0
 40
1.0
 40
1.0
 40
1.0
 10
15.0080881614
 20
13.1431365038
 30
0.0
 10
15.0206396242
 20
13.1431365038
 30
0.0
 10
15.0458697128
 20
13.1428603251
 30
0.0
 10
15.0838782239
 20
13.14163319
 30
0.0
 10
15.1222081389
 20
13.1395922461
 30
0.0
 10
15.1608191719
 20
13.1367396949
 30
0.0
 10
15.1996713398
 20
13.1330784562
 30
0.0
 10
15.2387241343
 20
13.1286123629
 30
0.0
 10
15.2779369314
 20
13.1233460549
 30
0.0
 10
15.3172689126
 20
13.1172850208
 30
0.0
 10
15.3566791392
 20
13.1104355714
 30
0.0
 10
15.3961265896
 20
13.102804836
 30
0.0
 10
15.435570202
 20
13.0944007563
 30
0.0
 10
15.4749689167
 20
13.0852320761
 30
0.0
 10
15.514281721
 20
13.0753083422
 30
0.0
 10
15.5534676918
 20
13.0646398881
 30
0.0
 10
15.592486037
 20
13.0532378202
 30
0.0
 10
15.631296139
 20
13.0411140072
 30
0.0
 10
15.6698575955
 20
13.0282810674
 30
0.0
 10
15.7081302631
 20
13.014752357
 30
0.0
 10
15.7460743017
 20
13.0005419634
 30
0.0
 10
15.7836502133
 20
12.9856646809
 30
0.0
 10
15.8208188834
 20
12.9701359964
 30
0.0
 10
15.8575416209
 20
12.9539720732
 30
0.0
 10
15.8937801981
 20
12.9371897327
 30
0.0
 10
15.9294968946
 20
12.9198064436
 30
0.0
 10
15.9646545362
 20
12.9018403021
 30
0.0
 10
15.9992165308
 20
12.8833100075
 30
0.0
 10
16.0331469068
 20
12.8642348439
 30
0.0
 10
16.0664103495
 20
12.8446346596
 30
0.0
 10
16.0989722389
 20
12.8245298457
 30
0.0
 10
16.130798691
 20
12.8039413227
 30
0.0
 10
16.1618565894
 20
12.7828905109
 30
0.0
 10
16.1921136174
 20
12.7613993069
 30
0.0
 10
16.2215382917
 20
12.7394900613
 30
0.0
 10
16.250099994
 20
12.7171855539
 30
0.0
 10
16.2777690062
 20
12.6945089723
 30
0.0
 10
16.3045165455
 20
12.6714838907
 30
0.0
 10
16.3303147861
 20
12.6481342375
 30
0.0
 10
16.3551368881
 20
12.6244842712
 30
0.0
 10
16.378957024
 20
12.6005585552
 30
0.0
 10
16.4017504035
 20
12.5763819292
 30
0.0
 10
16.4234933074
 20
12.55197949
 30
0.0
 10
16.4441631068
 20
12.5273765608
 30
0.0
 10
16.4637382801
 20
12.5025986612
 30
0.0
 10
16.4821984333
 20
12.4776714835
 30
0.0
 10
16.4995243182
 20
12.452620864
 30
0.0
 10
16.5156978502
 20
12.4274727593
 30
0.0
 10
16.5307021385
 20
12.4022532166
 30
0.0
 10
16.5445214742
 20
12.3769883789
 30
0.0
 10
16.5571413959
 20
12.3517043238
 30
0.0
 10
16.5685485087
 20
12.3264275458
 30
0.0
 10
16.5770729885
 20
12.3052940402
 30
0.0
 10
16.5832652407
 20
12.2884201807
 30
0.0
 10
16.5889899602
 20
12.2717231824
 30
0.0
 10
16.5953795647
 20
12.2509004463
 30
0.0
 10
16.6007755356
 20
12.2299908146
 30
0.0
 10
16.6044530037
 20
12.2133389163
 30
0.0
 10
16.6076818424
 20
12.196870409
 30
0.0
 10
16.6109375336
 20
12.1763770917
 30
0.0
 10
16.6131541632
 20
12.1558942613
 30
0.0
 10
16.614283782
 20
12.1396264204
 30
0.0
 10
16.6148099068
 20
12.1275227833
 30
0.0
 10
16.6150175572
 20
12.1154796376
 30
0.0
 10
16.6149066333
 20
12.1035000423
 30
0.0
 10
16.6144772186
 20
12.0915871497
 30
0.0
 10
16.6137293521
 20
12.0797440677
 30
0.0
 10
16.6126632653
 20
12.0679738933
 30
0.0
 10
16.6112792207
 20
12.0562797025
 30
0.0
 10
16.6095775448
 20
12.0446645597
 30
0.0
 10
16.6075587343
 20
12.0331314926
 30
0.0
 10
16.6052232451
 20
12.0216835395
 30
0.0
 10
16.6025717354
 20
12.0103236543
 30
0.0
 10
16.5996049008
 20
11.999054932
 30
0.0
 10
16.5974170226
 20
11.991604243
 30
0.0
 10
16.5962711703
 20
11.9878962578
 30
0.0
  0
SPLINE
  5
374
100
AcDbEntity
  8
02___PRT_ALL_AXES
100
AcDbSpline
 62
7
  6
CONTINUOUS
 70
0
 71
3
 72
44
 73
40
 74
0
 42
0.0000001
 43
0.0000001
 44
0.0000000001
 40
0.0
 40
0.0
 40
0.0
 40
0.0
 40
0.0396648949
 40
0.0788616488
 40
0.1175677693
 40
0.1557618998
 40
0.1934243021
 40
0.2305368073
 40
0.2670829783
 40
0.3030482205
 40
0.3384199128
 40
0.3731875398
 40
0.4073428314
 40
0.4408799081
 40
0.4737954323
 40
0.5060887642
 40
0.5377621211
 40
0.5688207396
 40
0.5992730351
 40
0.6291307588
 40
0.6584091453
 40
0.6728376812
 40
0.6871287674
 40
0.7153087694
 40
0.7429772735
 40
0.770164547
 40
0.7969047225
 40
0.8232357407
 40
0.8491992262
 40
0.8748402875
 40
0.9002072358
 40
0.9128050758
 40
0.9253537818
 40
0.9378601146
 40
0.9503309528
 40
0.9627732742
 40
0.9751941363
 40
0.9876006583
 40
1.0
 40
1.0
 40
1.0
 40
1.0
 10
14.9759204109
 20
12.3086801069
 30
0.0
 10
14.9676480097
 20
12.3086801069
 30
0.0
 10
14.9512001858
 20
12.3084946174
 30
0.0
 10
14.9266930042
 20
12.3076491304
 30
0.0
 10
14.9025188608
 20
12.3062389418
 30
0.0
 10
14.8787051792
 20
12.3042656246
 30
0.0
 10
14.8552788002
 20
12.3017313976
 30
0.0
 10
14.8322661596
 20
12.2986391018
 30
0.0
 10
14.8096932152
 20
12.2949922063
 30
0.0
 10
14.7875854281
 20
12.2907947997
 30
0.0
 10
14.7659677312
 20
12.286051587
 30
0.0
 10
14.7448645028
 20
12.2807678814
 30
0.0
 10
14.7242995394
 20
12.2749495977
 30
0.0
 10
14.7042960308
 20
12.268603244
 30
0.0
 10
14.6848765345
 20
12.2617359131
 30
0.0
 10
14.6660629542
 20
12.2543552745
 30
0.0
 10
14.6478765104
 20
12.2464695608
 30
0.0
 10
14.6303377435
 20
12.2380875744
 30
0.0
 10
14.6134664069
 20
12.2292186185
 30
0.0
 10
14.5972817651
 20
12.219872697
 30
0.0
 10
14.5843192929
 20
12.2116558116
 30
0.0
 10
14.5743172189
 20
12.2048521346
 30
0.0
 10
14.5646530295
 20
12.1979641726
 30
0.0
 10
14.5530258749
 20
12.1890787754
 30
0.0
 10
14.539762789
 20
12.1779337413
 30
0.0
 10
14.52726986
 20
12.166368664
 30
0.0
 10
14.5155615656
 20
12.1543965788
 30
0.0
 10
14.5046513485
 20
12.1420308916
 30
0.0
 10
14.4945517829
 20
12.1292854238
 30
0.0
 10
14.4852747446
 20
12.1161748672
 30
0.0
 10
14.4782216604
 20
12.1049307998
 30
0.0
 10
14.4730080728
 20
12.0957750012
 30
0.0
 10
14.4693181776
 20
12.0888418574
 30
0.0
 10
14.4658410415
 20
12.0818292115
 30
0.0
 10
14.462577608
 20
12.0747389893
 30
0.0
 10
14.459528816
 20
12.0675732273
 30
0.0
 10
14.4566955349
 20
12.0603339277
 30
0.0
 10
14.4540785837
 20
12.053023237
 30
0.0
 10
14.4524784583
 20
12.0481025453
 30
0.0
 10
14.4517149562
 20
12.0456318535
 30
0.0
  0
SPLINE
  5
375
100
AcDbEntity
  8
LAYER_FEATURE
100
AcDbSpline
 62
7
  6
CONTINUOUS
 70
0
 71
3
 72
80
 73
76
 74
0
 42
0.0000001
 43
0.0000001
 44
0.0000000001
 40
0.0
 40
0.0
 40
0.0
 40
0.0
 40
0.005354095
 40
0.0107128794
 40
0.016081022
 40
0.0214631515
 40
0.026863837
 40
0.0322875689
 40
0.0377387416
 40
0.0432216369
 40
0.0487404093
 40
0.054299072
 40
0.0599014848
 40
0.0655513445
 40
0.0712521748
 40
0.0770073207
 40
0.0828199409
 40
0.0886930059
 40
0.100630124
 40
0.1128399036
 40
0.1190529642
 40
0.125340226
 40
0.1381426333
 40
0.1512590077
 40
0.1646973085
 40
0.1784628141
 40
0.1925582767
 40
0.2069840815
 40
0.2217384053
 40
0.2368173707
 40
0.2522151958
 40
0.2679243362
 40
0.2839356199
 40
0.3002383757
 40
0.3168205532
 40
0.3336688375
 40
0.350768757
 40
0.3681047856
 40
0.3856604408
 40
0.4034183763
 40
0.4213604718
 40
0.4394679185
 40
0.4577213026
 40
0.4761006857
 40
0.4945856837
 40
0.5131555436
 40
0.5317892189
 40
0.5504654444
 40
0.5691628098
 40
0.5878598332
 40
0.6065350335
 40
0.6251670039
 40
0.6437344852
 40
0.6622164391
 40
0.680592123
 40
0.6988411659
 40
0.7169436448
 40
0.734880164
 40
0.7526319353
 40
0.7701808617
 40
0.787509623
 40
0.8046017656
 40
0.8214417956
 40
0.8380152765
 40
0.8543089319
 40
0.8703107538
 40
0.8860101164
 40
0.9013978979
 40
0.9164666077
 40
0.9312105223
 40
0.9456258271
 40
0.9597107683
 40
0.9734657993
 40
0.9868937615
 40
1.0
 40
1.0
 40
1.0
 40
1.0
 10
14.4977836504
 20
12.5977620506
 30
0.0
 10
14.4988614538
 20
12.6012498362
 30
0.0
 10
14.501144306
 20
12.6081901504
 30
0.0
 10
14.5049446095
 20
12.6184772293
 30
0.0
 10
14.5091200418
 20
12.6286386588
 30
0.0
 10
14.5136687128
 20
12.638669896
 30
0.0
 10
14.5185886893
 20
12.6485666645
 30
0.0
 10
14.5238778179
 20
12.6583247061
 30
0.0
 10
14.5295338224
 20
12.6679398263
 30
0.0
 10
14.5355542418
 20
12.6774079058
 30
0.0
 10
14.5419364778
 20
12.6867248823
 30
0.0
 10
14.5486777643
 20
12.69588677
 30
0.0
 10
14.5557751901
 20
12.7048896495
 30
0.0
 10
14.5632256888
 20
12.7137296723
 30
0.0
 10
14.5710260492
 20
12.7224030721
 30
0.0
 10
14.5791728919
 20
12.7309061269
 30
0.0
 10
14.587662786
 20
12.7392352871
 30
0.0
 10
14.5994983159
 20
12.7501625653
 30
0.0
 10
14.6151529708
 20
12.7633681779
 30
0.0
 10
14.6317167134
 20
12.7758016855
 30
0.0
 10
14.6455901539
 20
12.78536377
 30
0.0
 10
14.6600507722
 20
12.7947754055
 30
0.0
 10
14.6789169519
 20
12.8060315604
 30
0.0
 10
14.7026196982
 20
12.8186332789
 30
0.0
 10
14.7274810319
 20
12.8303893546
 30
0.0
 10
14.7534580787
 20
12.8412798499
 30
0.0
 10
14.7805066439
 20
12.8512865915
 30
0.0
 10
14.808580586
 20
12.8603927662
 30
0.0
 10
14.8376320729
 20
12.868583075
 30
0.0
 10
14.8676116008
 20
12.87584373
 30
0.0
 10
14.898468086
 20
12.8821624939
 30
0.0
 10
14.9301489429
 20
12.8875287038
 30
0.0
 10
14.9626001712
 20
12.8919332955
 30
0.0
 10
14.9957664461
 20
12.8953688236
 30
0.0
 10
15.0295912114
 20
12.8978294791
 30
0.0
 10
15.0640167754
 20
12.8993111024
 30
0.0
 10
15.09898441
 20
12.8998111942
 30
0.0
 10
15.134434451
 20
12.8993289221
 30
0.0
 10
15.1703064005
 20
12.8978651245
 30
0.0
 10
15.2065390316
 20
12.8954223107
 30
0.0
 10
15.2430704932
 20
12.8920046582
 30
0.0
 10
15.2798384166
 20
12.8876180069
 30
0.0
 10
15.3167800234
 20
12.8822698498
 30
0.0
 10
15.3538322328
 20
12.8759693212
 30
0.0
 10
15.3909317711
 20
12.8687271815
 30
0.0
 10
15.4280152798
 20
12.8605557991
 30
0.0
 10
15.465019425
 20
12.8514691298
 30
0.0
 10
15.5018810064
 20
12.8414826928
 30
0.0
 10
15.5385370659
 20
12.8306135444
 30
0.0
 10
15.5749249955
 20
12.8188802491
 30
0.0
 10
15.6109826455
 20
12.8063028469
 30
0.0
 10
15.6466484308
 20
12.7929028197
 30
0.0
 10
15.6818614371
 20
12.7787030538
 30
0.0
 10
15.716561525
 20
12.7637278006
 30
0.0
 10
15.7506894338
 20
12.7480026341
 30
0.0
 10
15.784186883
 20
12.7315544076
 30
0.0
 10
15.8169966722
 20
12.7144112057
 30
0.0
 10
15.8490627794
 20
12.6966022967
 30
0.0
 10
15.8803304568
 20
12.6781580804
 30
0.0
 10
15.9107463247
 20
12.6591100359
 30
0.0
 10
15.9402584627
 20
12.6394906655
 30
0.0
 10
15.9688164979
 20
12.619333438
 30
0.0
 10
15.996371691
 20
12.5986727293
 30
0.0
 10
16.0228770185
 20
12.577543762
 30
0.0
 10
16.0482872518
 20
12.555982542
 30
0.0
 10
16.0725590329
 20
12.5340257951
 30
0.0
 10
16.0956509457
 20
12.511710901
 30
0.0
 10
16.1175235829
 20
12.489075827
 30
0.0
 10
16.1381396104
 20
12.4661590583
 30
0.0
 10
16.1574638198
 20
12.4429995377
 30
0.0
 10
16.1754631978
 20
12.4196365686
 30
0.0
 10
16.1921069164
 20
12.3961098505
 30
0.0
 10
16.2073665684
 20
12.3724590406
 30
0.0
 10
16.2212155324
 20
12.3487250246
 30
0.0
 10
16.2295926245
 20
12.3326804324
 30
0.0
 10
16.2335293483
 20
12.3246582328
 30
0.0
  0
SPLINE
  5
376
100
AcDbEntity
  8
LAYER_CUT_FEAT
100
AcDbSpline
 62
7
  6
CONTINUOUS
 70
0
 71
3
 72
80
 73
76
 74
0
 42
0.0000001
 43
0.0000001
 44
0.0000000001
 40
0.0
 40
0.0
 40
0.0
 40
0.0
 40
0.005354095
 40
0.0107128794
 40
0.016081022
 40
0.0214631515
 40
0.026863837
 40
0.0322875689
 40
0.0377387416
 40
0.0432216369
 40
0.0487404093
 40
0.054299072
 40
0.0599014848
 40
0.0655513445
 40
0.0712521748
 40
0.0770073207
 40
0.0828199409
 40
0.0886930059
 40
0.100630124
 40
0.1128399036
 40
0.1190529642
 40
0.125340226
 40
0.1381426333
 40
0.1512590077
 40
0.1646973085
 40
0.1784628141
 40
0.1925582767
 40
0.2069840815
 40
0.2217384053
 40
0.2368173707
 40
0.2522151958
 40
0.2679243362
 40
0.2839356199
 40
0.3002383757
 40
0.3168205532
 40
0.3336688375
 40
0.350768757
 40
0.3681047856
 40
0.3856604408
 40
0.4034183763
 40
0.4213604718
 40
0.4394679185
 40
0.4577213026
 40
0.4761006857
 40
0.4945856837
 40
0.5131555436
 40
0.5317892188
 40
0.5504654443
 40
0.5691628098
 40
0.5878598332
 40
0.6065350334
 40
0.6251670039
 40
0.6437344852
 40
0.662216439
 40
0.680592123
 40
0.6988411658
 40
0.7169436448
 40
0.734880164
 40
0.7526319353
 40
0.7701808617
 40
0.787509623
 40
0.8046017656
 40
0.8214417956
 40
0.8380152765
 40
0.8543089319
 40
0.8703107538
 40
0.8860101164
 40
0.9013978979
 40
0.9164666076
 40
0.9312105223
 40
0.9456258271
 40
0.9597107683
 40
0.9734657993
 40
0.9868937615
 40
1.0
 40
1.0
 40
1.0
 40
1.0
 10
14.4893113291
 20
12.5703456088
 30
0.0
 10
14.4903891325
 20
12.5738333944
 30
0.0
 10
14.4926719846
 20
12.5807737085
 30
0.0
 10
14.4964722882
 20
12.5910607875
 30
0.0
 10
14.5006477205
 20
12.601222217
 30
0.0
 10
14.5051963915
 20
12.6112534542
 30
0.0
 10
14.510116368
 20
12.6211502227
 30
0.0
 10
14.5154054965
 20
12.6309082642
 30
0.0
 10
14.5210615011
 20
12.6405233845
 30
0.0
 10
14.5270819205
 20
12.649991464
 30
0.0
 10
14.5334641565
 20
12.6593084404
 30
0.0
 10
14.540205443
 20
12.6684703281
 30
0.0
 10
14.5473028688
 20
12.6774732077
 30
0.0
 10
14.5547533674
 20
12.6863132304
 30
0.0
 10
14.5625537279
 20
12.6949866303
 30
0.0
 10
14.5707005706
 20
12.703489685
 30
0.0
 10
14.5791904647
 20
12.7118188453
 30
0.0
 10
14.5910259946
 20
12.7227461235
 30
0.0
 10
14.6066806495
 20
12.7359517361
 30
0.0
 10
14.6232443921
 20
12.7483852436
 30
0.0
 10
14.6371178326
 20
12.7579473282
 30
0.0
 10
14.6515784509
 20
12.7673589636
 30
0.0
 10
14.6704446306
 20
12.7786151185
 30
0.0
 10
14.6941473769
 20
12.7912168371
 30
0.0
 10
14.7190087106
 20
12.8029729128
 30
0.0
 10
14.7449857574
 20
12.813863408
 30
0.0
 10
14.7720343226
 20
12.8238701496
 30
0.0
 10
14.8001082647
 20
12.8329763244
 30
0.0
 10
14.8291597515
 20
12.8411666331
 30
0.0
 10
14.8591392795
 20
12.8484272881
 30
0.0
 10
14.8899957647
 20
12.8547460521
 30
0.0
 10
14.9216766215
 20
12.860112262
 30
0.0
 10
14.9541278499
 20
12.8645168537
 30
0.0
 10
14.9872941248
 20
12.8679523818
 30
0.0
 10
15.0211188901
 20
12.8704130372
 30
0.0
 10
15.0555444541
 20
12.8718946605
 30
0.0
 10
15.0905120887
 20
12.8723947524
 30
0.0
 10
15.1259621296
 20
12.8719124803
 30
0.0
 10
15.1618340792
 20
12.8704486827
 30
0.0
 10
15.1980667103
 20
12.8680058689
 30
0.0
 10
15.2345981718
 20
12.8645882164
 30
0.0
 10
15.2713660953
 20
12.8602015651
 30
0.0
 10
15.308307702
 20
12.854853408
 30
0.0
 10
15.3453599115
 20
12.8485528794
 30
0.0
 10
15.3824594497
 20
12.8413107397
 30
0.0
 10
15.4195429584
 20
12.8331393573
 30
0.0
 10
15.4565471036
 20
12.824052688
 30
0.0
 10
15.4934086851
 20
12.8140662509
 30
0.0
 10
15.5300647445
 20
12.8031971026
 30
0.0
 10
15.5664526741
 20
12.7914638072
 30
0.0
 10
15.6025103241
 20
12.7788864051
 30
0.0
 10
15.6381761095
 20
12.7654863779
 30
0.0
 10
15.6733891157
 20
12.751286612
 30
0.0
 10
15.7080892036
 20
12.7363113587
 30
0.0
 10
15.7422171124
 20
12.7205861923
 30
0.0
 10
15.7757145616
 20
12.7041379657
 30
0.0
 10
15.8085243508
 20
12.6869947639
 30
0.0
 10
15.840590458
 20
12.6691858548
 30
0.0
 10
15.8718581354
 20
12.6507416386
 30
0.0
 10
15.9022740034
 20
12.6316935941
 30
0.0
 10
15.9317861413
 20
12.6120742237
 30
0.0
 10
15.9603441765
 20
12.5919169962
 30
0.0
 10
15.9878993696
 20
12.5712562875
 30
0.0
 10
16.0144046971
 20
12.5501273201
 30
0.0
 10
16.0398149305
 20
12.5285661001
 30
0.0
 10
16.0640867116
 20
12.5066093533
 30
0.0
 10
16.0871786244
 20
12.4842944592
 30
0.0
 10
16.1090512616
 20
12.4616593851
 30
0.0
 10
16.1296672891
 20
12.4387426165
 30
0.0
 10
16.1489914985
 20
12.4155830959
 30
0.0
 10
16.1669908764
 20
12.3922201267
 30
0.0
 10
16.1836345951
 20
12.3686934086
 30
0.0
 10
16.1988942471
 20
12.3450425987
 30
0.0
 10
16.2127432111
 20
12.3213085828
 30
0.0
 10
16.2211203032
 20
12.3052639905
 30
0.0
 10
16.2250570269
 20
12.297241791
 30
0.0
  0
SPLINE
  5
377
100
AcDbEntity
  8
LAYER_FEATURE
100
AcDbSpline
 62
7
  6
CONTINUOUS
 70
0
 71
3
 72
20
 73
16
 74
0
 42
0.0000001
 43
0.0000001
 44
0.0000000001
 40
0.0
 40
0.0
 40
0.0
 40
0.0
 40
0.0594411929
 40
0.1190567872
 40
0.1789048902
 40
0.2390419743
 40
0.2995223447
 40
0.360397962
 40
0.4217179764
 40
0.4835285542
 40
0.5458725308
 40
0.6087894852
 40
0.7364569719
 40
0.8667994138
 40
1.0
 40
1.0
 40
1.0
 40
1.0
 10
14.9113357094
 20
12.4677097039
 30
0.0
 10
14.9108603979
 20
12.468940982
 30
0.0
 10
14.9099651337
 20
12.4714294879
 30
0.0
 10
14.9087928649
 20
12.4752263711
 30
0.0
 10
14.9077907884
 20
12.4790877161
 30
0.0
 10
14.9069601177
 20
12.4830091128
 30
0.0
 10
14.9063017011
 20
12.4869861901
 30
0.0
 10
14.9058163073
 20
12.4910144994
 30
0.0
 10
14.9055044291
 20
12.4950895424
 30
0.0
 10
14.9053664134
 20
12.4992067468
 30
0.0
 10
14.9054024002
 20
12.5033615979
 30
0.0
 10
14.9056835827
 20
12.5089719155
 30
0.0
 10
14.9064764135
 20
12.5160620011
 30
0.0
 10
14.9081139283
 20
12.524600713
 30
0.0
 10
14.9096442853
 20
12.5302552122
 30
0.0
 10
14.9105175071
 20
12.5330809592
 30
0.0
  0
SPLINE
  5
378
100
AcDbEntity
  8
02___PRT_ALL_AXES
100
AcDbSpline
 62
7
  6
CONTINUOUS
 70
0
 71
3
 72
44
 73
40
 74
0
 42
0.0000001
 43
0.0000001
 44
0.0000000001
 40
0.0
 40
0.0
 40
0.0
 40
0.0
 40
0.0114783021
 40
0.0230112434
 40
0.0346198727
 40
0.0463243758
 40
0.0581438942
 40
0.0700963594
 40
0.0821982958
 40
0.0944647856
 40
0.10690926
 40
0.1195436073
 40
0.1454154998
 40
0.172147404
 40
0.1997743685
 40
0.2283070112
 40
0.2577339504
 40
0.2880246215
 40
0.3191323849
 40
0.3509976179
 40
0.3835507546
 40
0.4167151197
 40
0.450409429
 40
0.484550013
 40
0.5190526178
 40
0.5538339382
 40
0.5888127465
 40
0.6239108396
 40
0.659053685
 40
0.6941709785
 40
0.7291970214
 40
0.7640710866
 40
0.7987376893
 40
0.833146884
 40
0.8672545056
 40
0.9010223835
 40
0.9344186605
 40
0.967417484
 40
1.0
 40
1.0
 40
1.0
 40
1.0
 10
14.9078429087
 20
12.4740788103
 30
0.0
 10
14.9073087848
 20
12.4751672478
 30
0.0
 10
14.9062942357
 20
12.4773774127
 30
0.0
 10
14.9049404851
 20
12.4807760535
 30
0.0
 10
14.9037530529
 20
12.4842616394
 30
0.0
 10
14.9027329367
 20
12.4878312372
 30
0.0
 10
14.9018809088
 20
12.4914819111
 30
0.0
 10
14.901197615
 20
12.4952105286
 30
0.0
 10
14.9006834978
 20
12.4990138099
 30
0.0
 10
14.9003388946
 20
12.5028882866
 30
0.0
 10
14.9001639058
 20
12.5068304101
 30
0.0
 10
14.9001566816
 20
12.5122136083
 30
0.0
 10
14.9005816247
 20
12.5190997422
 30
0.0
 10
14.901761703
 20
12.5274995999
 30
0.0
 10
14.9036086323
 20
12.5360657076
 30
0.0
 10
14.9061125603
 20
12.5447591416
 30
0.0
 10
14.9092609859
 20
12.5535393818
 30
0.0
 10
14.9130388368
 20
12.5623638963
 30
0.0
 10
14.9174285837
 20
12.5711887299
 30
0.0
 10
14.9224104105
 20
12.5799688726
 30
0.0
 10
14.9279624189
 20
12.5886587051
 30
0.0
 10
14.9340608452
 20
12.5972124025
 30
0.0
 10
14.9406802673
 20
12.6055843022
 30
0.0
 10
14.9477937775
 20
12.6137292182
 30
0.0
 10
14.9553731138
 20
12.6216027082
 30
0.0
 10
14.9633887277
 20
12.6291612949
 30
0.0
 10
14.9718098033
 20
12.6363626603
 30
0.0
 10
14.9806042126
 20
12.643165825
 30
0.0
 10
14.9897384378
 20
12.6495313345
 30
0.0
 10
14.9991774564
 20
12.6554214655
 30
0.0
 10
15.0088846241
 20
12.6608004682
 30
0.0
 10
15.0188215636
 20
12.6656348479
 30
0.0
 10
15.0289480904
 20
12.6698936945
 30
0.0
 10
15.0392221819
 20
12.6735490466
 30
0.0
 10
15.049600041
 20
12.6765762796
 30
0.0
 10
15.0600361525
 20
12.6789545191
 30
0.0
 10
15.0704837424
 20
12.6806669796
 30
0.0
 10
15.0808941128
 20
12.6817013827
 30
0.0
 10
15.0878233906
 20
12.6819353793
 30
0.0
 10
15.091265014
 20
12.6819353793
 30
0.0
  0
SPLINE
  5
379
100
AcDbEntity
  8
LAYER_FEATURE
100
AcDbSpline
 62
7
  6
CONTINUOUS
 70
0
 71
3
 72
14
 73
10
 74
0
 42
0.0000001
 43
0.0000001
 44
0.0000000001
 40
0.0
 40
0.0
 40
0.0
 40
0.0
 40
0.2473520309
 40
0.372526637
 40
0.4982519028
 40
0.6241951415
 40
0.7500192656
 40
0.8754053807
 40
1.0
 40
1.0
 40
1.0
 40
1.0
 10
16.4794923356
 20
12.7732591943
 30
0.0
 10
16.4812517395
 20
12.7723647459
 30
0.0
 10
16.4839545212
 20
12.7711187534
 30
0.0
 10
16.4876510167
 20
12.7696535805
 30
0.0
 10
16.4904853424
 20
12.7686472078
 30
0.0
 10
16.4933588834
 20
12.7677418893
 30
0.0
 10
16.4962605208
 20
12.7669411023
 30
0.0
 10
16.4991786663
 20
12.7662480913
 30
0.0
 10
16.5011354037
 20
12.7658581173
 30
0.0
 10
16.5021138588
 20
12.7656819603
 30
0.0
  0
LINE
  5
37A
100
AcDbEntity
  8
LAYER_FEATURE
100
AcDbLine
 62
7
  6
CONTINUOUS
 10
16.4418440777
 20
12.9256185529
 11
16.4421108166
 21
12.9274835611
  0
SPLINE
  5
37B
100
AcDbEntity
  8
LAYER_FEATURE
100
AcDbSpline
 62
7
  6
CONTINUOUS
 70
0
 71
3
 72
15
 73
11
 74
0
 42
0.0000001
 43
0.0000001
 44
0.0000000001
 40
0.0
 40
0.0
 40
0.0
 40
0.0
 40
0.119812568
 40
0.2429158496
 40
0.3684548958
 40
0.4955174767
 40
0.6231565477
 40
0.7504129517
 40
0.8763328238
 40
1.0
 40
1.0
 40
1.0
 40
1.0
 10
16.4253837349
 20
12.8724199011
 30
0.0
 10
16.426700623
 20
12.8715302278
 30
0.0
 10
16.4294363352
 20
12.8698221245
 30
0.0
 10
16.4337478787
 20
12.8675137879
 30
0.0
 10
16.4382848865
 20
12.865444019
 30
0.0
 10
16.4429967077
 20
12.8636359888
 30
0.0
 10
16.4478310444
 20
12.8621097261
 30
0.0
 10
16.4527341986
 20
12.8608822209
 30
0.0
 10
16.457651425
 20
12.8599670972
 30
0.0
 10
16.4609406079
 20
12.8595674734
 30
0.0
 10
16.4625747048
 20
12.859424056
 30
0.0
  0
SPLINE
  5
37C
100
AcDbEntity
  8
LAYER_FEATURE
100
AcDbSpline
 62
7
  6
CONTINUOUS
 70
0
 71
3
 72
11
 73
7
 74
0
 42
0.0000001
 43
0.0000001
 44
0.0000000001
 40
0.0
 40
0.0
 40
0.0
 40
0.0
 40
0.2419582666
 40
0.4872569915
 40
0.7390391022
 40
1.0
 40
1.0
 40
1.0
 40
1.0
 10
16.3664969621
 20
13.0178796658
 30
0.0
 10
16.3665810509
 20
13.0181517724
 30
0.0
 10
16.3667106714
 20
13.0187128919
 30
0.0
 10
16.366783539
 20
13.0195825102
 30
0.0
 10
16.366735342
 20
13.0204760723
 30
0.0
 10
16.3666252564
 20
13.0210713157
 30
0.0
 10
16.3665519266
 20
13.0213696054
 30
0.0
  0
SPLINE
  5
37D
100
AcDbEntity
  8
LAYER_FEATURE
100
AcDbSpline
 62
7
  6
CONTINUOUS
 70
0
 71
3
 72
23
 73
19
 74
0
 42
0.0000001
 43
0.0000001
 44
0.0000000001
 40
0.0
 40
0.0
 40
0.0
 40
0.0
 40
0.0567032021
 40
0.1151290782
 40
0.1751183097
 40
0.2364904385
 40
0.2990473289
 40
0.3625764265
 40
0.4268537798
 40
0.4916469094
 40
0.5567175605
 40
0.6218244063
 40
0.6867257321
 40
0.7511819507
 40
0.8149590785
 40
0.8778287361
 40
0.9395784553
 40
1.0
 40
1.0
 40
1.0
 40
1.0
 10
16.3520139631
 20
12.9711101146
 30
0.0
 10
16.3527833103
 20
12.970416519
 30
0.0
 10
16.3543871306
 20
12.9690539614
 30
0.0
 10
16.3569351284
 20
12.967117365
 30
0.0
 10
16.3596496583
 20
12.9652660826
 30
0.0
 10
16.3625156952
 20
12.9635103673
 30
0.0
 10
16.3655175082
 20
12.9618598324
 30
0.0
 10
16.3686385733
 20
12.9603235593
 30
0.0
 10
16.3718617142
 20
12.9589099986
 30
0.0
 10
16.3751691851
 20
12.9576269333
 30
0.0
 10
16.3785427719
 20
12.9564814301
 30
0.0
 10
16.3819638944
 20
12.9554798004
 30
0.0
 10
16.3854137067
 20
12.9546275637
 30
0.0
 10
16.3888732166
 20
12.9539294024
 30
0.0
 10
16.3923233478
 20
12.9533891818
 30
0.0
 10
16.395745187
 20
12.9530098343
 30
0.0
 10
16.399119738
 20
12.9527935115
 30
0.0
 10
16.4013523426
 20
12.9527583225
 30
0.0
 10
16.4024560577
 20
12.9527691979
 30
0.0
  0
SPLINE
  5
37E
100
AcDbEntity
  8
LAYER_FEATURE
100
AcDbSpline
 62
7
  6
CONTINUOUS
 70
0
 71
3
 72
14
 73
10
 74
0
 42
0.0000001
 43
0.0000001
 44
0.0000000001
 40
0.0
 40
0.0
 40
0.0
 40
0.0
 40
0.1168645652
 40
0.2345878872
 40
0.3539959191
 40
0.475860109
 40
0.6008656591
 40
0.7296117541
 40
1.0
 40
1.0
 40
1.0
 40
1.0
 10
16.2731007414
 20
13.1060854708
 30
0.0
 10
16.2731617337
 20
13.1062828527
 30
0.0
 10
16.2732633802
 20
13.1066858305
 30
0.0
 10
16.2733524482
 20
13.1073063187
 30
0.0
 10
16.2733781069
 20
13.1079415132
 30
0.0
 10
16.2733403081
 20
13.1085888976
 30
0.0
 10
16.2732393218
 20
13.1092461656
 30
0.0
 10
16.2730175383
 20
13.1101467269
 30
0.0
 10
16.272761742
 20
13.1108084599
 30
0.0
 10
16.2725585336
 20
13.1112410998
 30
0.0
  0
SPLINE
  5
37F
100
AcDbEntity
  8
LAYER_FEATURE
100
AcDbSpline
 62
7
  6
CONTINUOUS
 70
0
 71
3
 72
23
 73
19
 74
0
 42
0.0000001
 43
0.0000001
 44
0.0000000001
 40
0.0
 40
0.0
 40
0.0
 40
0.0
 40
0.0532898495
 40
0.1092121478
 40
0.1675976918
 40
0.2282127642
 40
0.2907708899
 40
0.3549432409
 40
0.4203679963
 40
0.4866589515
 40
0.5534136007
 40
0.6202208909
 40
0.6866687986
 40
0.7523519421
 40
0.8168791075
 40
0.8798818241
 40
0.9410210016
 40
1.0
 40
1.0
 40
1.0
 40
1.0
 10
16.261023882
 20
13.067124688
 30
0.0
 10
16.2617831145
 20
13.0661659861
 30
0.0
 10
16.2634311349
 20
13.0642728255
 30
0.0
 10
16.266187907
 20
13.0615856585
 30
0.0
 10
16.2692662824
 20
13.0590038365
 30
0.0
 10
16.2726380128
 20
13.0565509505
 30
0.0
 10
16.276272516
 20
13.0542490982
 30
0.0
 10
16.2801366783
 20
13.0521192165
 30
0.0
 10
16.2841952813
 20
13.0501806916
 30
0.0
 10
16.2884112922
 20
13.0484512064
 30
0.0
 10
16.2927462195
 20
13.0469465487
 30
0.0
 10
16.2971604729
 20
13.0456804612
 30
0.0
 10
16.3016137342
 20
13.0446645056
 30
0.0
 10
16.3060653467
 20
13.0439079628
 30
0.0
 10
16.3104746701
 20
13.0434177299
 30
0.0
 10
16.3148015803
 20
13.0431983156
 30
0.0
 10
16.3190064019
 20
13.0432516927
 30
0.0
 10
16.3217567532
 20
13.0434732547
 30
0.0
 10
16.3231008686
 20
13.0436322096
 30
0.0
  0
SPLINE
  5
380
100
AcDbEntity
  8
LAYER_FEATURE
100
AcDbSpline
 62
7
  6
CONTINUOUS
 70
0
 71
3
 72
18
 73
14
 74
0
 42
0.0000001
 43
0.0000001
 44
0.0000000001
 40
0.0
 40
0.0
 40
0.0
 40
0.0
 40
0.0561329226
 40
0.1124403564
 40
0.1690962446
 40
0.2262745139
 40
0.3427825422
 40
0.4631943854
 40
0.5252006071
 40
0.5885280369
 40
0.719430612
 40
0.8564896321
 40
1.0
 40
1.0
 40
1.0
 40
1.0
 10
16.1637417179
 20
13.1882656006
 30
0.0
 10
16.163781693
 20
13.188394961
 30
0.0
 10
16.1638528723
 20
13.18865693
 30
0.0
 10
16.1639325915
 20
13.1890572402
 30
0.0
 10
16.1639852382
 20
13.1894645709
 30
0.0
 10
16.1640194582
 20
13.1900194675
 30
0.0
 10
16.1639928059
 20
13.1907304505
 30
0.0
 10
16.1638765095
 20
13.1914438462
 30
0.0
 10
16.1637315252
 20
13.1920188574
 30
0.0
 10
16.1635475183
 20
13.1926091811
 30
0.0
 10
16.163248897
 20
13.1933520094
 30
0.0
 10
16.1627911195
 20
13.1942340886
 30
0.0
 10
16.162427386
 20
13.1948058957
 30
0.0
 10
16.1622302948
 20
13.1950904638
 30
0.0
  0
SPLINE
  5
381
100
AcDbEntity
  8
LAYER_FEATURE
100
AcDbSpline
 62
7
  6
CONTINUOUS
 70
0
 71
3
 72
33
 73
29
 74
0
 42
0.0000001
 43
0.0000001
 44
0.0000000001
 40
0.0
 40
0.0
 40
0.0
 40
0.0
 40
0.0494035008
 40
0.0754114506
 40
0.1022875825
 40
0.1300219136
 40
0.1585939207
 40
0.1879736032
 40
0.2181227382
 40
0.2489956155
 40
0.28053987
 40
0.3126974936
 40
0.3454054104
 40
0.3785961513
 40
0.4121986782
 40
0.4803299607
 40
0.5491911266
 40
0.6181427656
 40
0.6865429526
 40
0.7537651608
 40
0.7867530587
 40
0.8192281033
 40
0.8511246041
 40
0.8823818707
 40
0.9129438645
 40
0.9427606955
 40
0.9717930742
 40
1.0
 40
1.0
 40
1.0
 40
1.0
 10
16.1544747341
 20
13.1584153848
 30
0.0
 10
16.1550669314
 20
13.1572023374
 30
0.0
 10
16.1561067753
 20
13.1554144215
 30
0.0
 10
16.1577246378
 20
13.1531344446
 30
0.0
 10
16.159101143
 20
13.1514130269
 30
0.0
 10
16.1606147024
 20
13.1497161396
 30
0.0
 10
16.1622602362
 20
13.148049359
 30
0.0
 10
16.1640319885
 20
13.1464184634
 30
0.0
 10
16.1659238549
 20
13.1448290574
 30
0.0
 10
16.1679292928
 20
13.1432866309
 30
0.0
 10
16.1700413517
 20
13.1417964884
 30
0.0
 10
16.1722527338
 20
13.1403637873
 30
0.0
 10
16.1745557813
 20
13.1389934959
 30
0.0
 10
16.1769425413
 20
13.1376903126
 30
0.0
 10
16.1802403215
 20
13.1360408663
 30
0.0
 10
16.1845174374
 20
13.1341775908
 30
0.0
 10
16.1898210682
 20
13.1322847649
 30
0.0
 10
16.1952471524
 20
13.1307505405
 30
0.0
 10
16.2007206638
 20
13.1295961568
 30
0.0
 10
16.2052878552
 20
13.1289598014
 30
0.0
 10
16.208901322
 20
13.12865695
 30
0.0
 10
16.2115593672
 20
13.1285341816
 30
0.0
 10
16.2141728914
 20
13.1285147976
 30
0.0
 10
16.2167328879
 20
13.128598862
 30
0.0
 10
16.2192304757
 20
13.1287860799
 30
0.0
 10
16.2216571196
 20
13.1290758378
 30
0.0
 10
16.2240042558
 20
13.129467156
 30
0.0
 10
16.2255332812
 20
13.1297997335
 30
0.0
 10
16.2262818014
 20
13.1299833618
 30
0.0
  0
SPLINE
  5
382
100
AcDbEntity
  8
LAYER_FEATURE
100
AcDbSpline
 62
7
  6
CONTINUOUS
 70
0
 71
3
 72
39
 73
35
 74
0
 42
0.0000001
 43
0.0000001
 44
0.0000000001
 40
0.0
 40
0.0
 40
0.0
 40
0.0
 40
0.0223949881
 40
0.0456390357
 40
0.0698302014
 40
0.0950378296
 40
0.1213043132
 40
0.1486474156
 40
0.1770627975
 40
0.2065264932
 40
0.2369972636
 40
0.268418838
 40
0.3007219008
 40
0.3338258858
 40
0.3676405979
 40
0.4020677265
 40
0.4370023063
 40
0.4723340457
 40
0.5079485841
 40
0.5437287059
 40
0.5795555497
 40
0.6153098096
 40
0.6508728986
 40
0.686128118
 40
0.7209618578
 40
0.7552648691
 40
0.7889335323
 40
0.8218712088
 40
0.8539896245
 40
0.8852104468
 40
0.9154672457
 40
0.9447060325
 40
0.9728913802
 40
1.0
 40
1.0
 40
1.0
 40
1.0
 10
16.0349672847
 20
13.2430736063
 30
0.0
 10
16.0350789476
 20
13.2423784085
 30
0.0
 10
16.0353836881
 20
13.2409731182
 30
0.0
 10
16.0360609541
 20
13.2388813873
 30
0.0
 10
16.0369623389
 20
13.2367795707
 30
0.0
 10
16.0380829876
 20
13.2346781568
 30
0.0
 10
16.0394171525
 20
13.2325871731
 30
0.0
 10
16.0409581191
 20
13.2305167339
 30
0.0
 10
16.0426982287
 20
13.2284768537
 30
0.0
 10
16.0446288786
 20
13.2264774468
 30
0.0
 10
16.0467405417
 20
13.2245282564
 30
0.0
 10
16.0490228125
 20
13.2226388151
 30
0.0
 10
16.0514644485
 20
13.2208183877
 30
0.0
 10
16.0540534206
 20
13.219075922
 30
0.0
 10
16.0567769657
 20
13.2174199972
 30
0.0
 10
16.059621645
 20
13.2158587689
 30
0.0
 10
16.0625734188
 20
13.2143999364
 30
0.0
 10
16.0656177154
 20
13.2130507
 30
0.0
 10
16.0687395026
 20
13.2118177251
 30
0.0
 10
16.0719233616
 20
13.2107071058
 30
0.0
 10
16.0751535618
 20
13.2097243234
 30
0.0
 10
16.078414145
 20
13.2088742311
 30
0.0
 10
16.0816890048
 20
13.2081610283
 30
0.0
 10
16.0849619665
 20
13.2075882407
 30
0.0
 10
16.0882168683
 20
13.207158702
 30
0.0
 10
16.0914376425
 20
13.2068745292
 30
0.0
 10
16.0946083995
 20
13.2067371256
 30
0.0
 10
16.097713506
 20
13.2067471772
 30
0.0
 10
16.1007376611
 20
13.2069046516
 30
0.0
 10
16.1036659884
 20
13.2072087985
 30
0.0
 10
16.1064840515
 20
13.2076581648
 30
0.0
 10
16.1091781206
 20
13.2082505828
 30
0.0
 10
16.1117347157
 20
13.2089832181
 30
0.0
 10
16.1133713878
 20
13.2095744352
 30
0.0
 10
16.1141616341
 20
13.2098937124
 30
0.0
  0
SPLINE
  5
383
100
AcDbEntity
  8
LAYER_FEATURE
100
AcDbSpline
 62
7
  6
CONTINUOUS
 70
0
 71
3
 72
11
 73
7
 74
0
 42
0.0000001
 43
0.0000001
 44
0.0000000001
 40
0.0
 40
0.0
 40
0.0
 40
0.0
 40
0.245294345
 40
0.4925001645
 40
0.7435033497
 40
1.0
 40
1.0
 40
1.0
 40
1.0
 10
15.9067941446
 20
13.3224905817
 30
0.0
 10
15.9069766238
 20
13.3230810775
 30
0.0
 10
15.907278577
 20
13.324287664
 30
0.0
 10
15.9075348977
 20
13.3261468666
 30
0.0
 10
15.9075947015
 20
13.3280508213
 30
0.0
 10
15.9075046511
 20
13.3293288165
 30
0.0
 10
15.907428519
 20
13.3299705907
 30
0.0
  0
SPLINE
  5
384
100
AcDbEntity
  8
LAYER_FEATURE
100
AcDbSpline
 62
7
  6
CONTINUOUS
 70
0
 71
3
 72
42
 73
38
 74
0
 42
0.0000001
 43
0.0000001
 44
0.0000000001
 40
0.0
 40
0.0
 40
0.0
 40
0.0
 40
0.0107232416
 40
0.0215310209
 40
0.0324582069
 40
0.0435369837
 40
0.0547972813
 40
0.0662664744
 40
0.0899172734
 40
0.114661676
 40
0.1406130141
 40
0.1678394567
 40
0.1963681827
 40
0.2261901815
 40
0.2572650157
 40
0.2895252547
 40
0.322880479
 40
0.3572208655
 40
0.3924204066
 40
0.4283398322
 40
0.4648292992
 40
0.5017309085
 40
0.5388810962
 40
0.5761129437
 40
0.6132584415
 40
0.6501507353
 40
0.6866263898
 40
0.7225276989
 40
0.7577050808
 40
0.7920195994
 40
0.825345655
 40
0.8575739307
 40
0.8886145651
 40
0.9184009208
 40
0.9468931132
 40
0.9740836655
 40
1.0
 40
1.0
 40
1.0
 40
1.0
 10
15.9055965296
 20
13.3186821965
 30
0.0
 10
15.9055202866
 20
13.3183123031
 30
0.0
 10
15.9053936865
 20
13.3175638682
 30
0.0
 10
15.9052826377
 20
13.3164252226
 30
0.0
 10
15.9052500471
 20
13.3152690816
 30
0.0
 10
15.9052958755
 20
13.3140975004
 30
0.0
 10
15.9054201048
 20
13.3129124326
 30
0.0
 10
15.9056925398
 20
13.3113008882
 30
0.0
 10
15.9062347494
 20
13.3092579239
 30
0.0
 10
15.907185108
 20
13.3068129332
 30
0.0
 10
15.9084346375
 20
13.3043646726
 30
0.0
 10
15.9099744111
 20
13.3019292688
 30
0.0
 10
15.9117938723
 20
13.2995223999
 30
0.0
 10
15.913880752
 20
13.2971597493
 30
0.0
 10
15.9162210962
 20
13.2948567723
 30
0.0
 10
15.9187993037
 20
13.292628626
 30
0.0
 10
15.9215982001
 20
13.2904900391
 30
0.0
 10
15.9245991342
 20
13.2884551999
 30
0.0
 10
15.9277820942
 20
13.286537644
 30
0.0
 10
15.931125838
 20
13.2847501524
 30
0.0
 10
15.9346080348
 20
13.2831046554
 30
0.0
 10
15.9382054162
 20
13.2816121461
 30
0.0
 10
15.9418939346
 20
13.2802826015
 30
0.0
 10
15.9456489269
 20
13.2791249112
 30
0.0
 10
15.9494452836
 20
13.2781468165
 30
0.0
 10
15.9532576208
 20
13.277354857
 30
0.0
 10
15.9570604546
 20
13.2767543271
 30
0.0
 10
15.9608283759
 20
13.2763492414
 30
0.0
 10
15.9645362258
 20
13.2761423112
 30
0.0
 10
15.9681592691
 20
13.2761349318
 30
0.0
 10
15.9716733661
 20
13.27632718
 30
0.0
 10
15.975055133
 20
13.2767178289
 30
0.0
 10
15.9782821188
 20
13.2773043709
 30
0.0
 10
15.9813328855
 20
13.2780830534
 30
0.0
 10
15.9841873429
 20
13.2790489975
 30
0.0
 10
15.9868261905
 20
13.2801959656
 30
0.0
 10
15.9884687519
 20
13.2810979216
 30
0.0
 10
15.989244946
 20
13.2815781961
 30
0.0
  0
SPLINE
  5
385
100
AcDbEntity
  8
02___PRT_ALL_AXES
100
AcDbSpline
 62
7
  6
CONTINUOUS
 70
0
 71
3
 72
40
 73
36
 74
0
 42
0.0000001
 43
0.0000001
 44
0.0000000001
 40
0.0
 40
0.0
 40
0.0
 40
0.0
 40
0.0248034546
 40
0.049664248
 40
0.0746390663
 40
0.0997833135
 40
0.1251505275
 40
0.1507918574
 40
0.1767556158
 40
0.2030869115
 40
0.2298273685
 40
0.2570149276
 40
0.2846837213
 40
0.3128640179
 40
0.3271552563
 40
0.3415839409
 40
0.3708626359
 40
0.4007206744
 40
0.4311732902
 40
0.4622322343
 40
0.4939059225
 40
0.5261995923
 40
0.5591154628
 40
0.5926528929
 40
0.6268085439
 40
0.6615765358
 40
0.6969485987
 40
0.7329142173
 40
0.7694607716
 40
0.8065736704
 40
0.8442364555
 40
0.8824310358
 40
0.9211374221
 40
0.960334881
 40
1.0
 40
1.0
 40
1.0
 40
1.0
 10
14.6030064072
 20
12.5352111723
 30
0.0
 10
14.6045336861
 20
12.5401534559
 30
0.0
 10
14.6078835047
 20
12.5499619836
 30
0.0
 10
14.6137724122
 20
12.5643805427
 30
0.0
 10
14.620521343
 20
12.5784964362
 30
0.0
 10
14.6281221913
 20
12.5922927958
 30
0.0
 10
14.636566121
 20
12.6057540349
 30
0.0
 10
14.645843255
 20
12.6188647842
 30
0.0
 10
14.6559427947
 20
12.6316101993
 30
0.0
 10
14.6668530211
 20
12.6439758995
 30
0.0
 10
14.6785613152
 20
12.6559479796
 30
0.0
 10
14.6910542447
 20
12.667513058
 30
0.0
 10
14.70431733
 20
12.6786580913
 30
0.0
 10
14.7159444805
 20
12.6875434941
 30
0.0
 10
14.7256086748
 20
12.6944314486
 30
0.0
 10
14.7356107431
 20
12.7012351341
 30
0.0
 10
14.7485732189
 20
12.709452014
 30
0.0
 10
14.7647578611
 20
12.7187979355
 30
0.0
 10
14.7816291985
 20
12.7276668903
 30
0.0
 10
14.7991679649
 20
12.7360488772
 30
0.0
 10
14.8173544074
 20
12.7439345921
 30
0.0
 10
14.8361679866
 20
12.7513152323
 30
0.0
 10
14.8555874834
 20
12.7581825625
 30
0.0
 10
14.8755909929
 20
12.7645289148
 30
0.0
 10
14.8961559569
 20
12.7703471976
 30
0.0
 10
14.9172591853
 20
12.7756309031
 30
0.0
 10
14.9388768814
 20
12.7803741167
 30
0.0
 10
14.9609846676
 20
12.7845715247
 30
0.0
 10
14.9835576124
 20
12.788218421
 30
0.0
 10
15.0065702514
 20
12.7913107139
 30
0.0
 10
15.0299966384
 20
12.7938449441
 30
0.0
 10
15.0538102988
 20
12.7958182516
 30
0.0
 10
15.0779844833
 20
12.7972284562
 30
0.0
 10
15.1024916572
 20
12.7980739291
 30
0.0
 10
15.118939502
 20
12.7982594254
 30
0.0
 10
15.127211863
 20
12.7982594254
 30
0.0
  0
SPLINE
  5
386
100
AcDbEntity
  8
02___PRT_ALL_AXES
100
AcDbSpline
 62
7
  6
CONTINUOUS
 70
0
 71
3
 72
72
 73
68
 74
0
 42
0.0000001
 43
0.0000001
 44
0.0000000001
 40
0.0
 40
0.0
 40
0.0
 40
0.0
 40
0.0171787517
 40
0.0345304647
 40
0.0520443931
 40
0.0697101079
 40
0.0875164383
 40
0.1054520335
 40
0.1235052196
 40
0.1416640668
 40
0.1599164188
 40
0.178249917
 40
0.196652031
 40
0.2151100848
 40
0.2336112856
 40
0.2521427506
 40
0.2706915347
 40
0.2892446567
 40
0.3077891261
 40
0.3263119704
 40
0.3448002623
 40
0.3632411461
 40
0.381621865
 40
0.399929788
 40
0.4181524382
 40
0.4362775214
 40
0.4542929531
 40
0.472186888
 40
0.4899477485
 40
0.5075642561
 40
0.5250254628
 40
0.5423207814
 40
0.559440018
 40
0.5763734053
 40
0.5931116383
 40
0.6096459119
 40
0.6259679567
 40
0.6420700777
 40
0.6579451952
 40
0.6735868871
 40
0.6889894362
 40
0.704147875
 40
0.7190580337
 40
0.7337165906
 40
0.7481211248
 40
0.7622701734
 40
0.7761632875
 40
0.7898010885
 40
0.8031853264
 40
0.8163189386
 40
0.8292061084
 40
0.8418523217
 40
0.8542644161
 40
0.8603855312
 40
0.866451324
 40
0.878421314
 40
0.8901862084
 40
0.9017586001
 40
0.9131525417
 40
0.9243835152
 40
0.9354683778
 40
0.9464252807
 40
0.9572735599
 40
0.9680335958
 40
0.9787266445
 40
0.989374644
 40
1.0
 40
1.0
 40
1.0
 40
1.0
 10
15.127211863
 20
12.7982594254
 30
0.0
 10
15.1352408108
 20
12.7982594254
 30
0.0
 10
15.1513800599
 20
12.798082758
 30
0.0
 10
15.1756934404
 20
12.7972977822
 30
0.0
 10
15.2002124214
 20
12.7959922252
 30
0.0
 10
15.2249112233
 20
12.7941674988
 30
0.0
 10
15.2497642771
 20
12.7918254686
 30
0.0
 10
15.2747456679
 20
12.7889685854
 30
0.0
 10
15.2998294095
 20
12.78559982
 30
0.0
 10
15.3249893912
 20
12.7817226828
 30
0.0
 10
15.350199425
 20
12.7773412104
 30
0.0
 10
15.3754332704
 20
12.7724599629
 30
0.0
 10
15.4006646604
 20
12.7670840185
 30
0.0
 10
15.42586733
 20
12.7612189726
 30
0.0
 10
15.4510150446
 20
12.7548709338
 30
0.0
 10
15.4760816261
 20
12.7480465112
 30
0.0
 10
15.5010409807
 20
12.7407528086
 30
0.0
 10
15.5258671252
 20
12.7329974168
 30
0.0
 10
15.5505342147
 20
12.7247884066
 30
0.0
 10
15.5750165718
 20
12.7161343267
 30
0.0
 10
15.5992887113
 20
12.7070441873
 30
0.0
 10
15.6233253667
 20
12.6975274511
 30
0.0
 10
15.6471015164
 20
12.6875940235
 30
0.0
 10
15.670592409
 20
12.6772542415
 30
0.0
 10
15.693773593
 20
12.6665188697
 30
0.0
 10
15.7166209407
 20
12.6553990842
 30
0.0
 10
15.7391106715
 20
12.6439064589
 30
0.0
 10
15.7612193772
 20
12.6320529545
 30
0.0
 10
15.7829240453
 20
12.6198509043
 30
0.0
 10
15.8042020863
 20
12.6073130056
 30
0.0
 10
15.8250313582
 20
12.5944523073
 30
0.0
 10
15.8453901857
 20
12.5812821904
 30
0.0
 10
15.8652573832
 20
12.5678163555
 30
0.0
 10
15.884612276
 20
12.5540688079
 30
0.0
 10
15.9034347232
 20
12.5400538432
 30
0.0
 10
15.9217051432
 20
12.5257860377
 30
0.0
 10
15.9394045288
 20
12.5112802257
 30
0.0
 10
15.9565144657
 20
12.4965514849
 30
0.0
 10
15.9730171518
 20
12.4816151208
 30
0.0
 10
15.9888954145
 20
12.4664866486
 30
0.0
 10
16.0041327353
 20
12.4511817835
 30
0.0
 10
16.018713262
 20
12.4357164181
 30
0.0
 10
16.0326218215
 20
12.4201066055
 30
0.0
 10
16.045843935
 20
12.4043685429
 30
0.0
 10
16.0583658309
 20
12.3885185528
 30
0.0
 10
16.0701744637
 20
12.3725730705
 30
0.0
 10
16.0812575266
 20
12.3565486256
 30
0.0
 10
16.0916034554
 20
12.3404618232
 30
0.0
 10
16.1012014416
 20
12.3243293235
 30
0.0
 10
16.1100414316
 20
12.3081678484
 30
0.0
 10
16.1181141704
 20
12.2919940786
 30
0.0
 10
16.1254110977
 20
12.2758249639
 30
0.0
 10
16.1308640538
 20
12.2623062301
 30
0.0
 10
16.1348251414
 20
12.2515123158
 30
0.0
 10
16.1384871363
 20
12.2408315523
 30
0.0
 10
16.1425744894
 20
12.227511482
 30
0.0
 10
16.1466993274
 20
12.2115276464
 30
0.0
 10
16.1500179366
 20
12.1956316647
 30
0.0
 10
16.1525265961
 20
12.1798402747
 30
0.0
 10
16.15422249
 20
12.1641699264
 30
0.0
 10
16.1551036252
 20
12.1486370435
 30
0.0
 10
16.1551688679
 20
12.1332579426
 30
0.0
 10
16.1544179548
 20
12.1180488163
 30
0.0
 10
16.1528515268
 20
12.1030257763
 30
0.0
 10
16.15047105
 20
12.0882045731
 30
0.0
 10
16.1472791268
 20
12.0736015285
 30
0.0
 10
16.1446110171
 20
12.0640170718
 30
0.0
 10
16.1431448078
 20
12.0592724096
 30
0.0
  0
SPLINE
  5
387
100
AcDbEntity
  8
LAYER_CHAMFER_FEAT
100
AcDbSpline
 62
7
  6
CONTINUOUS
 70
0
 71
3
 72
53
 73
49
 74
0
 42
0.0000001
 43
0.0000001
 44
0.0000000001
 40
0.0
 40
0.0
 40
0.0
 40
0.0
 40
0.0106257336
 40
0.021274113
 40
0.0319675399
 40
0.0427279616
 40
0.0535766237
 40
0.0645339201
 40
0.0756191727
 40
0.0868505492
 40
0.098244893
 40
0.1098176998
 40
0.1215830111
 40
0.1335534271
 40
0.1457400693
 40
0.1581526038
 40
0.1836820325
 40
0.1968161165
 40
0.2102008233
 40
0.2238391163
 40
0.2377327171
 40
0.2518822784
 40
0.2662873161
 40
0.2809464026
 40
0.2958570823
 40
0.3110160692
 40
0.3264191592
 40
0.3420614151
 40
0.3579370904
 40
0.3740397889
 40
0.3903624102
 40
0.4236339058
 40
0.4576856916
 40
0.4924415269
 40
0.5278183265
 40
0.5637272223
 40
0.6000745638
 40
0.6367628715
 40
0.6736917537
 40
0.7107587968
 40
0.7478604378
 40
0.7848928281
 40
0.82175269
 40
0.8583381948
 40
0.8945497981
 40
0.9302912688
 40
0.9654702592
 40
1.0
 40
1.0
 40
1.0
 40
1.0
 10
14.9920064403
 20
11.9108490717
 30
0.0
 10
14.991551661
 20
11.9093774023
 30
0.0
 10
14.9907240652
 20
11.9064045606
 30
0.0
 10
14.9897340406
 20
11.901875075
 30
0.0
 10
14.9889956522
 20
11.8972779317
 30
0.0
 10
14.9885098137
 20
11.8926181774
 30
0.0
 10
14.9882768775
 20
11.8879007072
 30
0.0
 10
14.9882971359
 20
11.8831305152
 30
0.0
 10
14.9885704211
 20
11.8783126221
 30
0.0
 10
14.9890964575
 20
11.8734520949
 30
0.0
 10
14.9898745669
 20
11.8685540164
 30
0.0
 10
14.9909039181
 20
11.863623513
 30
0.0
 10
14.9921833435
 20
11.8586657081
 30
0.0
 10
14.9937114588
 20
11.8536857918
 30
0.0
 10
14.9954866574
 20
11.8486888242
 30
0.0
 10
14.998205625
 20
11.8419480718
 30
0.0
 10
15.0013948209
 20
11.835255981
 30
0.0
 10
15.005016127
 20
11.828635479
 30
0.0
 10
15.0079932117
 20
11.8236314866
 30
0.0
 10
15.0112022452
 20
11.8186418234
 30
0.0
 10
15.0146399094
 20
11.8136714424
 30
0.0
 10
15.0183026515
 20
11.8087255886
 30
0.0
 10
15.0221865993
 20
11.8038093246
 30
0.0
 10
15.0262877648
 20
11.7989278052
 30
0.0
 10
15.03060182
 20
11.794086038
 30
0.0
 10
15.0351243287
 20
11.7892891019
 30
0.0
 10
15.039850534
 20
11.7845419235
 30
0.0
 10
15.0447755647
 20
11.7798494799
 30
0.0
 10
15.0498942505
 20
11.7752166074
 30
0.0
 10
15.0552013264
 20
11.7706481276
 30
0.0
 10
15.0625677845
 20
11.7646108447
 30
0.0
 10
15.0722169879
 20
11.7572599396
 30
0.0
 10
15.0843816547
 20
11.7488262142
 30
0.0
 10
15.0971547687
 20
11.7407590065
 30
0.0
 10
15.11048314
 20
11.7330918847
 30
0.0
 10
15.1243115119
 20
11.7258566103
 30
0.0
 10
15.1385824636
 20
11.7190832199
 30
0.0
 10
15.1532367406
 20
11.7127998326
 30
0.0
 10
15.168213479
 20
11.7070325443
 30
0.0
 10
15.183450468
 20
11.7018053116
 30
0.0
 10
15.19888441
 20
11.6971398494
 30
0.0
 10
15.2144511884
 20
11.6930555398
 30
0.0
 10
15.2300861356
 20
11.6895693482
 30
0.0
 10
15.2457243147
 20
11.6866957584
 30
0.0
 10
15.2613007596
 20
11.6844466987
 30
0.0
 10
15.2767508875
 20
11.6828315257
 30
0.0
 10
15.2920102066
 20
11.6818569349
 30
0.0
 10
15.3021165815
 20
11.6816347395
 30
0.0
 10
15.3071221092
 20
11.6816347395
 30
0.0
  0
SPLINE
  5
388
100
AcDbEntity
  8
LAYER_CUT_FEAT
100
AcDbSpline
 62
7
  6
CONTINUOUS
 70
0
 71
3
 72
22
 73
18
 74
0
 42
0.0000001
 43
0.0000001
 44
0.0000000001
 40
0.0
 40
0.0
 40
0.0
 40
0.0
 40
0.1381197631
 40
0.2053664309
 40
0.2714549167
 40
0.336437138
 40
0.400372579
 40
0.4633278437
 40
0.5253764097
 40
0.5865986125
 40
0.6470813093
 40
0.7069174431
 40
0.7662055021
 40
0.8250488573
 40
0.8835549588
 40
0.9418344159
 40
1.0
 40
1.0
 40
1.0
 40
1.0
 10
16.2250570269
 20
12.297241791
 30
0.0
 10
16.230770755
 20
12.2855984374
 30
0.0
 10
16.2386438243
 20
12.267966873
 30
0.0
 10
16.2476233049
 20
12.244105202
 30
0.0
 10
16.253462206
 20
12.2264157177
 30
0.0
 10
16.2584584808
 20
12.2087931672
 30
0.0
 10
16.2626074123
 20
12.1912538941
 30
0.0
 10
16.2659047988
 20
12.1738148016
 30
0.0
 10
16.2683472848
 20
12.1564925523
 30
0.0
 10
16.2699323202
 20
12.1393037885
 30
0.0
 10
16.2706582036
 20
12.1222650493
 30
0.0
 10
16.270524049
 20
12.105392777
 30
0.0
 10
16.2695297916
 20
12.0887032823
 30
0.0
 10
16.267676256
 20
12.072212795
 30
0.0
 10
16.2649650786
 20
12.0559371761
 30
0.0
 10
16.2613989915
 20
12.0398928648
 30
0.0
 10
16.258452485
 20
12.0293563647
 30
0.0
 10
16.2568398859
 20
12.0241379731
 30
0.0
  0
SPLINE
  5
389
100
AcDbEntity
  8
LAYER_CHAMFER_FEAT
100
AcDbSpline
 62
7
  6
CONTINUOUS
 70
0
 71
3
 72
32
 73
28
 74
0
 42
0.0000001
 43
0.0000001
 44
0.0000000001
 40
0.0
 40
0.0
 40
0.0
 40
0.0
 40
0.0248049151
 40
0.0496671765
 40
0.0746434632
 40
0.099789196
 40
0.1251579041
 40
0.1508007447
 40
0.176766037
 40
0.2030988752
 40
0.2298409192
 40
0.2570300661
 40
0.3128674794
 40
0.3415873901
 40
0.3708677981
 40
0.4007276023
 40
0.4311820107
 40
0.4939077843
 40
0.5262033444
 40
0.5591211716
 40
0.5926605563
 40
0.6268182373
 40
0.6969548811
 40
0.7694644417
 40
0.8442384412
 40
0.9211379359
 40
1.0
 40
1.0
 40
1.0
 40
1.0
 10
15.4697168447
 20
11.7632253914
 30
0.0
 10
15.4692431232
 20
11.7616924251
 30
0.0
 10
15.4682041129
 20
11.7586500723
 30
0.0
 10
15.4663775102
 20
11.7541778221
 30
0.0
 10
15.4642841833
 20
11.7497994368
 30
0.0
 10
15.461926592
 20
11.7455201732
 30
0.0
 10
15.4593075076
 20
11.7413448505
 30
0.0
 10
15.4564299899
 20
11.737278239
 30
0.0
 10
15.4532973641
 20
11.7333249497
 30
0.0
 10
15.4499133343
 20
11.7294894392
 30
0.0
 10
15.4462816316
 20
11.7257759651
 30
0.0
 10
15.4410695532
 20
11.7209508816
 30
0.0
 10
15.4354130858
 20
11.7164307225
 30
0.0
 10
15.4293674342
 20
11.7122242012
 30
0.0
 10
15.4245658707
 20
11.7091804641
 30
0.0
 10
15.4195457533
 20
11.7062815801
 30
0.0
 10
15.4124995782
 20
11.7025775449
 30
0.0
 10
15.405101403
 20
11.6992183701
 30
0.0
 10
15.397396348
 20
11.6961956205
 30
0.0
 10
15.3913728254
 20
11.694065534
 30
0.0
 10
15.3851682635
 20
11.6920970399
 30
0.0
 10
15.3765880998
 20
11.6896695718
 30
0.0
 10
15.3654451353
 20
11.6870631617
 30
0.0
 10
15.3515849957
 20
11.6846392502
 30
0.0
 10
15.3371816125
 20
11.6829024702
 30
0.0
 10
15.3223003407
 20
11.6818604818
 30
0.0
 10
15.3122232607
 20
11.6816347395
 30
0.0
 10
15.3071221092
 20
11.6816347395
 30
0.0
  0
SPLINE
  5
38A
100
AcDbEntity
  8
02___PRT_ALL_AXES
100
AcDbSpline
 62
7
  6
CONTINUOUS
 70
0
 71
3
 72
29
 73
25
 74
0
 42
0.0000001
 43
0.0000001
 44
0.0000000001
 40
0.0
 40
0.0
 40
0.0
 40
0.0
 40
0.0680045952
 40
0.1017016829
 40
0.1351899146
 40
0.2015357902
 40
0.2670563268
 40
0.2995152489
 40
0.3317734511
 40
0.3956900706
 40
0.4588421427
 40
0.5212627988
 40
0.5829905962
 40
0.6440691588
 40
0.6743848966
 40
0.7045568959
 40
0.7345919702
 40
0.7644971945
 40
0.8239377814
 40
0.882951772
 40
0.9123251916
 40
0.9416180354
 40
0.9708397189
 40
1.0
 40
1.0
 40
1.0
 40
1.0
 10
15.091265014
 20
12.6819353793
 30
0.0
 10
15.0943191536
 20
12.6819353793
 30
0.0
 10
15.0988883437
 20
12.6817984412
 30
0.0
 10
15.1049428419
 20
12.6813350793
 30
0.0
 10
15.1109060431
 20
12.6806911262
 30
0.0
 10
15.1182487592
 20
12.6795458382
 30
0.0
 10
15.1254576932
 20
12.6779403581
 30
0.0
 10
15.1310980745
 20
12.6763882996
 30
0.0
 10
15.1366151416
 20
12.6746717486
 30
0.0
 10
15.1433383393
 20
12.6722051934
 30
0.0
 10
15.1511160782
 20
12.6687353668
 30
0.0
 10
15.1585492876
 20
12.6647829248
 30
0.0
 10
15.165608226
 20
12.6603688552
 30
0.0
 10
15.1711702421
 20
12.656313812
 30
0.0
 10
15.1754019568
 20
12.6528625749
 30
0.0
 10
15.1784579024
 20
12.6501799232
 30
0.0
 10
15.1814005033
 20
12.6474001743
 30
0.0
 10
15.1851607949
 20
12.6435770126
 30
0.0
 10
15.189567448
 20
12.6385706896
 30
0.0
 10
15.1935731161
 20
12.6332677684
 30
0.0
 10
15.1965146174
 20
12.6288755935
 30
0.0
 10
15.1985853026
 20
12.6255140528
 30
0.0
 10
15.2005213001
 20
12.6220842876
 30
0.0
 10
15.2017219507
 20
12.6197524977
 30
0.0
 10
15.2022988876
 20
12.6185768171
 30
0.0
  0
SPLINE
  5
38B
100
AcDbEntity
  8
LAYER_FEATURE
100
AcDbSpline
 62
7
  6
CONTINUOUS
 70
0
 71
3
 72
14
 73
10
 74
0
 42
0.0000001
 43
0.0000001
 44
0.0000000001
 40
0.0
 40
0.0
 40
0.0
 40
0.0
 40
0.1384491982
 40
0.2727975017
 40
0.4031450321
 40
0.5296160187
 40
0.6523578151
 40
0.7715440311
 40
1.0
 40
1.0
 40
1.0
 40
1.0
 10
16.0365957651
 20
11.9038310384
 30
0.0
 10
16.0360679888
 20
11.9031987383
 30
0.0
 10
16.0350060868
 20
11.9019709835
 30
0.0
 10
16.0333693562
 20
11.9002172463
 30
0.0
 10
16.0317140867
 20
11.8985807141
 30
0.0
 10
16.0300416213
 20
11.8970626852
 30
0.0
 10
16.0283530263
 20
11.8956642513
 30
0.0
 10
16.0261140557
 20
11.893984753
 30
0.0
 10
16.0243664293
 20
11.8928691429
 30
0.0
 10
16.0231801706
 20
11.8922059382
 30
0.0
  0
SPLINE
  5
38C
100
AcDbEntity
  8
LAYER_FEATURE
100
AcDbSpline
 62
7
  6
CONTINUOUS
 70
0
 71
3
 72
40
 73
36
 74
0
 42
0.0000001
 43
0.0000001
 44
0.0000000001
 40
0.0
 40
0.0
 40
0.0
 40
0.0
 40
0.0475533836
 40
0.0938226825
 40
0.138749777
 40
0.1822938521
 40
0.2244187238
 40
0.2650921749
 40
0.3042902565
 40
0.3419970541
 40
0.3782059451
 40
0.4129201222
 40
0.4461546773
 40
0.4779377497
 40
0.5083122147
 40
0.5373380122
 40
0.5650934923
 40
0.5785276709
 40
0.5916833682
 40
0.617218648
 40
0.6418495731
 40
0.6657441702
 40
0.6890916574
 40
0.7120987791
 40
0.7349838199
 40
0.7579694301
 40
0.7812747098
 40
0.8051077306
 40
0.8296596417
 40
0.8551006878
 40
0.8815779522
 40
0.9092154679
 40
0.9381144308
 40
0.9683554722
 40
1.0
 40
1.0
 40
1.0
 40
1.0
 10
15.9997835497
 20
12.1340073595
 30
0.0
 10
16.0002199101
 20
12.1354194224
 30
0.0
 10
16.0011141385
 20
12.1381952811
 30
0.0
 10
16.0025406655
 20
12.1422653097
 30
0.0
 10
16.0040321136
 20
12.1461790039
 30
0.0
 10
16.005585793
 20
12.1499294043
 30
0.0
 10
16.0071990243
 20
12.1535101218
 30
0.0
 10
16.0088690602
 20
12.1569149519
 30
0.0
 10
16.0105929689
 20
12.1601379983
 30
0.0
 10
16.0123678346
 20
12.1631736769
 30
0.0
 10
16.0141905736
 20
12.1660167791
 30
0.0
 10
16.0160581292
 20
12.1686623825
 30
0.0
 10
16.0179673322
 20
12.171105939
 30
0.0
 10
16.019914983
 20
12.1733432288
 30
0.0
 10
16.0218979164
 20
12.1753703633
 30
0.0
 10
16.0239127486
 20
12.1771837554
 30
0.0
 10
16.0256341966
 20
12.1785284807
 30
0.0
 10
16.0270233272
 20
12.1794900057
 30
0.0
 10
16.0283912677
 20
12.180358564
 30
0.0
 10
16.0301166599
 20
12.1813106318
 30
0.0
 10
16.0322263
 20
12.1822393959
 30
0.0
 10
16.0343508864
 20
12.182940983
 30
0.0
 10
16.036486446
 20
12.183413518
 30
0.0
 10
16.0386288165
 20
12.1836557751
 30
0.0
 10
16.0407736315
 20
12.1836669419
 30
0.0
 10
16.0429164352
 20
12.1834470788
 30
0.0
 10
16.0450528385
 20
12.1829967646
 30
0.0
 10
16.0471786536
 20
12.1823172989
 30
0.0
 10
16.0492899504
 20
12.1814104263
 30
0.0
 10
16.0513830136
 20
12.1802782305
 30
0.0
 10
16.0534543761
 20
12.1789231792
 30
0.0
 10
16.0555006039
 20
12.1773478871
 30
0.0
 10
16.0575184556
 20
12.1755553383
 30
0.0
 10
16.0595045508
 20
12.1735487908
 30
0.0
 10
16.0607760341
 20
12.1721040486
 30
0.0
 10
16.0614062601
 20
12.1713490008
 30
0.0
  0
SPLINE
  5
38D
100
AcDbEntity
  8
02___PRT_ALL_AXES
100
AcDbSpline
 62
7
  6
CONTINUOUS
 70
0
 71
3
 72
32
 73
28
 74
0
 42
0.0000001
 43
0.0000001
 44
0.0000000001
 40
0.0
 40
0.0
 40
0.0
 40
0.0
 40
0.0240808586
 40
0.0488366935
 40
0.0742605409
 40
0.1003468462
 40
0.1270862837
 40
0.1544655059
 40
0.1824685963
 40
0.2110772182
 40
0.2402704301
 40
0.2700250914
 40
0.3003159348
 40
0.3311158003
 40
0.3623957545
 40
0.3941252231
 40
0.426272159
 40
0.4588031004
 40
0.4916833136
 40
0.5248768082
 40
0.5920521619
 40
0.6600222675
 40
0.7284626036
 40
0.797035089
 40
0.8653897913
 40
0.9331670139
 40
1.0
 40
1.0
 40
1.0
 40
1.0
 10
16.0795039196
 20
12.1809177449
 30
0.0
 10
16.0801487049
 20
12.1796038107
 30
0.0
 10
16.0814021152
 20
12.1769121831
 30
0.0
 10
16.0831511238
 20
12.1727502912
 30
0.0
 10
16.0847926374
 20
12.1684142621
 30
0.0
 10
16.0863246965
 20
12.1639109265
 30
0.0
 10
16.0877457992
 20
12.1592470369
 30
0.0
 10
16.089054681
 20
12.1544296559
 30
0.0
 10
16.0902505745
 20
12.1494661142
 30
0.0
 10
16.0913329127
 20
12.1443638742
 30
0.0
 10
16.0923016466
 20
12.1391305957
 30
0.0
 10
16.0931569116
 20
12.1337740611
 30
0.0
 10
16.0938992678
 20
12.1283021949
 30
0.0
 10
16.0945295472
 20
12.1227230214
 30
0.0
 10
16.0950488475
 20
12.1170446518
 30
0.0
 10
16.0954586215
 20
12.1112752779
 30
0.0
 10
16.0957604677
 20
12.1054231434
 30
0.0
 10
16.0959563458
 20
12.0994965544
 30
0.0
 10
16.0960483318
 20
12.0935038374
 30
0.0
 10
16.0960355183
 20
12.0854047545
 30
0.0
 10
16.0957696042
 20
12.0751748683
 30
0.0
 10
16.0950789474
 20
12.0628187306
 30
0.0
 10
16.0940394376
 20
12.0504019648
 30
0.0
 10
16.0926766914
 20
12.0379931926
 30
0.0
 10
16.091017362
 20
12.0256613699
 30
0.0
 10
16.0890887113
 20
12.01347599
 30
0.0
 10
16.08762868
 20
12.0054250097
 30
0.0
 10
16.0868594744
 20
12.0014364476
 30
0.0
  0
SPLINE
  5
38E
100
AcDbEntity
  8
02___PRT_ALL_AXES
100
AcDbSpline
 62
7
  6
CONTINUOUS
 70
0
 71
3
 72
38
 73
34
 74
0
 42
0.0000001
 43
0.0000001
 44
0.0000000001
 40
0.0
 40
0.0
 40
0.0
 40
0.0
 40
0.0961467607
 40
0.1887453269
 40
0.2335955972
 40
0.2774194636
 40
0.3201745366
 40
0.3618208303
 40
0.4023208326
 40
0.4416399672
 40
0.4797465185
 40
0.516612224
 40
0.5522121623
 40
0.5865255376
 40
0.619535469
 40
0.6512299973
 40
0.6816018968
 40
0.7106499882
 40
0.7383790174
 40
0.7648013397
 40
0.7899370345
 40
0.8138160547
 40
0.8364787266
 40
0.8579783911
 40
0.8783823651
 40
0.8882007404
 40
0.8977782399
 40
0.9162614007
 40
0.9339576449
 40
0.9510095531
 40
0.967579449
 40
0.9838461476
 40
1.0
 40
1.0
 40
1.0
 40
1.0
 10
16.0800145973
 20
11.9708180262
 30
0.0
 10
16.0792298357
 20
11.9677530606
 30
0.0
 10
16.0776299132
 20
11.9617512385
 30
0.0
 10
16.0754932007
 20
11.9543667223
 30
0.0
 10
16.0737364101
 20
11.9486661446
 30
0.0
 10
16.072413363
 20
11.9445485169
 30
0.0
 10
16.071072252
 20
11.9405477768
 30
0.0
 10
16.0697143594
 20
11.9366683887
 30
0.0
 10
16.0683408904
 20
11.9329146485
 30
0.0
 10
16.066952943
 20
11.9292906865
 30
0.0
 10
16.0655515258
 20
11.9258004455
 30
0.0
 10
16.0641375439
 20
11.9224476942
 30
0.0
 10
16.0627118106
 20
11.9192360019
 30
0.0
 10
16.0612750412
 20
11.9161687562
 30
0.0
 10
16.0598278577
 20
11.9132491404
 30
0.0
 10
16.0583707947
 20
11.9104801533
 30
0.0
 10
16.0569042897
 20
11.9078645907
 30
0.0
 10
16.0554287076
 20
11.9054050615
 30
0.0
 10
16.0539443087
 20
11.9031039804
 30
0.0
 10
16.0524512989
 20
11.9009635748
 30
0.0
 10
16.0509497643
 20
11.8989858969
 30
0.0
 10
16.0494397617
 20
11.8971728172
 30
0.0
 10
16.0479211888
 20
11.8955260511
 30
0.0
 10
16.0463940074
 20
11.8940472058
 30
0.0
 10
16.0450977106
 20
11.8929421365
 30
0.0
 10
16.0440565748
 20
11.8921471586
 30
0.0
 10
16.0430380991
 20
11.8914281629
 30
0.0
 10
16.0417578871
 20
11.8906321128
 30
0.0
 10
16.0401935516
 20
11.8898387248
 30
0.0
 10
16.0386193688
 20
11.8892199919
 30
0.0
 10
16.0370354397
 20
11.8887770794
 30
0.0
 10
16.035442355
 20
11.8885110848
 30
0.0
 10
16.0343745731
 20
11.8884521333
 30
0.0
 10
16.0338430091
 20
11.8884521319
 30
0.0
  0
SPLINE
  5
38F
100
AcDbEntity
  8
LAYER_CHAMFER_FEAT
100
AcDbSpline
 62
7
  6
CONTINUOUS
 70
0
 71
3
 72
81
 73
77
 74
0
 42
0.0000001
 43
0.0000001
 44
0.0000000001
 40
0.0
 40
0.0
 40
0.0
 40
0.0
 40
0.0157579263
 40
0.0311473631
 40
0.0461646365
 40
0.0608088213
 40
0.0750819608
 40
0.0889893063
 40
0.1025395333
 40
0.1091850659
 40
0.1157462471
 40
0.1286229072
 40
0.141190873
 40
0.1534742202
 40
0.1655010397
 40
0.1773033276
 40
0.1831322418
 40
0.1889186886
 40
0.1946676379
 40
0.2003842212
 40
0.2060737349
 40
0.2117415966
 40
0.2173933298
 40
0.2230345412
 40
0.2286708849
 40
0.2343080426
 40
0.2399516892
 40
0.2456074709
 40
0.2512809701
 40
0.2569776833
 40
0.2684601642
 40
0.2800983106
 40
0.2859888405
 40
0.2919324577
 40
0.3039941164
 40
0.3163165743
 40
0.3289273484
 40
0.3353490607
 40
0.3418513275
 40
0.3551051792
 40
0.3687058571
 40
0.3826651171
 40
0.396991118
 40
0.4116886423
 40
0.4267593109
 40
0.4422017852
 40
0.4580119991
 40
0.4741833786
 40
0.4907070367
 40
0.507571944
 40
0.5247651232
 40
0.5422718239
 40
0.5600756755
 40
0.5781588203
 40
0.5965020702
 40
0.6150850444
 40
0.6338862916
 40
0.6528834017
 40
0.6720531356
 40
0.6913715408
 40
0.7108140563
 40
0.7303556157
 40
0.749970761
 40
0.7696337465
 40
0.7893186361
 40
0.8089994071
 40
0.8286500558
 40
0.8482446955
 40
0.8677576559
 40
0.8871635983
 40
0.9064375923
 40
0.9255552825
 40
0.9444929402
 40
0.9632273228
 40
0.9817371856
 40
1.0
 40
1.0
 40
1.0
 40
1.0
 10
15.0591093251
 20
11.9782444028
 30
0.0
 10
15.0557974339
 20
11.9774655147
 30
0.0
 10
15.0492797399
 20
11.9758005076
 30
0.0
 10
15.0397279103
 20
11.9729432883
 30
0.0
 10
15.0305331249
 20
11.9697609459
 30
0.0
 10
15.0217136035
 20
11.9662596592
 30
0.0
 10
15.0132865547
 20
11.9624461097
 30
0.0
 10
15.0052686955
 20
11.9583277218
 30
0.0
 10
14.9989002068
 20
11.954624397
 30
0.0
 10
14.994030424
 20
11.9515152249
 30
0.0
 10
14.9893706582
 20
11.9483516253
 30
0.0
 10
14.9838226989
 20
11.944224575
 30
0.0
 10
14.977590712
 20
11.9389710568
 30
0.0
 10
14.9718383708
 20
11.9334575172
 30
0.0
 10
14.9665775722
 20
11.9276949347
 30
0.0
 10
14.9625952031
 20
11.9226730704
 30
0.0
 10
14.9596721181
 20
11.9185465123
 30
0.0
 10
14.9576176169
 20
11.9154094442
 30
0.0
 10
14.9556931108
 20
11.9122193125
 30
0.0
 10
14.9538995782
 20
11.9089776163
 30
0.0
 10
14.9522378797
 20
11.9056859965
 30
0.0
 10
14.9507088479
 20
11.9023460724
 30
0.0
 10
14.949313286
 20
11.8989594838
 30
0.0
 10
14.9480518294
 20
11.895527934
 30
0.0
 10
14.946925153
 20
11.892053106
 30
0.0
 10
14.9459338107
 20
11.8885367305
 30
0.0
 10
14.9450782538
 20
11.8849805577
 30
0.0
 10
14.9443589683
 20
11.8813863538
 30
0.0
 10
14.9437762572
 20
11.8777558561
 30
0.0
 10
14.9431802568
 20
11.8728569178
 30
0.0
 10
14.942780276
 20
11.8666416815
 30
0.0
 10
14.9428402214
 20
11.86037245
 30
0.0
 10
14.9431593905
 20
11.8553137693
 30
0.0
 10
14.943665118
 20
11.8501784087
 30
0.0
 10
14.9446456573
 20
11.843698705
 30
0.0
 10
14.9463624316
 20
11.8358924629
 30
0.0
 10
14.948233605
 20
11.829381562
 30
0.0
 10
14.9499935573
 20
11.8241561894
 30
0.0
 10
14.9519549187
 20
11.8188546668
 30
0.0
 10
14.9547459072
 20
11.8122110014
 30
0.0
 10
14.9585988095
 20
11.8042814821
 30
0.0
 10
14.9629689274
 20
11.7963595831
 30
0.0
 10
14.9678474804
 20
11.7884609003
 30
0.0
 10
14.9732248252
 20
11.7806007509
 30
0.0
 10
14.9790903556
 20
11.7727944645
 30
0.0
 10
14.9854325118
 20
11.7650572454
 30
0.0
 10
14.9922388154
 20
11.7574041836
 30
0.0
 10
14.9994959001
 20
11.7498502225
 30
0.0
 10
15.0071895303
 20
11.7424101352
 30
0.0
 10
15.0153045975
 20
11.7350984666
 30
0.0
 10
15.0238251708
 20
11.7279295231
 30
0.0
 10
15.0327345329
 20
11.7209173467
 30
0.0
 10
15.0420152086
 20
11.7140756899
 30
0.0
 10
15.0516489755
 20
11.7074179584
 30
0.0
 10
15.0616169188
 20
11.7009572059
 30
0.0
 10
15.0718994726
 20
11.6947061107
 30
0.0
 10
15.0824764554
 20
11.688676953
 30
0.0
 10
15.0933270919
 20
11.6828815601
 30
0.0
 10
15.1044300697
 20
11.6773313063
 30
0.0
 10
15.1157635848
 20
11.6720370937
 30
0.0
 10
15.1273053816
 20
11.6670093324
 30
0.0
 10
15.1390327834
 20
11.6622578889
 30
0.0
 10
15.1509227507
 20
11.6577920918
 30
0.0
 10
15.1629519274
 20
11.6536207172
 30
0.0
 10
15.1750966857
 20
11.6497519719
 30
0.0
 10
15.1873331624
 20
11.6461934463
 30
0.0
 10
15.1996373172
 20
11.6429521263
 30
0.0
 10
15.2119849791
 20
11.6400343829
 30
0.0
 10
15.2243518946
 20
11.6374459595
 30
0.0
 10
15.2367137657
 20
11.6351919324
 30
0.0
 10
15.2490463124
 20
11.6332767201
 30
0.0
 10
15.2613253219
 20
11.6317040902
 30
0.0
 10
15.2735266241
 20
11.6304771604
 30
0.0
 10
15.2856264291
 20
11.6295982769
 30
0.0
 10
15.2976006738
 20
11.6290692585
 30
0.0
 10
15.3055406211
 20
11.6289496066
 30
0.0
 10
15.309483692
 20
11.6289496066
 30
0.0
  0
SPLINE
  5
390
100
AcDbEntity
  8
02___PRT_ALL_AXES
100
AcDbSpline
 62
7
  6
CONTINUOUS
 70
0
 71
3
 72
72
 73
68
 74
0
 42
0.0000001
 43
0.0000001
 44
0.0000000001
 40
0.0
 40
0.0
 40
0.0
 40
0.0
 40
0.0171788497
 40
0.034530411
 40
0.0520444107
 40
0.0697101032
 40
0.0875164389
 40
0.1054520336
 40
0.1235052188
 40
0.1416640663
 40
0.1599164184
 40
0.1782499168
 40
0.1966520307
 40
0.2151100844
 40
0.2336112852
 40
0.2521427504
 40
0.2706915345
 40
0.2892446564
 40
0.3077891257
 40
0.3263119702
 40
0.3448002622
 40
0.363241146
 40
0.3816218647
 40
0.3999297876
 40
0.4181524381
 40
0.4362775214
 40
0.454292953
 40
0.4721868874
 40
0.4899477478
 40
0.507564256
 40
0.5250254632
 40
0.5423207818
 40
0.5594400177
 40
0.5763734046
 40
0.593111638
 40
0.6096459121
 40
0.6259679569
 40
0.6420700774
 40
0.6579451942
 40
0.6735868866
 40
0.6889894366
 40
0.7041478759
 40
0.7190580341
 40
0.7337165899
 40
0.748121124
 40
0.7622701734
 40
0.776163288
 40
0.7898010887
 40
0.8031853259
 40
0.8163189377
 40
0.8292061083
 40
0.8418523225
 40
0.8542644169
 40
0.8603855309
 40
0.866451324
 40
0.8784213133
 40
0.8901862079
 40
0.9017586002
 40
0.913152542
 40
0.9243835153
 40
0.9354683774
 40
0.9464252804
 40
0.95727356
 40
0.9680335961
 40
0.9787266447
 40
0.9893746441
 40
1.0
 40
1.0
 40
1.0
 40
1.0
 10
14.9759204109
 20
12.3086801069
 30
0.0
 10
14.9839494045
 20
12.3086801069
 30
0.0
 10
15.0000886287
 20
12.3085034472
 30
0.0
 10
15.024402017
 20
12.307718457
 30
0.0
 10
15.0489209508
 20
12.3064129157
 30
0.0
 10
15.0736197774
 20
12.3045881784
 30
0.0
 10
15.0984728232
 20
12.3022461497
 30
0.0
 10
15.1234542159
 20
12.2993892663
 30
0.0
 10
15.1485379573
 20
12.2960205034
 30
0.0
 10
15.1736979389
 20
12.2921433673
 30
0.0
 10
15.1989079729
 20
12.2877618942
 30
0.0
 10
15.2241418182
 20
12.2828806447
 30
0.0
 10
15.2493732081
 20
12.2775046997
 30
0.0
 10
15.274575878
 20
12.2716396557
 30
0.0
 10
15.2997235929
 20
12.2652916179
 30
0.0
 10
15.3247901745
 20
12.2584671946
 30
0.0
 10
15.3497495286
 20
12.2511734901
 30
0.0
 10
15.3745756727
 20
12.243418097
 30
0.0
 10
15.3992427628
 20
12.2352090886
 30
0.0
 10
15.4237251207
 20
12.2265550106
 30
0.0
 10
15.4479972605
 20
12.2174648715
 30
0.0
 10
15.4720339155
 20
12.207948134
 30
0.0
 10
15.4958100642
 20
12.1980147045
 30
0.0
 10
15.5193009571
 20
12.1876749231
 30
0.0
 10
15.5424821421
 20
12.1769395528
 30
0.0
 10
15.5653294902
 20
12.1658197677
 30
0.0
 10
15.5878192204
 20
12.1543271415
 30
0.0
 10
15.6099279248
 20
12.1424736353
 30
0.0
 10
15.6316325929
 20
12.130271585
 30
0.0
 10
15.6529106356
 20
12.1177336883
 30
0.0
 10
15.6737399088
 20
12.104872991
 30
0.0
 10
15.6940987361
 20
12.0917028738
 30
0.0
 10
15.713965932
 20
12.0782370373
 30
0.0
 10
15.7333208236
 20
12.0644894885
 30
0.0
 10
15.752143272
 20
12.0504745251
 30
0.0
 10
15.7704136935
 20
12.0362067205
 30
0.0
 10
15.788113079
 20
12.0217009084
 30
0.0
 10
15.8052230144
 20
12.0069721666
 30
0.0
 10
15.8217256988
 20
11.9920358012
 30
0.0
 10
15.8376039629
 20
11.97690733
 30
0.0
 10
15.8528412863
 20
11.9616024661
 30
0.0
 10
15.8674218141
 20
11.9461371011
 30
0.0
 10
15.8813303722
 20
11.9305272878
 30
0.0
 10
15.8945524829
 20
11.9147892238
 30
0.0
 10
15.9070743784
 20
11.8989392337
 30
0.0
 10
15.9188830135
 20
11.8829937525
 30
0.0
 10
15.9299660778
 20
11.8669693078
 30
0.0
 10
15.9403120058
 20
11.8508825052
 30
0.0
 10
15.9499099896
 20
11.8347500046
 30
0.0
 10
15.9587499784
 20
11.818588529
 30
0.0
 10
15.9668227207
 20
11.8024147602
 30
0.0
 10
15.9741196497
 20
11.7862456455
 30
0.0
 10
15.9795726086
 20
11.7727269128
 30
0.0
 10
15.9835336889
 20
11.7619329962
 30
0.0
 10
15.9871956874
 20
11.7512522347
 30
0.0
 10
15.991283035
 20
11.7379321626
 30
0.0
 10
15.9954078756
 20
11.7219483278
 30
0.0
 10
15.9987264875
 20
11.7060523461
 30
0.0
 10
16.001235148
 20
11.6902609559
 30
0.0
 10
16.00293104
 20
11.6745906075
 30
0.0
 10
16.003812172
 20
11.6590577247
 30
0.0
 10
16.0038774157
 20
11.6436786239
 30
0.0
 10
16.0031265067
 20
11.6284694971
 30
0.0
 10
16.0015600801
 20
11.6134464566
 30
0.0
 10
15.9991796021
 20
11.5986252534
 30
0.0
 10
15.9959876729
 20
11.5840222103
 30
0.0
 10
15.993319567
 20
11.5744377526
 30
0.0
 10
15.9918533546
 20
11.5696930914
 30
0.0
  0
SPLINE
  5
391
100
AcDbEntity
  8
LAYER_CHAMFER_FEAT
100
AcDbSpline
 62
7
  6
CONTINUOUS
 70
0
 71
3
 72
51
 73
47
 74
0
 42
0.0000001
 43
0.0000001
 44
0.0000000001
 40
0.0
 40
0.0
 40
0.0
 40
0.0
 40
0.0357329104
 40
0.0703696342
 40
0.1039007304
 40
0.1363312953
 40
0.1676824085
 40
0.1979925563
 40
0.2273189265
 40
0.2416393763
 40
0.2557444228
 40
0.2696468673
 40
0.2833607235
 40
0.2969012778
 40
0.3102849552
 40
0.3235293386
 40
0.3366530036
 40
0.3496754852
 40
0.3626170876
 40
0.375498794
 40
0.3883420639
 40
0.4011686902
 40
0.4140006008
 40
0.4268596779
 40
0.4397675824
 40
0.4527455564
 40
0.4658142861
 40
0.4789937097
 40
0.4923029282
 40
0.5057600367
 40
0.5193820844
 40
0.5331849406
 40
0.5471832968
 40
0.5758130785
 40
0.6053700967
 40
0.6359264352
 40
0.6675346716
 40
0.7002289748
 40
0.734026443
 40
0.7689285394
 40
0.8049225372
 40
0.841982895
 40
0.8800726105
 40
0.9191443142
 40
0.9591417025
 40
1.0
 40
1.0
 40
1.0
 40
1.0
 10
15.452335301
 20
11.8567283847
 30
0.0
 10
15.455314207
 20
11.8534684803
 30
0.0
 10
15.4610225165
 20
11.8469016006
 30
0.0
 10
15.468919473
 20
11.8367687981
 30
0.0
 10
15.4759940925
 20
11.8265369196
 30
0.0
 10
15.4822223428
 20
11.8162398881
 30
0.0
 10
15.4875832598
 20
11.8059112085
 30
0.0
 10
15.4920583111
 20
11.7955852464
 30
0.0
 10
15.4950600561
 20
11.7869417806
 30
0.0
 10
15.496991843
 20
11.7800693015
 30
0.0
 10
15.4981995959
 20
11.7749780113
 30
0.0
 10
15.4991765799
 20
11.7699137718
 30
0.0
 10
15.4999218868
 20
11.7648807162
 30
0.0
 10
15.5004349272
 20
11.7598830914
 30
0.0
 10
15.5007151387
 20
11.7549250705
 30
0.0
 10
15.5007623396
 20
11.7500108277
 30
0.0
 10
15.5005763502
 20
11.7451444974
 30
0.0
 10
15.5001573952
 20
11.740330183
 30
0.0
 10
15.4995056911
 20
11.7355719615
 30
0.0
 10
15.4986218715
 20
11.7308738474
 30
0.0
 10
15.4975065595
 20
11.7262398412
 30
0.0
 10
15.496160796
 20
11.7216738469
 30
0.0
 10
15.494585616
 20
11.7171797652
 30
0.0
 10
15.4927824602
 20
11.7127613677
 30
0.0
 10
15.4907527739
 20
11.7084224309
 30
0.0
 10
15.4884983842
 20
11.704166575
 30
0.0
 10
15.4860211383
 20
11.6999974293
 30
0.0
 10
15.4833232325
 20
11.6959184489
 30
0.0
 10
15.480406904
 20
11.6919330984
 30
0.0
 10
15.4772746963
 20
11.6880446562
 30
0.0
 10
15.4739292382
 20
11.6842564218
 30
0.0
 10
15.4703733413
 20
11.6805714448
 30
0.0
 10
15.465318298
 20
11.6757644805
 30
0.0
 10
15.4584706867
 20
11.6700299857
 30
0.0
 10
15.4495279269
 20
11.663663754
 30
0.0
 10
15.4398276896
 20
11.6577806455
 30
0.0
 10
15.4294029557
 20
11.6523998141
 30
0.0
 10
15.4182883977
 20
11.6475383199
 30
0.0
 10
15.4065209921
 20
11.6432117678
 30
0.0
 10
15.3941397671
 20
11.6394340652
 30
0.0
 10
15.3811857695
 20
11.6362174194
 30
0.0
 10
15.3677019314
 20
11.6335722579
 30
0.0
 10
15.3537329889
 20
11.6315071928
 30
0.0
 10
15.3393251993
 20
11.6300289485
 30
0.0
 10
15.3245266976
 20
11.6291423642
 30
0.0
 10
15.3145330798
 20
11.6289496066
 30
0.0
 10
15.309483692
 20
11.6289496066
 30
0.0
  0
SPLINE
  5
392
100
AcDbEntity
  8
LAYER_FEATURE
100
AcDbSpline
 62
7
  6
CONTINUOUS
 70
0
 71
3
 72
63
 73
59
 74
0
 42
0.0000001
 43
0.0000001
 44
0.0000000001
 40
0.0
 40
0.0
 40
0.0
 40
0.0
 40
0.0176370354
 40
0.0357029489
 40
0.0541720361
 40
0.0730214824
 40
0.0922269035
 40
0.111762006
 40
0.1517107941
 40
0.1926445413
 40
0.2343271505
 40
0.2765146458
 40
0.3189578032
 40
0.361404778
 40
0.4036036896
 40
0.4453052013
 40
0.4862651318
 40
0.5063935874
 40
0.5262488296
 40
0.545802974
 40
0.5650290675
 40
0.5839010088
 40
0.6023938547
 40
0.620483753
 40
0.6381481786
 40
0.655366046
 40
0.672117762
 40
0.688385581
 40
0.7041535189
 40
0.7194078434
 40
0.7341370599
 40
0.7483323306
 40
0.7619877634
 40
0.7751006561
 40
0.7876721504
 40
0.7997074138
 40
0.8112165107
 40
0.8222147795
 40
0.8327236724
 40
0.8427714698
 40
0.8476342193
 40
0.8523957802
 40
0.8616367452
 40
0.8705485475
 40
0.8791919663
 40
0.8876354771
 40
0.8959539493
 40
0.9042265399
 40
0.9125340325
 40
0.9209559554
 40
0.9295679229
 40
0.938439367
 40
0.9476321588
 40
0.9571997997
 40
0.9671872784
 40
0.9776314879
 40
0.9885615925
 40
1.0
 40
1.0
 40
1.0
 40
1.0
 10
15.9997835497
 20
12.1340073595
 30
0.0
 10
15.999334983
 20
12.1325557972
 30
0.0
 10
15.9984629574
 20
12.1296061308
 30
0.0
 10
15.9972432806
 20
12.1251014664
 30
0.0
 10
15.9960979815
 20
12.1204696557
 30
0.0
 10
15.9950290818
 20
12.1157189889
 30
0.0
 10
15.9940383998
 20
12.1108576457
 30
0.0
 10
15.9928150992
 20
12.1041901174
 30
0.0
 10
15.99149767
 20
12.0956386606
 30
0.0
 10
15.9902641965
 20
12.0851508446
 30
0.0
 10
15.9893753238
 20
12.0744347197
 30
0.0
 10
15.9888373121
 20
12.0635651733
 30
0.0
 10
15.9886539561
 20
12.052618038
 30
0.0
 10
15.9888265462
 20
12.0416697524
 30
0.0
 10
15.989353863
 20
12.0307967164
 30
0.0
 10
15.9902321966
 20
12.0200749249
 30
0.0
 10
15.9912573304
 20
12.011277924
 30
0.0
 10
15.9922510586
 20
12.004376119
 30
0.0
 10
15.9930751806
 20
11.9993137385
 30
0.0
 10
15.9939809812
 20
11.9943443259
 30
0.0
 10
15.9949668449
 20
11.9894765484
 30
0.0
 10
15.9960310831
 20
11.9847189236
 30
0.0
 10
15.9971717943
 20
11.980079759
 30
0.0
 10
15.998387005
 20
11.9755671624
 30
0.0
 10
15.9996745806
 20
11.9711890126
 30
0.0
 10
16.0010322551
 20
11.9669529487
 30
0.0
 10
16.0024576859
 20
11.9628663671
 30
0.0
 10
16.0039483393
 20
11.9589363812
 30
0.0
 10
16.0055016627
 20
11.955169849
 30
0.0
 10
16.0071149095
 20
11.9515733129
 30
0.0
 10
16.008785303
 20
11.9481530325
 30
0.0
 10
16.0105099447
 20
11.9449149446
 30
0.0
 10
16.0122858403
 20
11.9418646548
 30
0.0
 10
16.0141099795
 20
11.9390074638
 30
0.0
 10
16.0159791976
 20
11.9363482875
 30
0.0
 10
16.0178903868
 20
11.9338917559
 30
0.0
 10
16.0198402882
 20
11.9316421035
 30
0.0
 10
16.0218257203
 20
11.9296032474
 30
0.0
 10
16.0238433246
 20
11.9277788504
 30
0.0
 10
16.0255673195
 20
11.9264253657
 30
0.0
 10
16.0269586432
 20
11.9254572558
 30
0.0
 10
16.0283286754
 20
11.9245825688
 30
0.0
 10
16.0300567626
 20
11.9236232625
 30
0.0
 10
16.0321699707
 20
11.9226864979
 30
0.0
 10
16.0342982793
 20
11.9219777107
 30
0.0
 10
16.0364377069
 20
11.9214987892
 30
0.0
 10
16.0385840788
 20
11.9212510585
 30
0.0
 10
16.0407329962
 20
11.9212352149
 30
0.0
 10
16.0428799739
 20
11.9214513805
 30
0.0
 10
16.0450206071
 20
11.9218988187
 30
0.0
 10
16.0471506577
 20
11.9225763595
 30
0.0
 10
16.0492661816
 20
11.9234821809
 30
0.0
 10
16.0513634493
 20
11.9246141935
 30
0.0
 10
16.053438931
 20
11.9259699708
 30
0.0
 10
16.0554892468
 20
11.9275467905
 30
0.0
 10
16.0575110425
 20
11.9293417619
 30
0.0
 10
16.0595010199
 20
11.9313515065
 30
0.0
 10
16.0607748605
 20
11.9327988203
 30
0.0
 10
16.0614062599
 20
11.9335552638
 30
0.0
  0
SPLINE
  5
393
100
AcDbEntity
  8
LAYER_FEATURE
100
AcDbSpline
 62
7
  6
CONTINUOUS
 70
0
 71
3
 72
57
 73
53
 74
0
 42
0.0000001
 43
0.0000001
 44
0.0000000001
 40
0.0
 40
0.0
 40
0.0
 40
0.0
 40
0.0146675015
 40
0.0291021272
 40
0.0433113453
 40
0.0573082425
 40
0.0711072896
 40
0.0847256866
 40
0.0981832185
 40
0.1115018775
 40
0.1247057368
 40
0.1378206172
 40
0.1508737224
 40
0.163893248
 40
0.176907932
 40
0.1899465903
 40
0.2030376488
 40
0.2162086922
 40
0.2294860507
 40
0.2428944186
 40
0.2564565224
 40
0.2701928807
 40
0.2841216064
 40
0.2982582434
 40
0.312615706
 40
0.327204261
 40
0.3420315127
 40
0.3571024494
 40
0.3879738432
 40
0.4037810733
 40
0.4198277527
 40
0.4526039191
 40
0.4693222475
 40
0.4862429608
 40
0.5206302172
 40
0.55565026
 40
0.5911634804
 40
0.6270173962
 40
0.6630508751
 40
0.6990983195
 40
0.7349937863
 40
0.7705751063
 40
0.8056880476
 40
0.8230270708
 40
0.8401970064
 40
0.873963463
 40
0.8905406748
 40
0.9068966476
 40
0.9389024361
 40
0.9545479734
 40
0.9699475848
 40
1.0
 40
1.0
 40
1.0
 40
1.0
 10
14.9307229345
 20
12.5534697661
 30
0.0
 10
14.9302075492
 20
12.5518019787
 30
0.0
 10
14.9292712374
 20
12.5484654206
 30
0.0
 10
14.9281499477
 20
12.5434317266
 30
0.0
 10
14.9273260221
 20
12.5384214873
 30
0.0
 10
14.9268015452
 20
12.533447078
 30
0.0
 10
14.9265778802
 20
12.5285203479
 30
0.0
 10
14.9266556628
 20
12.5236532363
 30
0.0
 10
14.9270348084
 20
12.5188575232
 30
0.0
 10
14.9277145189
 20
12.5141448425
 30
0.0
 10
14.9286932018
 20
12.5095266497
 30
0.0
 10
14.9299685539
 20
12.5050141907
 30
0.0
 10
14.9315375554
 20
12.500618482
 30
0.0
 10
14.9333963943
 20
12.4963502477
 30
0.0
 10
14.9355405413
 20
12.4922198998
 30
0.0
 10
14.9379647819
 20
12.488237523
 30
0.0
 10
14.9406631739
 20
12.484412814
 30
0.0
 10
14.9436290797
 20
12.4807550467
 30
0.0
 10
14.9468552383
 20
12.4772730837
 30
0.0
 10
14.9503337617
 20
12.4739753429
 30
0.0
 10
14.9540561245
 20
12.4708697336
 30
0.0
 10
14.958013249
 20
12.4679636971
 30
0.0
 10
14.962195524
 20
12.4652641996
 30
0.0
 10
14.9665927821
 20
12.4627776598
 30
0.0
 10
14.9711943792
 20
12.4605099741
 30
0.0
 10
14.9759891541
 20
12.4584665528
 30
0.0
 10
14.9809657141
 20
12.456652199
 30
0.0
 10
14.9878814959
 20
12.4545275268
 30
0.0
 10
14.9950623435
 20
12.4529015978
 30
0.0
 10
15.0024420299
 20
12.4517632839
 30
0.0
 10
15.0100914875
 20
12.4509365245
 30
0.0
 10
15.0178964104
 20
12.4506153589
 30
0.0
 10
15.0258004934
 20
12.4507813615
 30
0.0
 10
15.0338830357
 20
12.4512806516
 30
0.0
 10
15.044092454
 20
12.4525284556
 30
0.0
 10
15.0563467083
 20
12.4549854893
 30
0.0
 10
15.0685544052
 20
12.4583866302
 30
0.0
 10
15.0805984191
 20
12.4626991488
 30
0.0
 10
15.0923638286
 20
12.4678816931
 30
0.0
 10
15.1037380777
 20
12.4738846972
 30
0.0
 10
15.1146125301
 20
12.4806508417
 30
0.0
 10
15.1248828103
 20
12.4881152336
 30
0.0
 10
15.1328907144
 20
12.4948874974
 30
0.0
 10
15.1389029449
 20
12.5005917705
 30
0.0
 10
15.1445780357
 20
12.506409267
 30
0.0
 10
15.1498476281
 20
12.5124885974
 30
0.0
 10
15.1546641205
 20
12.518800976
 30
0.0
 10
15.1590882526
 20
12.5251400691
 30
0.0
 10
15.1630395124
 20
12.5316670211
 30
0.0
 10
15.1664683925
 20
12.5383444231
 30
0.0
 10
15.1694780003
 20
12.5449656806
 30
0.0
 10
15.1713533604
 20
12.5500526171
 30
0.0
 10
15.1724093393
 20
12.5534697661
 30
0.0
  0
SPLINE
  5
394
100
AcDbEntity
  8
LAYER_FEATURE
100
AcDbSpline
 62
7
  6
CONTINUOUS
 70
0
 71
3
 72
15
 73
11
 74
0
 42
0.0000001
 43
0.0000001
 44
0.0000000001
 40
0.0
 40
0.0
 40
0.0
 40
0.0
 40
0.1108864753
 40
0.2251460801
 40
0.343171137
 40
0.4653026447
 40
0.5918302889
 40
0.7229972418
 40
0.859001074
 40
1.0
 40
1.0
 40
1.0
 40
1.0
 10
16.020426388
 20
12.2140759412
 30
0.0
 10
16.0211338842
 20
12.213763258
 30
0.0
 10
16.0225471672
 20
12.2130745644
 30
0.0
 10
16.0246225139
 20
12.2118780306
 30
0.0
 10
16.0266806318
 20
12.2105051812
 30
0.0
 10
16.0287191454
 20
12.2089576751
 30
0.0
 10
16.0307359831
 20
12.2072373329
 30
0.0
 10
16.0327289741
 20
12.2053460584
 30
0.0
 10
16.0346960108
 20
12.2032860581
 30
0.0
 10
16.0359654955
 20
12.2018283149
 30
0.0
 10
16.0365957642
 20
12.20107322
 30
0.0
  0
SPLINE
  5
395
100
AcDbEntity
  8
02___PRT_ALL_AXES
100
AcDbSpline
 62
7
  6
CONTINUOUS
 70
0
 71
3
 72
24
 73
20
 74
0
 42
0.0000001
 43
0.0000001
 44
0.0000000001
 40
0.0
 40
0.0
 40
0.0
 40
0.0
 40
0.054020716
 40
0.1081074875
 40
0.1625271931
 40
0.2175433869
 40
0.27341156
 40
0.330374799
 40
0.388660199
 40
0.4484761667
 40
0.510010435
 40
0.5734286951
 40
0.6058941202
 40
0.6388824302
 40
0.7064770388
 40
0.7763181575
 40
0.8484837843
 40
0.9230357862
 40
1.0
 40
1.0
 40
1.0
 40
1.0
 10
16.0338430091
 20
12.2164521315
 30
0.0
 10
16.0349417972
 20
12.2164521333
 30
0.0
 10
16.0371419341
 20
12.2163565369
 30
0.0
 10
16.040423489
 20
12.2159249584
 30
0.0
 10
16.0436751847
 20
12.2152058456
 30
0.0
 10
16.0468878116
 20
12.2142002836
 30
0.0
 10
16.0500528141
 20
12.2129099404
 30
0.0
 10
16.053161743
 20
12.2113368986
 30
0.0
 10
16.0562065104
 20
12.2094838558
 30
0.0
 10
16.0591793525
 20
12.2073539488
 30
0.0
 10
16.0620727199
 20
12.2049508301
 30
0.0
 10
16.0643935812
 20
12.2027413696
 30
0.0
 10
16.0662040948
 20
12.2008453345
 30
0.0
 10
16.0680115595
 20
12.1988306874
 30
0.0
 10
16.0702076281
 20
12.1961457907
 30
0.0
 10
16.0727163363
 20
12.1926961487
 30
0.0
 10
16.0751141975
 20
12.1889987871
 30
0.0
 10
16.0773959917
 20
12.1850606476
 30
0.0
 10
16.0788142669
 20
12.1823231095
 30
0.0
 10
16.0795039196
 20
12.1809177449
 30
0.0
  0
SPLINE
  5
396
100
AcDbEntity
  8
LAYER_FEATURE
100
AcDbSpline
 62
7
  6
CONTINUOUS
 70
0
 71
3
 72
30
 73
26
 74
0
 42
0.0000001
 43
0.0000001
 44
0.0000000001
 40
0.0
 40
0.0
 40
0.0
 40
0.0
 40
0.0272340165
 40
0.0549162714
 40
0.08304779
 40
0.1116284896
 40
0.1700953548
 40
0.1999737982
 40
0.2302563739
 40
0.291939604
 40
0.3233049558
 40
0.3549791916
 40
0.4191221173
 40
0.4515370406
 40
0.4841314166
 40
0.5497038243
 40
0.6155538646
 40
0.6813783909
 40
0.7468748968
 40
0.7794129905
 40
0.8117598581
 40
0.8757330672
 40
0.9073069537
 40
0.9385620119
 40
1.0
 40
1.0
 40
1.0
 40
1.0
 10
14.9105175071
 20
12.5330809592
 30
0.0
 10
14.9111723182
 20
12.5351999287
 30
0.0
 10
14.912606465
 20
12.53943844
 30
0.0
 10
14.9150987307
 20
12.5457284372
 30
0.0
 10
14.9179437763
 20
12.5519878563
 30
0.0
 10
14.9222297319
 20
12.5603342595
 30
0.0
 10
14.9271688739
 20
12.5684931087
 30
0.0
 10
14.9326990357
 20
12.5764169376
 30
0.0
 10
14.9387196392
 20
12.5843074318
 30
0.0
 10
14.9453066293
 20
12.5919065705
 30
0.0
 10
14.9524005184
 20
12.5991784687
 30
0.0
 10
14.9599156839
 20
12.6063087153
 30
0.0
 10
14.9678981595
 20
12.6130594556
 30
0.0
 10
14.9762914953
 20
12.6194006895
 30
0.0
 10
14.9850054204
 20
12.6254995359
 30
0.0
 10
14.9963567613
 20
12.6325624257
 30
0.0
 10
15.0105744146
 20
12.6400660289
 30
0.0
 10
15.0252809143
 20
12.6465441661
 30
0.0
 10
15.0378556105
 20
12.6510466625
 30
0.0
 10
15.048033297
 20
12.6540792841
 30
0.0
 10
15.0581944785
 20
12.656707345
 30
0.0
 10
15.0684178382
 20
12.6587571672
 30
0.0
 10
15.0786447765
 20
12.6602024255
 30
0.0
 10
15.0887143018
 20
12.6612276895
 30
0.0
 10
15.0962671017
 20
12.6615465724
 30
0.0
 10
15.1012703872
 20
12.6615465724
 30
0.0
  0
SPLINE
  5
397
100
AcDbEntity
  8
LAYER_FEATURE
100
AcDbSpline
 62
7
  6
CONTINUOUS
 70
0
 71
3
 72
24
 73
20
 74
0
 42
0.0000001
 43
0.0000001
 44
0.0000000001
 40
0.0
 40
0.0
 40
0.0
 40
0.0
 40
0.1405738267
 40
0.2091361048
 40
0.2764856811
 40
0.3426032629
 40
0.407485831
 40
0.4711465577
 40
0.5336159449
 40
0.594942294
 40
0.6551920459
 40
0.7144497289
 40
0.7728174869
 40
0.8304141048
 40
0.8873734762
 40
0.9156649839
 40
0.943853202
 40
0.971958076
 40
1.0
 40
1.0
 40
1.0
 40
1.0
 10
15.1012703872
 20
12.6615465724
 30
0.0
 10
15.1069437241
 20
12.6615465724
 30
0.0
 10
15.1153933884
 20
12.6611421511
 30
0.0
 10
15.1264668414
 20
12.6597365671
 30
0.0
 10
15.1344929767
 20
12.6582760988
 30
0.0
 10
15.1422807599
 20
12.6564053953
 30
0.0
 10
15.1498051353
 20
12.6541304034
 30
0.0
 10
15.1570413526
 20
12.6514583857
 30
0.0
 10
15.1639657041
 20
12.6483978896
 30
0.0
 10
15.1705554193
 20
12.6449587243
 30
0.0
 10
15.1767887823
 20
12.6411519363
 30
0.0
 10
15.1826451666
 20
12.636989816
 30
0.0
 10
15.1881051787
 20
12.6324857727
 30
0.0
 10
15.1931504624
 20
12.6276546914
 30
0.0
 10
15.1970045162
 20
12.6233588882
 30
0.0
 10
15.1998593368
 20
12.6197785489
 30
0.0
 10
15.2018825547
 20
12.6170278729
 30
0.0
 10
15.203790685
 20
12.6142084177
 30
0.0
 10
15.204986138
 20
12.612282593
 30
0.0
 10
15.2055638626
 20
12.6113094324
 30
0.0
  0
SPLINE
  5
398
100
AcDbEntity
  8
LAYER_FEATURE
100
AcDbSpline
 62
7
  6
CONTINUOUS
 70
0
 71
3
 72
57
 73
53
 74
0
 42
0.0000001
 43
0.0000001
 44
0.0000000001
 40
0.0
 40
0.0
 40
0.0
 40
0.0
 40
0.0300524152
 40
0.0454520266
 40
0.0610975639
 40
0.0931033524
 40
0.1094593252
 40
0.126036537
 40
0.1598029936
 40
0.1769729292
 40
0.1943119524
 40
0.2294248937
 40
0.2650062137
 40
0.3009016805
 40
0.3369491249
 40
0.3729826038
 40
0.4088365196
 40
0.44434974
 40
0.4793697828
 40
0.5137570392
 40
0.5306777525
 40
0.5473960809
 40
0.5801722473
 40
0.5962189267
 40
0.6120261568
 40
0.6428975506
 40
0.6579684873
 40
0.672795739
 40
0.687384294
 40
0.7017417566
 40
0.7158783936
 40
0.7298071193
 40
0.7435434776
 40
0.7571055814
 40
0.7705139493
 40
0.7837913078
 40
0.7969623512
 40
0.8100534097
 40
0.823092068
 40
0.836106752
 40
0.8491262776
 40
0.8621793828
 40
0.8752942632
 40
0.8884981225
 40
0.9018167815
 40
0.9152743134
 40
0.9288927104
 40
0.9426917575
 40
0.9566886547
 40
0.9708978728
 40
0.9853324985
 40
1.0
 40
1.0
 40
1.0
 40
1.0
 10
14.9307229345
 20
12.5534697661
 30
0.0
 10
14.9317789134
 20
12.5568869152
 30
0.0
 10
14.9336542736
 20
12.5619738517
 30
0.0
 10
14.9366638814
 20
12.5685951092
 30
0.0
 10
14.9400927614
 20
12.5752725111
 30
0.0
 10
14.9440440212
 20
12.5817994631
 30
0.0
 10
14.9484681533
 20
12.5881385563
 30
0.0
 10
14.9532846458
 20
12.5944509349
 30
0.0
 10
14.9585542381
 20
12.6005302653
 30
0.0
 10
14.9642293289
 20
12.6063477617
 30
0.0
 10
14.9702415594
 20
12.6120520349
 30
0.0
 10
14.9782494635
 20
12.6188242987
 30
0.0
 10
14.9885197437
 20
12.6262886906
 30
0.0
 10
14.9993941962
 20
12.6330548351
 30
0.0
 10
15.0107684452
 20
12.6390578392
 30
0.0
 10
15.0225338547
 20
12.6442403835
 30
0.0
 10
15.0345778686
 20
12.6485529021
 30
0.0
 10
15.0467855655
 20
12.6519540429
 30
0.0
 10
15.0590398199
 20
12.6544110767
 30
0.0
 10
15.0692492382
 20
12.6556588807
 30
0.0
 10
15.0773317804
 20
12.6561581708
 30
0.0
 10
15.0852358635
 20
12.6563241734
 30
0.0
 10
15.0930407863
 20
12.6560030078
 30
0.0
 10
15.100690244
 20
12.6551762484
 30
0.0
 10
15.1080699303
 20
12.6540379345
 30
0.0
 10
15.1152507779
 20
12.6524120055
 30
0.0
 10
15.1221665597
 20
12.6502873333
 30
0.0
 10
15.1271431198
 20
12.6484729795
 30
0.0
 10
15.1319378947
 20
12.6464295582
 30
0.0
 10
15.1365394918
 20
12.6441618724
 30
0.0
 10
15.1409367498
 20
12.6416753327
 30
0.0
 10
15.1451190248
 20
12.6389758352
 30
0.0
 10
15.1490761494
 20
12.6360697987
 30
0.0
 10
15.1527985121
 20
12.6329641894
 30
0.0
 10
15.1562770355
 20
12.6296664486
 30
0.0
 10
15.1595031941
 20
12.6261844856
 30
0.0
 10
15.1624690999
 20
12.6225267183
 30
0.0
 10
15.165167492
 20
12.6187020093
 30
0.0
 10
15.1675917325
 20
12.6147196325
 30
0.0
 10
15.1697358795
 20
12.6105892845
 30
0.0
 10
15.1715947184
 20
12.6063210503
 30
0.0
 10
15.1731637199
 20
12.6019253415
 30
0.0
 10
15.174439072
 20
12.5974128826
 30
0.0
 10
15.175417755
 20
12.5927946897
 30
0.0
 10
15.1760974654
 20
12.5880820091
 30
0.0
 10
15.1764766111
 20
12.583286296
 30
0.0
 10
15.1765543936
 20
12.5784191844
 30
0.0
 10
15.1763307286
 20
12.5734924543
 30
0.0
 10
15.1758062517
 20
12.568518045
 30
0.0
 10
15.1749823262
 20
12.5635078057
 30
0.0
 10
15.1738610364
 20
12.5584741117
 30
0.0
 10
15.1729247246
 20
12.5551375535
 30
0.0
 10
15.1724093393
 20
12.5534697661
 30
0.0
  0
SPLINE
  5
399
100
AcDbEntity
  8
LAYER_FEATURE
100
AcDbSpline
 62
7
  6
CONTINUOUS
 70
0
 71
3
 72
22
 73
18
 74
0
 42
0.0000001
 43
0.0000001
 44
0.0000000001
 40
0.0
 40
0.0
 40
0.0
 40
0.0
 40
0.1381197631
 40
0.2053664309
 40
0.2714549167
 40
0.336437138
 40
0.400372579
 40
0.4633278437
 40
0.5253764097
 40
0.5865986125
 40
0.6470813093
 40
0.7069174431
 40
0.7662055021
 40
0.8250488573
 40
0.8835549588
 40
0.9418344159
 40
1.0
 40
1.0
 40
1.0
 40
1.0
 10
16.2335293483
 20
12.3246582328
 30
0.0
 10
16.2392430763
 20
12.3130148793
 30
0.0
 10
16.2471161456
 20
12.2953833149
 30
0.0
 10
16.2560956263
 20
12.2715216439
 30
0.0
 10
16.2619345273
 20
12.2538321595
 30
0.0
 10
16.2669308021
 20
12.2362096091
 30
0.0
 10
16.2710797337
 20
12.218670336
 30
0.0
 10
16.2743771201
 20
12.2012312435
 30
0.0
 10
16.2768196062
 20
12.1839089941
 30
0.0
 10
16.2784046415
 20
12.1667202304
 30
0.0
 10
16.2791305249
 20
12.1496814911
 30
0.0
 10
16.2789963703
 20
12.1328092188
 30
0.0
 10
16.2780021129
 20
12.1161197242
 30
0.0
 10
16.2761485773
 20
12.0996292369
 30
0.0
 10
16.2734373999
 20
12.0833536179
 30
0.0
 10
16.2698713128
 20
12.0673093067
 30
0.0
 10
16.2669248063
 20
12.0567728065
 30
0.0
 10
16.2653122072
 20
12.051554415
 30
0.0
  0
SPLINE
  5
39A
100
AcDbEntity
  8
LAYER_FEATURE
100
AcDbSpline
 62
7
  6
CONTINUOUS
 70
0
 71
3
 72
80
 73
76
 74
0
 42
0.0000001
 43
0.0000001
 44
0.0000000001
 40
0.0
 40
0.0
 40
0.0
 40
0.0
 40
0.017178625
 40
0.0345301896
 40
0.0520439856
 40
0.0697095611
 40
0.0875157513
 40
0.105451206
 40
0.1235042502
 40
0.1416629551
 40
0.159915164
 40
0.1782485184
 40
0.1966504877
 40
0.2151083967
 40
0.2336094524
 40
0.2521407721
 40
0.2706894106
 40
0.2892423869
 40
0.3077867108
 40
0.3263094099
 40
0.3447975567
 40
0.3632382956
 40
0.3816188701
 40
0.3999266497
 40
0.4181491573
 40
0.4362740982
 40
0.4542893881
 40
0.4721831821
 40
0.4899439035
 40
0.5075602738
 40
0.5250213437
 40
0.5423165259
 40
0.5594356272
 40
0.5763688815
 40
0.5931069843
 40
0.6096411291
 40
0.6259630453
 40
0.6420650388
 40
0.6579400309
 40
0.673581601
 40
0.6889840307
 40
0.7041423508
 40
0.7190523912
 40
0.7337108317
 40
0.7481152531
 40
0.7622641923
 40
0.7761571984
 40
0.7897948916
 40
0.8031790229
 40
0.8163125314
 40
0.8291996012
 40
0.8418457167
 40
0.8542577138
 40
0.8603787793
 40
0.8664445248
 40
0.8784144197
 40
0.8901792221
 40
0.8959889949
 40
0.9017523402
 40
0.9131461931
 40
0.9243770779
 40
0.9299370835
 40
0.935462781
 40
0.9409564793
 40
0.9464205592
 40
0.9518574755
 40
0.9572697442
 40
0.9626599452
 40
0.9680307112
 40
0.9733847242
 40
0.9787247102
 40
0.9840534294
 40
0.9893736733
 40
0.9946882542
 40
1.0
 40
1.0
 40
1.0
 40
1.0
 10
15.1654312716
 20
13.652298995
 30
0.0
 10
15.1779827345
 20
13.652298995
 30
0.0
 10
15.203212823
 20
13.6520228163
 30
0.0
 10
15.2412213341
 20
13.6507956812
 30
0.0
 10
15.2795512492
 20
13.6487547374
 30
0.0
 10
15.3181622821
 20
13.6459021861
 30
0.0
 10
15.35701445
 20
13.6422409475
 30
0.0
 10
15.3960672445
 20
13.6377748542
 30
0.0
 10
15.4352800416
 20
13.6325085462
 30
0.0
 10
15.4746120228
 20
13.6264475121
 30
0.0
 10
15.5140222494
 20
13.6195980626
 30
0.0
 10
15.5534696998
 20
13.6119673272
 30
0.0
 10
15.5929133122
 20
13.6035632475
 30
0.0
 10
15.6323120269
 20
13.5943945673
 30
0.0
 10
15.6716248312
 20
13.5844708334
 30
0.0
 10
15.710810802
 20
13.5738023793
 30
0.0
 10
15.7498291473
 20
13.5624003114
 30
0.0
 10
15.7886392492
 20
13.5502764985
 30
0.0
 10
15.8272007057
 20
13.5374435587
 30
0.0
 10
15.8654733733
 20
13.5239148483
 30
0.0
 10
15.9034174119
 20
13.5097044546
 30
0.0
 10
15.9409933235
 20
13.4948271722
 30
0.0
 10
15.9781619936
 20
13.4792984877
 30
0.0
 10
16.0148847311
 20
13.4631345645
 30
0.0
 10
16.0511233084
 20
13.446352224
 30
0.0
 10
16.0868400048
 20
13.4289689348
 30
0.0
 10
16.1219976464
 20
13.4110027933
 30
0.0
 10
16.1565596411
 20
13.3924724988
 30
0.0
 10
16.190490017
 20
13.3733973351
 30
0.0
 10
16.2237534598
 20
13.3537971509
 30
0.0
 10
16.2563153491
 20
13.3336923369
 30
0.0
 10
16.2881418012
 20
13.313103814
 30
0.0
 10
16.3191996996
 20
13.2920530022
 30
0.0
 10
16.3494567277
 20
13.2705617982
 30
0.0
 10
16.378881402
 20
13.2486525526
 30
0.0
 10
16.4074431042
 20
13.2263480452
 30
0.0
 10
16.4351121165
 20
13.2036714635
 30
0.0
 10
16.4618596557
 20
13.180646382
 30
0.0
 10
16.4876578963
 20
13.1572967288
 30
0.0
 10
16.5124799984
 20
13.1336467625
 30
0.0
 10
16.5363001342
 20
13.1097210464
 30
0.0
 10
16.5590935137
 20
13.0855444205
 30
0.0
 10
16.5808364176
 20
13.0611419813
 30
0.0
 10
16.601506217
 20
13.036539052
 30
0.0
 10
16.6210813903
 20
13.0117611525
 30
0.0
 10
16.6395415435
 20
12.9868339748
 30
0.0
 10
16.6568674284
 20
12.9617833552
 30
0.0
 10
16.6730409604
 20
12.9366352506
 30
0.0
 10
16.6880452487
 20
12.9114157079
 30
0.0
 10
16.7018645844
 20
12.8861508702
 30
0.0
 10
16.7144845061
 20
12.860866815
 30
0.0
 10
16.7258916189
 20
12.835590037
 30
0.0
 10
16.7344160987
 20
12.8144565315
 30
0.0
 10
16.740608351
 20
12.797582672
 30
0.0
 10
16.7463330704
 20
12.7808856737
 30
0.0
 10
16.7527226749
 20
12.7600629376
 30
0.0
 10
16.7581186459
 20
12.7391533058
 30
0.0
 10
16.7617961139
 20
12.7225014075
 30
0.0
 10
16.7650249526
 20
12.7060329003
 30
0.0
 10
16.7682806438
 20
12.685539583
 30
0.0
 10
16.7704972734
 20
12.6650567526
 30
0.0
 10
16.7716268922
 20
12.6487889117
 30
0.0
 10
16.772153017
 20
12.6366852745
 30
0.0
 10
16.7723606675
 20
12.6246421288
 30
0.0
 10
16.7722497436
 20
12.6126625335
 30
0.0
 10
16.7718203289
 20
12.6007496409
 30
0.0
 10
16.7710724624
 20
12.588906559
 30
0.0
 10
16.7700063755
 20
12.5771363845
 30
0.0
 10
16.7686223309
 20
12.5654421937
 30
0.0
 10
16.7669206551
 20
12.5538270509
 30
0.0
 10
16.7649018445
 20
12.5422939839
 30
0.0
 10
16.7625663553
 20
12.5308460308
 30
0.0
 10
16.7599148456
 20
12.5194861456
 30
0.0
 10
16.756948011
 20
12.5082174233
 30
0.0
 10
16.7547601328
 20
12.5007667343
 30
0.0
 10
16.7536142805
 20
12.497058749
 30
0.0
  0
SPLINE
  5
39B
100
AcDbEntity
  8
LAYER_FEATURE
100
AcDbSpline
 62
7
  6
CONTINUOUS
 70
0
 71
3
 72
50
 73
46
 74
0
 42
0.0000001
 43
0.0000001
 44
0.0000000001
 40
0.0
 40
0.0
 40
0.0
 40
0.0
 40
0.0396641793
 40
0.0788606661
 40
0.1175661307
 40
0.1557597858
 40
0.1934216622
 40
0.2305336657
 40
0.2670793388
 40
0.3030440904
 40
0.3384152998
 40
0.3731824522
 40
0.4073372782
 40
0.4408738985
 40
0.4737889752
 40
0.5060818677
 40
0.5377547925
 40
0.5688129867
 40
0.5992648666
 40
0.6291221833
 40
0.6584001714
 40
0.6728285106
 40
0.6871194029
 40
0.7152990215
 40
0.7429671481
 40
0.7566197094
 40
0.7701560775
 40
0.7835806402
 40
0.7968980187
 40
0.8101130807
 40
0.8232309096
 40
0.8362568292
 40
0.8491963692
 40
0.8620552768
 40
0.874839498
 40
0.8875551653
 40
0.9002085963
 40
0.9128062638
 40
0.9253547993
 40
0.9378609614
 40
0.9503316297
 40
0.9627737816
 40
0.9751944743
 40
0.9876008274
 40
1.0
 40
1.0
 40
1.0
 40
1.0
 10
14.9887228555
 20
13.080470351
 30
0.0
 10
14.9757908711
 20
13.080470351
 30
0.0
 10
14.9500783624
 20
13.0801803703
 30
0.0
 10
14.9117668985
 20
13.0788586614
 30
0.0
 10
14.8739759953
 20
13.0766541252
 30
0.0
 10
14.8367486824
 20
13.0735693005
 30
0.0
 10
14.8001267883
 20
13.0696076004
 30
0.0
 10
14.7641516949
 20
13.0647734944
 30
0.0
 10
14.7288639642
 20
13.0590723926
 30
0.0
 10
14.6943034043
 20
13.0525106889
 30
0.0
 10
14.660508991
 20
13.0450957394
 30
0.0
 10
14.6275188334
 20
13.0368358513
 30
0.0
 10
14.5953701315
 20
13.0277402714
 30
0.0
 10
14.5640991371
 20
13.0178191736
 30
0.0
 10
14.5337411143
 20
13.0070836455
 30
0.0
 10
14.5043303055
 20
12.9955456756
 30
0.0
 10
14.4758998856
 20
12.9832181319
 30
0.0
 10
14.4484819638
 20
12.970114777
 30
0.0
 10
14.4221074187
 20
12.956250155
 30
0.0
 10
14.3968063672
 20
12.9416399062
 30
0.0
 10
14.3765424481
 20
12.9287946507
 30
0.0
 10
14.3609064582
 20
12.9181586334
 30
0.0
 10
14.3457986412
 20
12.9073908326
 30
0.0
 10
14.3276223765
 20
12.893500677
 30
0.0
 10
14.3102674524
 20
12.8789171954
 30
0.0
 10
14.2969984477
 20
12.8669223938
 30
0.0
 10
14.287394314
 20
12.8578045758
 30
0.0
 10
14.2780969774
 20
12.8485282472
 30
0.0
 10
14.2691090434
 20
12.8390959421
 30
0.0
 10
14.2604330359
 20
12.8295103785
 30
0.0
 10
14.2520714682
 20
12.8197742068
 30
0.0
 10
14.2440266677
 20
12.8098902222
 30
0.0
 10
14.2363009585
 20
12.7998611828
 30
0.0
 10
14.228896524
 20
12.7896899361
 30
0.0
 10
14.2218154611
 20
12.7793793638
 30
0.0
 10
14.2150598226
 20
12.7689323577
 30
0.0
 10
14.208631478
 20
12.7583519106
 30
0.0
 10
14.2025323238
 20
12.7476409777
 30
0.0
 10
14.1967640382
 20
12.7368026296
 30
0.0
 10
14.191328309
 20
12.7258399141
 30
0.0
 10
14.186226668
 20
12.7147559479
 30
0.0
 10
14.1814605587
 20
12.7035538897
 30
0.0
 10
14.1770313709
 20
12.6922368668
 30
0.0
 10
14.1729403431
 20
12.680808248
 30
0.0
 10
14.1704389122
 20
12.6731158496
 30
0.0
 10
14.1692453506
 20
12.6692534769
 30
0.0
  0
SPLINE
  5
39C
100
AcDbEntity
  8
LAYER_FEATURE
100
AcDbSpline
 62
7
  6
CONTINUOUS
 70
0
 71
3
 72
50
 73
46
 74
0
 42
0.0000001
 43
0.0000001
 44
0.0000000001
 40
0.0
 40
0.0
 40
0.0
 40
0.0
 40
0.0396641793
 40
0.0788606661
 40
0.1175661307
 40
0.1557597858
 40
0.1934216622
 40
0.2305336657
 40
0.2670793388
 40
0.3030440904
 40
0.3384152998
 40
0.3731824522
 40
0.4073372782
 40
0.4408738985
 40
0.4737889752
 40
0.5060818677
 40
0.5377547925
 40
0.5688129867
 40
0.5992648666
 40
0.6291221833
 40
0.6584001714
 40
0.6728285106
 40
0.6871194029
 40
0.7152990215
 40
0.7429671481
 40
0.7566197094
 40
0.7701560775
 40
0.7835806402
 40
0.7968980187
 40
0.8101130807
 40
0.8232309096
 40
0.8362568292
 40
0.8491963692
 40
0.8620552768
 40
0.874839498
 40
0.8875551653
 40
0.9002085963
 40
0.9128062638
 40
0.9253547993
 40
0.9378609614
 40
0.9503316297
 40
0.9627737816
 40
0.9751944743
 40
0.9876008274
 40
1.0
 40
1.0
 40
1.0
 40
1.0
 10
15.1654312716
 20
13.652298995
 30
0.0
 10
15.1524992872
 20
13.652298995
 30
0.0
 10
15.1267867784
 20
13.6520090143
 30
0.0
 10
15.0884753146
 20
13.6506873054
 30
0.0
 10
15.0506844114
 20
13.6484827692
 30
0.0
 10
15.0134570985
 20
13.6453979445
 30
0.0
 10
14.9768352044
 20
13.6414362445
 30
0.0
 10
14.940860111
 20
13.6366021385
 30
0.0
 10
14.9055723803
 20
13.6309010366
 30
0.0
 10
14.8710118204
 20
13.624339333
 30
0.0
 10
14.8372174071
 20
13.6169243834
 30
0.0
 10
14.8042272495
 20
13.6086644954
 30
0.0
 10
14.7720785476
 20
13.5995689154
 30
0.0
 10
14.7408075532
 20
13.5896478176
 30
0.0
 10
14.7104495304
 20
13.5789122895
 30
0.0
 10
14.6810387216
 20
13.5673743196
 30
0.0
 10
14.6526083017
 20
13.5550467759
 30
0.0
 10
14.6251903799
 20
13.541943421
 30
0.0
 10
14.5988158347
 20
13.5280787991
 30
0.0
 10
14.5735147832
 20
13.5134685502
 30
0.0
 10
14.5532508642
 20
13.5006232947
 30
0.0
 10
14.5376148743
 20
13.4899872774
 30
0.0
 10
14.5225070573
 20
13.4792194766
 30
0.0
 10
14.5043307925
 20
13.465329321
 30
0.0
 10
14.4869758685
 20
13.4507458394
 30
0.0
 10
14.4737068638
 20
13.4387510379
 30
0.0
 10
14.4641027301
 20
13.4296332198
 30
0.0
 10
14.4548053934
 20
13.4203568912
 30
0.0
 10
14.4458174595
 20
13.4109245861
 30
0.0
 10
14.437141452
 20
13.4013390225
 30
0.0
 10
14.4287798842
 20
13.3916028508
 30
0.0
 10
14.4207350838
 20
13.3817188662
 30
0.0
 10
14.4130093746
 20
13.3716898268
 30
0.0
 10
14.4056049401
 20
13.3615185801
 30
0.0
 10
14.3985238771
 20
13.3512080079
 30
0.0
 10
14.3917682387
 20
13.3407610018
 30
0.0
 10
14.3853398941
 20
13.3301805546
 30
0.0
 10
14.3792407399
 20
13.3194696217
 30
0.0
 10
14.3734724543
 20
13.3086312736
 30
0.0
 10
14.3680367251
 20
13.2976685581
 30
0.0
 10
14.3629350841
 20
13.2865845919
 30
0.0
 10
14.3581689748
 20
13.2753825337
 30
0.0
 10
14.353739787
 20
13.2640655108
 30
0.0
 10
14.3496487591
 20
13.252636892
 30
0.0
 10
14.3471473282
 20
13.2449444936
 30
0.0
 10
14.3459537667
 20
13.2410821209
 30
0.0
  0
SPLINE
  5
39D
100
AcDbEntity
  8
LAYER_FEATURE
100
AcDbSpline
 62
7
  6
CONTINUOUS
 70
0
 71
3
 72
98
 73
94
 74
0
 42
0.0000001
 43
0.0000001
 44
0.0000000001
 40
0.0
 40
0.0
 40
0.0
 40
0.0
 40
0.0182602464
 40
0.0367683487
 40
0.0555029711
 40
0.0744415806
 40
0.093560856
 40
0.1128366771
 40
0.13224428
 40
0.1517583577
 40
0.1713531724
 40
0.1910026617
 40
0.2106805455
 40
0.2303604308
 40
0.2500159171
 40
0.2696207003
 40
0.2891486785
 40
0.3085740576
 40
0.3278714587
 40
0.3470160268
 40
0.3659835424
 40
0.3847505356
 40
0.4032944039
 40
0.4215935334
 40
0.4396274261
 40
0.4573768317
 40
0.4748238871
 40
0.4834291671
 40
0.4919528735
 40
0.5003932287
 40
0.5087485763
 40
0.5170173733
 40
0.5251982127
 40
0.5332898106
 40
0.5412910297
 40
0.5492008709
 40
0.5570184894
 40
0.5647431971
 40
0.5723744668
 40
0.5873545447
 40
0.6019588994
 40
0.6161899235
 40
0.623167643
 40
0.6300544547
 40
0.643559391
 40
0.6501819924
 40
0.6567201619
 40
0.6695509145
 40
0.6758501743
 40
0.6820754496
 40
0.6882299963
 40
0.6943173262
 40
0.7003412082
 40
0.7063056555
 40
0.7122149281
 40
0.7180735126
 40
0.7238861202
 40
0.729657664
 40
0.7353932473
 40
0.7410981418
 40
0.746777766
 40
0.7524376627
 40
0.758083471
 40
0.7637209018
 40
0.7693557073
 40
0.7749936533
 40
0.78064049
 40
0.7863019222
 40
0.7919835824
 40
0.7976910027
 40
0.8034295892
 40
0.8092046005
 40
0.8150211216
 40
0.8208840514
 40
0.8267980775
 40
0.832767671
 40
0.8387970662
 40
0.8448902577
 40
0.8510509902
 40
0.8572827521
 40
0.8699705388
 40
0.8829779938
 40
0.896323788
 40
0.9100226118
 40
0.9240853401
 40
0.9385192323
 40
0.9533281522
 40
0.9608740286
 40
0.9685136718
 40
0.9762467118
 40
0.9840726071
 40
0.9919906577
 40
1.0
 40
1.0
 40
1.0
 40
1.0
 10
15.0307497822
 20
13.0395096963
 30
0.0
 10
15.046640502
 20
13.0395096963
 30
0.0
 10
15.0786395416
 20
13.0390239404
 30
0.0
 10
15.1268988103
 20
13.0368761256
 30
0.0
 10
15.1756660666
 20
13.0333082786
 30
0.0
 10
15.2248436063
 20
13.0283274901
 30
0.0
 10
15.2743335349
 20
13.0219437158
 30
0.0
 10
15.3240371822
 20
13.0141696749
 30
0.0
 10
15.3738554765
 20
13.0050208703
 30
0.0
 10
15.4236891003
 20
12.9945155398
 30
0.0
 10
15.4734387015
 20
12.982674628
 30
0.0
 10
15.5230050901
 20
12.9695217415
 30
0.0
 10
15.572289439
 20
12.9550831058
 30
0.0
 10
15.6211934818
 20
12.9393875104
 30
0.0
 10
15.6696197106
 20
12.9224662506
 30
0.0
 10
15.7174715715
 20
12.9043530654
 30
0.0
 10
15.7646536582
 20
12.8850840684
 30
0.0
 10
15.8110719038
 20
12.8646976761
 30
0.0
 10
15.856633769
 20
12.8432345289
 30
0.0
 10
15.901248428
 20
12.8207374098
 30
0.0
 10
15.9448269507
 20
12.7972511556
 30
0.0
 10
15.9872824795
 20
12.7728225699
 30
0.0
 10
16.0285304125
 20
12.7475003184
 30
0.0
 10
16.0684885363
 20
12.7213348547
 30
0.0
 10
16.1070773192
 20
12.6943782202
 30
0.0
 10
16.1442195957
 20
12.6666842879
 30
0.0
 10
16.174039905
 20
12.6429296327
 30
0.0
 10
16.1971003251
 20
12.6235994844
 30
0.0
 10
16.2139100939
 20
12.6090185223
 30
0.0
 10
16.23030448
 20
12.5942956376
 30
0.0
 10
16.2462753785
 20
12.5794381515
 30
0.0
 10
16.2618147758
 20
12.5644534441
 30
0.0
 10
16.27691496
 20
12.5493490252
 30
0.0
 10
16.2915683596
 20
12.5341323811
 30
0.0
 10
16.3057676946
 20
12.5188111333
 30
0.0
 10
16.3195058635
 20
12.5033928826
 30
0.0
 10
16.3327759956
 20
12.4878853549
 30
0.0
 10
16.3455715691
 20
12.4722961628
 30
0.0
 10
16.3618891483
 20
12.4515415847
 30
0.0
 10
16.3810856986
 20
12.4254433874
 30
0.0
 10
16.4022729197
 20
12.3937262739
 30
0.0
 10
16.418337659
 20
12.3670038708
 30
0.0
 10
16.4301330444
 20
12.3455847351
 30
0.0
 10
16.4410817251
 20
12.3244302376
 30
0.0
 10
16.4510618649
 20
12.3031297729
 30
0.0
 10
16.4600155305
 20
12.281718315
 30
0.0
 10
16.4681421381
 20
12.2606073597
 30
0.0
 10
16.4752524336
 20
12.239414829
 30
0.0
 10
16.4812905796
 20
12.2181890366
 30
0.0
 10
16.4852428081
 20
12.2024186113
 30
0.0
 10
16.4886439073
 20
12.1867089549
 30
0.0
 10
16.4914921839
 20
12.1710676864
 30
0.0
 10
16.4937861935
 20
12.1555026863
 30
0.0
 10
16.4955246812
 20
12.1400217107
 30
0.0
 10
16.4967068047
 20
12.1246325213
 30
0.0
 10
16.4973318451
 20
12.1093428175
 30
0.0
 10
16.4973995162
 20
12.0941602712
 30
0.0
 10
16.4969096837
 20
12.0790925
 30
0.0
 10
16.4958625873
 20
12.0641470747
 30
0.0
 10
16.4942587096
 20
12.0493315093
 30
0.0
 10
16.4920988052
 20
12.0346532629
 30
0.0
 10
16.4893839807
 20
12.0201197194
 30
0.0
 10
16.4861155169
 20
12.0057382134
 30
0.0
 10
16.4822951253
 20
11.9915159743
 30
0.0
 10
16.4779246425
 20
11.977460191
 30
0.0
 10
16.4730063456
 20
11.963577923
 30
0.0
 10
16.467542661
 20
11.9498761817
 30
0.0
 10
16.4615363907
 20
11.9363618501
 30
0.0
 10
16.4549905666
 20
11.9230417277
 30
0.0
 10
16.4479084936
 20
11.9099225151
 30
0.0
 10
16.4402937985
 20
11.8970107737
 30
0.0
 10
16.4321502867
 20
11.8843130087
 30
0.0
 10
16.4234821469
 20
11.8718355323
 30
0.0
 10
16.4142936992
 20
11.8595846301
 30
0.0
 10
16.404589648
 20
11.847566371
 30
0.0
 10
16.3943748477
 20
11.8357867892
 30
0.0
 10
16.3836544706
 20
11.824251718
 30
0.0
 10
16.3724339402
 20
11.8129669354
 30
0.0
 10
16.3607187575
 20
11.8019379525
 30
0.0
 10
16.3443503563
 20
11.7874957714
 30
0.0
 10
16.322650657
 20
11.7701132749
 30
0.0
 10
16.2948915676
 20
11.7504917065
 30
0.0
 10
16.2653125485
 20
11.7320201185
 30
0.0
 10
16.2339736911
 20
11.7147350584
 30
0.0
 10
16.2009373339
 20
11.6986698898
 30
0.0
 10
16.1662698175
 20
11.6838560812
 30
0.0
 10
16.136268121
 20
11.6726489196
 30
0.0
 10
16.1115281013
 20
11.6643217492
 30
0.0
 10
16.0924917043
 20
11.6583665648
 30
0.0
 10
16.0731007613
 20
11.6527440053
 30
0.0
 10
16.0533647754
 20
11.6474567939
 30
0.0
 10
16.0332937163
 20
11.6425076305
 30
0.0
 10
16.0197729858
 20
11.6394524865
 30
0.0
 10
16.0129600916
 20
11.6379808888
 30
0.0
  0
SPLINE
  5
39E
100
AcDbEntity
  8
LAYER_FEATURE
100
AcDbSpline
 62
7
  6
CONTINUOUS
 70
0
 71
3
 72
71
 73
67
 74
0
 42
0.0000001
 43
0.0000001
 44
0.0000000001
 40
0.0
 40
0.0
 40
0.0
 40
0.0
 40
0.0204923133
 40
0.0407764606
 40
0.0608426997
 40
0.0806830388
 40
0.1002893764
 40
0.1196542494
 40
0.1387707831
 40
0.1576326581
 40
0.1762341999
 40
0.1945704004
 40
0.2126369512
 40
0.2304302886
 40
0.2479476434
 40
0.2651870762
 40
0.2821475192
 40
0.29882883
 40
0.315231841
 40
0.3313583973
 40
0.3472114056
 40
0.3627948898
 40
0.3781140307
 40
0.3931752026
 40
0.4079860161
 40
0.4225553559
 40
0.4368933976
 40
0.4510116215
 40
0.4649228226
 40
0.4786410998
 40
0.4921818233
 40
0.5055615908
 40
0.5187981683
 40
0.5319103993
 40
0.5449180954
 40
0.5578419103
 40
0.5707031918
 40
0.583523814
 40
0.5963259982
 40
0.6091321249
 40
0.6219645405
 40
0.6348453654
 40
0.6477963087
 40
0.6608384908
 40
0.6739922848
 40
0.6872771769
 40
0.7007116421
 40
0.7143130413
 40
0.7280975481
 40
0.7420800916
 40
0.7562743109
 40
0.7706925375
 40
0.7853457941
 40
0.800243801
 40
0.8153949865
 40
0.830806523
 40
0.8464843637
 40
0.8624332756
 40
0.8786568802
 40
0.8951577082
 40
0.9119372458
 40
0.9289959722
 40
0.9463334131
 40
0.9639481925
 40
0.9818380744
 40
1.0
 40
1.0
 40
1.0
 40
1.0
 10
15.0307497822
 20
13.0395096963
 30
0.0
 10
15.0204852058
 20
13.0395096963
 30
0.0
 10
15.0000597139
 20
13.039309343
 30
0.0
 10
14.9695953115
 20
13.0383977227
 30
0.0
 10
14.939482019
 20
13.0368771863
 30
0.0
 10
14.9097458857
 20
13.0347490951
 30
0.0
 10
14.8804120464
 20
13.0320152091
 30
0.0
 10
14.8515055678
 20
13.0286778696
 30
0.0
 10
14.8230510824
 20
13.0247399156
 30
0.0
 10
14.7950728387
 20
13.0202046676
 30
0.0
 10
14.7675946823
 20
13.0150759832
 30
0.0
 10
14.7406400244
 20
13.009358222
 30
0.0
 10
14.7142318349
 20
13.0030562261
 30
0.0
 10
14.6883926196
 20
12.9961753226
 30
0.0
 10
14.6631443899
 20
12.9887213563
 30
0.0
 10
14.638508656
 20
12.9807006422
 30
0.0
 10
14.6145064151
 20
12.9721199552
 30
0.0
 10
14.5911581234
 20
12.9629865499
 30
0.0
 10
14.5684836741
 20
12.9533081619
 30
0.0
 10
14.5465023986
 20
12.9430929673
 30
0.0
 10
14.5252330538
 20
12.9323495753
 30
0.0
 10
14.5046937846
 20
12.9210870651
 30
0.0
 10
14.4849021234
 20
12.9093149485
 30
0.0
 10
14.4658749907
 20
12.8970431498
 30
0.0
 10
14.4476286765
 20
12.8842820095
 30
0.0
 10
14.430178803
 20
12.8710423117
 30
0.0
 10
14.4135403429
 20
12.8573352351
 30
0.0
 10
14.3977276167
 20
12.8431723464
 30
0.0
 10
14.3827542534
 20
12.8285656253
 30
0.0
 10
14.3686331764
 20
12.813527457
 30
0.0
 10
14.3553766199
 20
12.7980706013
 30
0.0
 10
14.3429961181
 20
12.7822081916
 30
0.0
 10
14.3315024419
 20
12.7659537662
 30
0.0
 10
14.3209056178
 20
12.7493212298
 30
0.0
 10
14.3112149277
 20
12.7323248397
 30
0.0
 10
14.3024388749
 20
12.7149792084
 30
0.0
 10
14.2945851294
 20
12.697299305
 30
0.0
 10
14.2876605642
 20
12.6793004105
 30
0.0
 10
14.2816712461
 20
12.6609981024
 30
0.0
 10
14.2766223761
 20
12.6424082514
 30
0.0
 10
14.2725182908
 20
12.6235469872
 30
0.0
 10
14.269362495
 20
12.6044306656
 30
0.0
 10
14.2671576544
 20
12.5850758508
 30
0.0
 10
14.2659055369
 20
12.5654992984
 30
0.0
 10
14.2656070736
 20
12.5457179219
 30
0.0
 10
14.2662623763
 20
12.525748776
 30
0.0
 10
14.267870718
 20
12.5056090431
 30
0.0
 10
14.2704305147
 20
12.4853160114
 30
0.0
 10
14.2739393902
 20
12.4648870635
 30
0.0
 10
14.2783941828
 20
12.4443396694
 30
0.0
 10
14.2837909028
 20
12.4236913669
 30
0.0
 10
14.2901247645
 20
12.4029597523
 30
0.0
 10
14.2973902198
 20
12.382162476
 30
0.0
 10
14.3055809533
 20
12.3613172346
 30
0.0
 10
14.3146898411
 20
12.340441742
 30
0.0
 10
14.3247090086
 20
12.3195537338
 30
0.0
 10
14.3356298391
 20
12.2986709592
 30
0.0
 10
14.3474429521
 20
12.2778111589
 30
0.0
 10
14.3601381994
 20
12.2569920441
 30
0.0
 10
14.3737047111
 20
12.2362313006
 30
0.0
 10
14.3881308973
 20
12.2155465783
 30
0.0
 10
14.4034044228
 20
12.1949554483
 30
0.0
 10
14.419512224
 20
12.1744754199
 30
0.0
 10
14.4364405967
 20
12.1541238685
 30
0.0
 10
14.4541749582
 20
12.1339182716
 30
0.0
 10
14.4664338378
 20
12.1206553655
 30
0.0
 10
14.4726910698
 20
12.1140517533
 30
0.0
  0
SPLINE
  5
39F
100
AcDbEntity
  8
LAYER_FEATURE
100
AcDbSpline
 62
7
  6
CONTINUOUS
 70
0
 71
3
 72
80
 73
76
 74
0
 42
0.0000001
 43
0.0000001
 44
0.0000000001
 40
0.0
 40
0.0
 40
0.0
 40
0.0
 40
0.017178625
 40
0.0345301896
 40
0.0520439856
 40
0.0697095611
 40
0.0875157513
 40
0.105451206
 40
0.1235042502
 40
0.1416629551
 40
0.159915164
 40
0.1782485184
 40
0.1966504877
 40
0.2151083967
 40
0.2336094524
 40
0.2521407721
 40
0.2706894106
 40
0.2892423869
 40
0.3077867108
 40
0.3263094099
 40
0.3447975567
 40
0.3632382956
 40
0.3816188701
 40
0.3999266497
 40
0.4181491573
 40
0.4362740982
 40
0.4542893881
 40
0.4721831821
 40
0.4899439035
 40
0.5075602738
 40
0.5250213437
 40
0.5423165259
 40
0.5594356272
 40
0.5763688815
 40
0.5931069843
 40
0.6096411291
 40
0.6259630453
 40
0.6420650388
 40
0.6579400309
 40
0.673581601
 40
0.6889840307
 40
0.7041423508
 40
0.7190523912
 40
0.7337108317
 40
0.7481152531
 40
0.7622641923
 40
0.7761571984
 40
0.7897948916
 40
0.8031790229
 40
0.8163125314
 40
0.8291996012
 40
0.8418457167
 40
0.8542577138
 40
0.8603787793
 40
0.8664445248
 40
0.8784144197
 40
0.8901792221
 40
0.8959889949
 40
0.9017523402
 40
0.9131461931
 40
0.9243770779
 40
0.9299370835
 40
0.935462781
 40
0.9409564793
 40
0.9464205592
 40
0.9518574755
 40
0.9572697442
 40
0.9626599452
 40
0.9680307112
 40
0.9733847242
 40
0.9787247102
 40
0.9840534294
 40
0.9893736733
 40
0.9946882542
 40
1.0
 40
1.0
 40
1.0
 40
1.0
 10
14.9887228555
 20
13.080470351
 30
0.0
 10
15.0012743184
 20
13.080470351
 30
0.0
 10
15.026504407
 20
13.0801941723
 30
0.0
 10
15.064512918
 20
13.0789670372
 30
0.0
 10
15.1028428331
 20
13.0769260933
 30
0.0
 10
15.141453866
 20
13.0740735421
 30
0.0
 10
15.1803060339
 20
13.0704123035
 30
0.0
 10
15.2193588284
 20
13.0659462102
 30
0.0
 10
15.2585716255
 20
13.0606799021
 30
0.0
 10
15.2979036068
 20
13.054618868
 30
0.0
 10
15.3373138333
 20
13.0477694186
 30
0.0
 10
15.3767612838
 20
13.0401386832
 30
0.0
 10
15.4162048961
 20
13.0317346035
 30
0.0
 10
15.4556036108
 20
13.0225659233
 30
0.0
 10
15.4949164151
 20
13.0126421894
 30
0.0
 10
15.5341023859
 20
13.0019737353
 30
0.0
 10
15.5731207312
 20
12.9905716674
 30
0.0
 10
15.6119308331
 20
12.9784478545
 30
0.0
 10
15.6504922896
 20
12.9656149147
 30
0.0
 10
15.6887649572
 20
12.9520862042
 30
0.0
 10
15.7267089958
 20
12.9378758106
 30
0.0
 10
15.7642849075
 20
12.9229985282
 30
0.0
 10
15.8014535775
 20
12.9074698437
 30
0.0
 10
15.838176315
 20
12.8913059205
 30
0.0
 10
15.8744148923
 20
12.87452358
 30
0.0
 10
15.9101315887
 20
12.8571402908
 30
0.0
 10
15.9452892303
 20
12.8391741493
 30
0.0
 10
15.979851225
 20
12.8206438547
 30
0.0
 10
16.0137816009
 20
12.8015686911
 30
0.0
 10
16.0470450437
 20
12.7819685069
 30
0.0
 10
16.079606933
 20
12.7618636929
 30
0.0
 10
16.1114333851
 20
12.74127517
 30
0.0
 10
16.1424912835
 20
12.7202243582
 30
0.0
 10
16.1727483116
 20
12.6987331541
 30
0.0
 10
16.2021729859
 20
12.6768239085
 30
0.0
 10
16.2307346881
 20
12.6545194011
 30
0.0
 10
16.2584037004
 20
12.6318428195
 30
0.0
 10
16.2851512396
 20
12.6088177379
 30
0.0
 10
16.3109494802
 20
12.5854680847
 30
0.0
 10
16.3357715823
 20
12.5618181184
 30
0.0
 10
16.3595917181
 20
12.5378924024
 30
0.0
 10
16.3823850976
 20
12.5137157764
 30
0.0
 10
16.4041280015
 20
12.4893133373
 30
0.0
 10
16.4247978009
 20
12.464710408
 30
0.0
 10
16.4443729743
 20
12.4399325085
 30
0.0
 10
16.4628331274
 20
12.4150053308
 30
0.0
 10
16.4801590123
 20
12.3899547112
 30
0.0
 10
16.4963325443
 20
12.3648066065
 30
0.0
 10
16.5113368326
 20
12.3395870639
 30
0.0
 10
16.5251561683
 20
12.3143222261
 30
0.0
 10
16.53777609
 20
12.289038171
 30
0.0
 10
16.5491832028
 20
12.263761393
 30
0.0
 10
16.5577076827
 20
12.2426278875
 30
0.0
 10
16.5638999349
 20
12.225754028
 30
0.0
 10
16.5696246544
 20
12.2090570297
 30
0.0
 10
16.5760142588
 20
12.1882342935
 30
0.0
 10
16.5814102298
 20
12.1673246618
 30
0.0
 10
16.5850876978
 20
12.1506727635
 30
0.0
 10
16.5883165365
 20
12.1342042563
 30
0.0
 10
16.5915722277
 20
12.1137109389
 30
0.0
 10
16.5937888573
 20
12.0932281086
 30
0.0
 10
16.5949184761
 20
12.0769602677
 30
0.0
 10
16.5954446009
 20
12.0648566305
 30
0.0
 10
16.5956522514
 20
12.0528134848
 30
0.0
 10
16.5955413275
 20
12.0408338895
 30
0.0
 10
16.5951119128
 20
12.0289209969
 30
0.0
 10
16.5943640463
 20
12.017077915
 30
0.0
 10
16.5932979595
 20
12.0053077405
 30
0.0
 10
16.5919139148
 20
11.9936135497
 30
0.0
 10
16.590212239
 20
11.9819984069
 30
0.0
 10
16.5881934284
 20
11.9704653399
 30
0.0
 10
16.5858579392
 20
11.9590173868
 30
0.0
 10
16.5832064295
 20
11.9476575015
 30
0.0
 10
16.5802395949
 20
11.9363887792
 30
0.0
 10
16.5780517168
 20
11.9289380903
 30
0.0
 10
16.5769058644
 20
11.925230105
 30
0.0
  0
SPLINE
  5
3A0
100
AcDbEntity
  8
LAYER_FEATURE
100
AcDbSpline
 62
7
  6
CONTINUOUS
 70
0
 71
3
 72
10
 73
6
 74
0
 42
0.0000001
 43
0.0000001
 44
0.0000000001
 40
0.0
 40
0.0
 40
0.0
 40
0.0
 40
0.2690541646
 40
0.5253973193
 40
1.0
 40
1.0
 40
1.0
 40
1.0
 10
14.5536971117
 20
13.1310250809
 30
0.0
 10
14.5532951285
 20
13.1309281136
 30
0.0
 10
14.5525166077
 20
13.1307091465
 30
0.0
 10
14.5510766076
 20
13.1301700956
 30
0.0
 10
14.5500781628
 20
13.1296327199
 30
0.0
 10
14.5494814484
 20
13.1292132071
 30
0.0
  0
SPLINE
  5
3A1
100
AcDbEntity
  8
LAYER_FEATURE
100
AcDbSpline
 62
7
  6
CONTINUOUS
 70
0
 71
3
 72
15
 73
11
 74
0
 42
0.0000001
 43
0.0000001
 44
0.0000000001
 40
0.0
 40
0.0
 40
0.0
 40
0.0
 40
0.1395113115
 40
0.2758109946
 40
0.408326487
 40
0.5365707285
 40
0.6601243557
 40
0.7786638017
 40
0.891984934
 40
1.0
 40
1.0
 40
1.0
 40
1.0
 10
14.5923655612
 20
13.2128288505
 30
0.0
 10
14.5918806791
 20
13.2128823749
 30
0.0
 10
14.5909191297
 20
13.2129634418
 30
0.0
 10
14.5894912647
 20
13.2130059304
 30
0.0
 10
14.5881025864
 20
13.2129677482
 30
0.0
 10
14.5867631149
 20
13.2128491773
 30
0.0
 10
14.5854824184
 20
13.2126510106
 30
0.0
 10
14.5842695956
 20
13.2123746203
 30
0.0
 10
14.5831334468
 20
13.2120219185
 30
0.0
 10
14.5824151682
 20
13.2117304493
 30
0.0
 10
14.5820723674
 20
13.21157189
 30
0.0
  0
SPLINE
  5
3A2
100
AcDbEntity
  8
LAYER_FEATURE
100
AcDbSpline
 62
7
  6
CONTINUOUS
 70
0
 71
3
 72
15
 73
11
 74
0
 42
0.0000001
 43
0.0000001
 44
0.0000000001
 40
0.0
 40
0.0
 40
0.0
 40
0.0
 40
0.1358138206
 40
0.269635655
 40
0.4008447394
 40
0.5288810499
 40
0.6532258975
 40
0.7734260408
 40
0.8891140505
 40
1.0
 40
1.0
 40
1.0
 40
1.0
 10
14.6470854492
 20
13.2858127405
 30
0.0
 10
14.6465930671
 20
13.2859122217
 30
0.0
 10
14.6456104614
 20
13.2860856252
 30
0.0
 10
14.6441385941
 20
13.2862688234
 30
0.0
 10
14.6426877439
 20
13.2863722898
 30
0.0
 10
14.6412684026
 20
13.2863952952
 30
0.0
 10
14.6398907348
 20
13.286337641
 30
0.0
 10
14.6385645733
 20
13.2861997388
 30
0.0
 10
14.6372995269
 20
13.285982538
 30
0.0
 10
14.6364850091
 20
13.2857814528
 30
0.0
 10
14.6360911081
 20
13.2856672183
 30
0.0
  0
SPLINE
  5
3A3
100
AcDbEntity
  8
LAYER_FEATURE
100
AcDbSpline
 62
7
  6
CONTINUOUS
 70
0
 71
3
 72
15
 73
11
 74
0
 42
0.0000001
 43
0.0000001
 44
0.0000000001
 40
0.0
 40
0.0
 40
0.0
 40
0.0
 40
0.1320203257
 40
0.2632218196
 40
0.3929652451
 40
0.520652148
 40
0.6457050191
 40
0.7675886988
 40
0.885828935
 40
1.0
 40
1.0
 40
1.0
 40
1.0
 10
14.721780874
 20
13.3488748582
 30
0.0
 10
14.7212919791
 20
13.3490184577
 30
0.0
 10
14.720310092
 20
13.3492811198
 30
0.0
 10
14.7188269019
 20
13.3496009524
 30
0.0
 10
14.7173460605
 20
13.349843754
 30
0.0
 10
14.7158782922
 20
13.3500077894
 30
0.0
 10
14.7144341264
 20
13.3500918562
 30
0.0
 10
14.7130239061
 20
13.3500953675
 30
0.0
 10
14.7116578494
 20
13.3500182665
 30
0.0
 10
14.7107664417
 20
13.3499114947
 30
0.0
 10
14.710330981
 20
13.3498440249
 30
0.0
  0
SPLINE
  5
3A4
100
AcDbEntity
  8
LAYER_FEATURE
100
AcDbSpline
 62
7
  6
CONTINUOUS
 70
0
 71
3
 72
11
 73
7
 74
0
 42
0.0000001
 43
0.0000001
 44
0.0000000001
 40
0.0
 40
0.0
 40
0.0
 40
0.0
 40
0.2473228772
 40
0.497019351
 40
0.748210147
 40
1.0
 40
1.0
 40
1.0
 40
1.0
 10
14.7358240379
 20
13.3434355001
 30
0.0
 10
14.7347077882
 20
13.3439821882
 30
0.0
 10
14.7324400687
 20
13.3450314909
 30
0.0
 10
14.7289620477
 20
13.346463401
 30
0.0
 10
14.7254056794
 20
13.3477551129
 30
0.0
 10
14.722994967
 20
13.3485182514
 30
0.0
 10
14.721780874
 20
13.3488748582
 30
0.0
  0
SPLINE
  5
3A5
100
AcDbEntity
  8
LAYER_FEATURE
100
AcDbSpline
 62
7
  6
CONTINUOUS
 70
0
 71
3
 72
15
 73
11
 74
0
 42
0.0000001
 43
0.0000001
 44
0.0000000001
 40
0.0
 40
0.0
 40
0.0
 40
0.0
 40
0.1243031687
 40
0.2498641858
 40
0.3761535456
 40
0.5026434688
 40
0.6287971247
 40
0.7540846539
 40
0.8779861793
 40
1.0
 40
1.0
 40
1.0
 40
1.0
 10
14.7358240379
 20
13.3434355001
 30
0.0
 10
14.7369442501
 20
13.3428868712
 30
0.0
 10
14.7392227825
 20
13.3418378707
 30
0.0
 10
14.7427222139
 20
13.3404197641
 30
0.0
 10
14.7463035544
 20
13.3391557459
 30
0.0
 10
14.7499442101
 20
13.3380537672
 30
0.0
 10
14.7536214209
 20
13.3371207352
 30
0.0
 10
14.7573121496
 20
13.3363624873
 30
0.0
 10
14.7609931589
 20
13.3357837941
 30
0.0
 10
14.7634476273
 20
13.335517694
 30
0.0
 10
14.764667792
 20
13.335416281
 30
0.0
  0
SPLINE
  5
3A6
100
AcDbEntity
  8
LAYER_FEATURE
100
AcDbSpline
 62
7
  6
CONTINUOUS
 70
0
 71
3
 72
15
 73
11
 74
0
 42
0.0000001
 43
0.0000001
 44
0.0000000001
 40
0.0
 40
0.0
 40
0.0
 40
0.0
 40
0.1282356695
 40
0.2567710006
 40
0.3849702285
 40
0.5122210301
 40
0.6379150358
 40
0.7614674366
 40
0.8823348416
 40
1.0
 40
1.0
 40
1.0
 40
1.0
 10
14.8147832632
 20
13.4006064998
 30
0.0
 10
14.8143088626
 20
13.4007913727
 30
0.0
 10
14.813349664
 20
13.4011381862
 30
0.0
 10
14.8118881148
 20
13.4015875441
 30
0.0
 10
14.810410176
 20
13.4019642836
 30
0.0
 10
14.808926561
 20
13.402265698
 30
0.0
 10
14.8074479217
 20
13.4024895998
 30
0.0
 10
14.8059848714
 20
13.4026344031
 30
0.0
 10
14.8045480121
 20
13.4026990339
 30
0.0
 10
14.8036003634
 20
13.402688213
 30
0.0
 10
14.8031335901
 20
13.402668706
 30
0.0
  0
SPLINE
  5
3A7
100
AcDbEntity
  8
LAYER_FEATURE
100
AcDbSpline
 62
7
  6
CONTINUOUS
 70
0
 71
3
 72
11
 73
7
 74
0
 42
0.0000001
 43
0.0000001
 44
0.0000000001
 40
0.0
 40
0.0
 40
0.0
 40
0.0
 40
0.2445944546
 40
0.4933532864
 40
0.7454447587
 40
1.0
 40
1.0
 40
1.0
 40
1.0
 10
14.8280297662
 20
13.3940838343
 30
0.0
 10
14.8270011041
 20
13.3947120039
 30
0.0
 10
14.8248959488
 20
13.3959300368
 30
0.0
 10
14.8216355416
 20
13.3976246803
 30
0.0
 10
14.8182595043
 20
13.3991954598
 30
0.0
 10
14.8159520334
 20
13.4001510327
 30
0.0
 10
14.8147832632
 20
13.4006064998
 30
0.0
  0
SPLINE
  5
3A8
100
AcDbEntity
  8
LAYER_FEATURE
100
AcDbSpline
 62
7
  6
CONTINUOUS
 70
0
 71
3
 72
22
 73
18
 74
0
 42
0.0000001
 43
0.0000001
 44
0.0000000001
 40
0.0
 40
0.0
 40
0.0
 40
0.0
 40
0.0611270483
 40
0.1231613999
 40
0.1859463417
 40
0.2493388899
 40
0.3131830656
 40
0.3773201844
 40
0.5058125276
 40
0.5698648614
 40
0.633568052
 40
0.6967649577
 40
0.7593023953
 40
0.8210322998
 40
0.8818129003
 40
0.9415103344
 40
1.0
 40
1.0
 40
1.0
 40
1.0
 10
14.8280297662
 20
13.3940838343
 30
0.0
 10
14.8288235074
 20
13.3935991231
 30
0.0
 10
14.8304422937
 20
13.3926541164
 30
0.0
 10
14.8329386272
 20
13.3913214815
 30
0.0
 10
14.8355136544
 20
13.390067189
 30
0.0
 10
14.8381576048
 20
13.3888959581
 30
0.0
 10
14.8408607778
 20
13.3878120915
 30
0.0
 10
14.8445321897
 20
13.3864882414
 30
0.0
 10
14.8482741217
 20
13.3853569422
 30
0.0
 10
14.852060796
 20
13.384426252
 30
0.0
 10
14.8549055466
 20
13.3838329414
 30
0.0
 10
14.8577469874
 20
13.3833459124
 30
0.0
 10
14.8605745951
 20
13.3829669538
 30
0.0
 10
14.863377816
 20
13.3826974796
 30
0.0
 10
14.8661462367
 20
13.3825385116
 30
0.0
 10
14.868869482
 20
13.3824906343
 30
0.0
 10
14.8706678081
 20
13.3825333546
 30
0.0
 10
14.8715567939
 20
13.3825739096
 30
0.0
  0
SPLINE
  5
3A9
100
AcDbEntity
  8
LAYER_FEATURE
100
AcDbSpline
 62
7
  6
CONTINUOUS
 70
0
 71
3
 72
11
 73
7
 74
0
 42
0.0000001
 43
0.0000001
 44
0.0000000001
 40
0.0
 40
0.0
 40
0.0
 40
0.0
 40
0.2559980973
 40
0.506946898
 40
0.7543640305
 40
1.0
 40
1.0
 40
1.0
 40
1.0
 10
14.8884883486
 20
13.4356735929
 30
0.0
 10
14.888350207
 20
13.4355102053
 30
0.0
 10
14.8880914466
 20
13.4351737411
 30
0.0
 10
14.8877573317
 20
13.4346378601
 30
0.0
 10
14.8874831026
 20
13.4340785926
 30
0.0
 10
14.8873407263
 20
13.4336909444
 30
0.0
 10
14.8872801128
 20
13.4334947975
 30
0.0
  0
SPLINE
  5
3AA
100
AcDbEntity
  8
LAYER_FEATURE
100
AcDbSpline
 62
7
  6
CONTINUOUS
 70
0
 71
3
 72
15
 73
11
 74
0
 42
0.0000001
 43
0.0000001
 44
0.0000000001
 40
0.0
 40
0.0
 40
0.0
 40
0.0
 40
0.1244993078
 40
0.250361842
 40
0.3769740284
 40
0.5037293742
 40
0.630009906
 40
0.7552046373
 40
0.8787274924
 40
1.0
 40
1.0
 40
1.0
 40
1.0
 10
14.9240150972
 20
13.4398520661
 30
0.0
 10
14.9235659671
 20
13.440074416
 30
0.0
 10
14.9226511067
 20
13.4404983435
 30
0.0
 10
14.9212436916
 20
13.4410672362
 30
0.0
 10
14.9198015073
 20
13.4415695391
 30
0.0
 10
14.9183350139
 20
13.4420016332
 30
0.0
 10
14.9168547418
 20
13.4423603924
 30
0.0
 10
14.9153713288
 20
13.4426432614
 30
0.0
 10
14.9138955236
 20
13.4428481676
 30
0.0
 10
14.9129132124
 20
13.4429327404
 30
0.0
 10
14.9124258783
 20
13.4429612454
 30
0.0
  0
SPLINE
  5
3AB
100
AcDbEntity
  8
LAYER_FEATURE
100
AcDbSpline
 62
7
  6
CONTINUOUS
 70
0
 71
3
 72
11
 73
7
 74
0
 42
0.0000001
 43
0.0000001
 44
0.0000000001
 40
0.0
 40
0.0
 40
0.0
 40
0.0
 40
0.2419016513
 40
0.4897103414
 40
0.7426793555
 40
1.0
 40
1.0
 40
1.0
 40
1.0
 10
14.9361690343
 20
13.4323917988
 30
0.0
 10
14.9352517447
 20
13.4330879063
 30
0.0
 10
14.9333574881
 20
13.4344486139
 30
0.0
 10
14.9303872064
 20
13.4363683163
 30
0.0
 10
14.9272666106
 20
13.4381832245
 30
0.0
 10
14.9251128499
 20
13.439308604
 30
0.0
 10
14.9240150972
 20
13.4398520661
 30
0.0
  0
SPLINE
  5
3AC
100
AcDbEntity
  8
LAYER_FEATURE
100
AcDbSpline
 62
7
  6
CONTINUOUS
 70
0
 71
3
 72
23
 73
19
 74
0
 42
0.0000001
 43
0.0000001
 44
0.0000000001
 40
0.0
 40
0.0
 40
0.0
 40
0.0
 40
0.0599056474
 40
0.1214367541
 40
0.1843516109
 40
0.2483904729
 40
0.3132754725
 40
0.3787175951
 40
0.4444198779
 40
0.510081917
 40
0.5754038234
 40
0.6400903524
 40
0.7038550457
 40
0.7664245185
 40
0.8275429423
 40
0.8869768159
 40
0.9445201235
 40
1.0
 40
1.0
 40
1.0
 40
1.0
 10
14.9361690343
 20
13.4323917988
 30
0.0
 10
14.9371277613
 20
13.4316642457
 30
0.0
 10
14.939115431
 20
13.4302468339
 30
0.0
 10
14.9422463941
 20
13.4282651697
 30
0.0
 10
14.9455495498
 20
13.4264100378
 30
0.0
 10
14.9490023704
 20
13.4246940793
 30
0.0
 10
14.9525815305
 20
13.4231288897
 30
0.0
 10
14.956262754
 20
13.4217250775
 30
0.0
 10
14.9600210953
 20
13.4204921592
 30
0.0
 10
14.963831072
 20
13.4194384926
 30
0.0
 10
14.9676668556
 20
13.4185712211
 30
0.0
 10
14.971502447
 20
13.4178962233
 30
0.0
 10
14.9753118572
 20
13.4174180738
 30
0.0
 10
14.9790692959
 20
13.4171400163
 30
0.0
 10
14.982749324
 20
13.4170639406
 30
0.0
 10
14.9863271341
 20
13.4171903959
 30
0.0
 10
14.9897783569
 20
13.4175185321
 30
0.0
 10
14.9920225443
 20
13.4178772477
 30
0.0
 10
14.9931163388
 20
13.4180916874
 30
0.0
  0
SPLINE
  5
3AD
100
AcDbEntity
  8
LAYER_FEATURE
100
AcDbSpline
 62
7
  6
CONTINUOUS
 70
0
 71
3
 72
13
 73
9
 74
0
 42
0.0000001
 43
0.0000001
 44
0.0000000001
 40
0.0
 40
0.0
 40
0.0
 40
0.0
 40
0.2643899433
 40
0.5167257613
 40
0.639505976
 40
0.7606193406
 40
0.8805967081
 40
1.0
 40
1.0
 40
1.0
 40
1.0
 10
15.009128759
 20
13.4653828305
 30
0.0
 10
15.0088346716
 20
13.4651590443
 30
0.0
 10
15.0082869432
 20
13.4646842973
 30
0.0
 10
15.0077011481
 20
13.4640042587
 30
0.0
 10
15.0073140245
 20
13.4634279433
 30
0.0
 10
15.0070653665
 20
13.4629835861
 30
0.0
 10
15.0068565668
 20
13.462524388
 30
0.0
 10
15.0067441245
 20
13.4622087489
 30
0.0
 10
15.0066948497
 20
13.462049293
 30
0.0
  0
SPLINE
  5
3AE
100
AcDbEntity
  8
LAYER_FEATURE
100
AcDbSpline
 62
7
  6
CONTINUOUS
 70
0
 71
3
 72
15
 73
11
 74
0
 42
0.0000001
 43
0.0000001
 44
0.0000000001
 40
0.0
 40
0.0
 40
0.0
 40
0.0
 40
0.1208251636
 40
0.2440211906
 40
0.3690158066
 40
0.4952269915
 40
0.6220458842
 40
0.748854665
 40
0.8750451327
 40
1.0
 40
1.0
 40
1.0
 40
1.0
 10
15.0470363174
 20
13.4657348759
 30
0.0
 10
15.0466227664
 20
13.4659900279
 30
0.0
 10
15.0457730857
 20
13.4664822433
 30
0.0
 10
15.0444510857
 20
13.4671580269
 30
0.0
 10
15.0430767145
 20
13.4677747275
 30
0.0
 10
15.0416599439
 20
13.4683278956
 30
0.0
 10
15.0402109415
 20
13.4688135375
 30
0.0
 10
15.0387401254
 20
13.469228185
 30
0.0
 10
15.0372581491
 20
13.469568811
 30
0.0
 10
15.0362632741
 20
13.4697460982
 30
0.0
 10
15.0357664367
 20
13.4698215745
 30
0.0
  0
SPLINE
  5
3AF
100
AcDbEntity
  8
LAYER_FEATURE
100
AcDbSpline
 62
7
  6
CONTINUOUS
 70
0
 71
3
 72
11
 73
7
 74
0
 42
0.0000001
 43
0.0000001
 44
0.0000000001
 40
0.0
 40
0.0
 40
0.0
 40
0.0
 40
0.2393039474
 40
0.4861597056
 40
0.7399590041
 40
1.0
 40
1.0
 40
1.0
 40
1.0
 10
15.0578261897
 20
13.4575036569
 30
0.0
 10
15.0570418199
 20
13.4582524144
 30
0.0
 10
15.0554025532
 20
13.4597262317
 30
0.0
 10
15.0527883905
 20
13.461828407
 30
0.0
 10
15.0499926052
 20
13.4638471386
 30
0.0
 10
15.0480391503
 20
13.4651161498
 30
0.0
 10
15.0470363174
 20
13.4657348759
 30
0.0
  0
SPLINE
  5
3B0
100
AcDbEntity
  8
LAYER_FEATURE
100
AcDbSpline
 62
7
  6
CONTINUOUS
 70
0
 71
3
 72
28
 73
24
 74
0
 42
0.0000001
 43
0.0000001
 44
0.0000000001
 40
0.0
 40
0.0
 40
0.0
 40
0.0
 40
0.0288334536
 40
0.0583372462
 40
0.0884691284
 40
0.1191924624
 40
0.1822296568
 40
0.2470715326
 40
0.3132882995
 40
0.3804181712
 40
0.4479791722
 40
0.5154799628
 40
0.5824305146
 40
0.6483527904
 40
0.7127916974
 40
0.775326622
 40
0.8355838744
 40
0.8647636379
 40
0.8932624843
 40
0.9210534751
 40
0.9481153467
 40
0.9744333552
 40
1.0
 40
1.0
 40
1.0
 40
1.0
 10
15.0578261897
 20
13.4575036569
 30
0.0
 10
15.0583401668
 20
13.4570130156
 30
0.0
 10
15.059401272
 20
13.4560423111
 30
0.0
 10
15.0610678466
 20
13.4546358582
 30
0.0
 10
15.0628237939
 20
13.4532655804
 30
0.0
 10
15.0652986909
 20
13.4514766684
 30
0.0
 10
15.0685871141
 20
13.4493578139
 30
0.0
 10
15.0727735847
 20
13.447037544
 30
0.0
 10
15.0771891778
 20
13.444942818
 30
0.0
 10
15.0817862789
 20
13.4430962412
 30
0.0
 10
15.0865154763
 20
13.4415176494
 30
0.0
 10
15.0913258624
 20
13.4402240346
 30
0.0
 10
15.0961656811
 20
13.4392293144
 30
0.0
 10
15.1009828592
 20
13.4385441905
 30
0.0
 10
15.1057257008
 20
13.4381760401
 30
0.0
 10
15.1103430993
 20
13.4381288496
 30
0.0
 10
15.1140850236
 20
13.4383599036
 30
0.0
 10
15.1169708826
 20
13.4387103136
 30
0.0
 10
15.1190502989
 20
13.4390496833
 30
0.0
 10
15.1210621383
 20
13.4394674343
 30
0.0
 10
15.1230010205
 20
13.4399625007
 30
0.0
 10
15.1248616372
 20
13.4405335406
 30
0.0
 10
15.126064113
 20
13.4409702531
 30
0.0
 10
15.1266502485
 20
13.4412013763
 30
0.0
  0
SPLINE
  5
3B1
100
AcDbEntity
  8
LAYER_FEATURE
100
AcDbSpline
 62
7
  6
CONTINUOUS
 70
0
 71
3
 72
15
 73
11
 74
0
 42
0.0000001
 43
0.0000001
 44
0.0000000001
 40
0.0
 40
0.0
 40
0.0
 40
0.0
 40
0.1398903213
 40
0.2744283035
 40
0.4039619965
 40
0.5290368425
 40
0.6503183374
 40
0.768610351
 40
0.8848355179
 40
1.0
 40
1.0
 40
1.0
 40
1.0
 10
15.1416572568
 20
13.4811589967
 30
0.0
 10
15.1414061545
 20
13.4810330419
 30
0.0
 10
15.1409225438
 20
13.4807673869
 30
0.0
 10
15.1402453426
 20
13.4803190253
 30
0.0
 10
15.1396339077
 20
13.4798305583
 30
0.0
 10
15.1390911725
 20
13.4793041477
 30
0.0
 10
15.1386197137
 20
13.4787420582
 30
0.0
 10
15.1382218709
 20
13.4781467654
 30
0.0
 10
15.1378997176
 20
13.4775211375
 30
0.0
 10
15.137736166
 20
13.4770848553
 30
0.0
 10
15.137667884
 20
13.4768638969
 30
0.0
  0
SPLINE
  5
3B2
100
AcDbEntity
  8
LAYER_FEATURE
100
AcDbSpline
 62
7
  6
CONTINUOUS
 70
0
 71
3
 72
15
 73
11
 74
0
 42
0.0000001
 43
0.0000001
 44
0.0000000001
 40
0.0
 40
0.0
 40
0.0
 40
0.0
 40
0.11722887
 40
0.2377716671
 40
0.3611205295
 40
0.4867389618
 40
0.6140468597
 40
0.7424384066
 40
0.8713018627
 40
1.0
 40
1.0
 40
1.0
 40
1.0
 10
15.1810988328
 20
13.4776767501
 30
0.0
 10
15.1807304821
 20
13.4779592318
 30
0.0
 10
15.1799655606
 20
13.4785092911
 30
0.0
 10
15.1787583338
 20
13.4792769651
 30
0.0
 10
15.1774823109
 20
13.479994365
 30
0.0
 10
15.1761467526
 20
13.4806563128
 30
0.0
 10
15.1747612317
 20
13.4812580413
 30
0.0
 10
15.1733357083
 20
13.4817952498
 30
0.0
 10
15.1718805015
 20
13.4822640246
 30
0.0
 10
15.1708952338
 20
13.482529311
 30
0.0
 10
15.170400041
 20
13.4826496778
 30
0.0
  0
SPLINE
  5
3B3
100
AcDbEntity
  8
LAYER_FEATURE
100
AcDbSpline
 62
7
  6
CONTINUOUS
 70
0
 71
3
 72
11
 73
7
 74
0
 42
0.0000001
 43
0.0000001
 44
0.0000000001
 40
0.0
 40
0.0
 40
0.0
 40
0.0
 40
0.2369409488
 40
0.4828700106
 40
0.7373981177
 40
1.0
 40
1.0
 40
1.0
 40
1.0
 10
15.1902836125
 20
13.4688584511
 30
0.0
 10
15.1896509864
 20
13.4696430074
 30
0.0
 10
15.1883056192
 20
13.4711973013
 30
0.0
 10
15.1861056032
 20
13.4734354964
 30
0.0
 10
15.183696712
 20
13.4756133538
 30
0.0
 10
15.181985192
 20
13.4769970166
 30
0.0
 10
15.1810988328
 20
13.4776767501
 30
0.0
  0
SPLINE
  5
3B4
100
AcDbEntity
  8
LAYER_FEATURE
100
AcDbSpline
 62
7
  6
CONTINUOUS
 70
0
 71
3
 72
38
 73
34
 74
0
 42
0.0000001
 43
0.0000001
 44
0.0000000001
 40
0.0
 40
0.0
 40
0.0
 40
0.0
 40
0.0277917335
 40
0.0565062861
 40
0.0861067005
 40
0.1165535201
 40
0.1477939184
 40
0.1797672942
 40
0.2124060939
 40
0.2456362936
 40
0.2793785232
 40
0.3135489901
 40
0.3480603128
 40
0.3828222677
 40
0.417742587
 40
0.4527277704
 40
0.4876837829
 40
0.5225168074
 40
0.5571340421
 40
0.5914444105
 40
0.6253593126
 40
0.6587935101
 40
0.6916658978
 40
0.7239003037
 40
0.7554264904
 40
0.7861811676
 40
0.8161089242
 40
0.845163365
 40
0.8733085192
 40
0.9005200778
 40
0.926786777
 40
0.9521120726
 40
1.0
 40
1.0
 40
1.0
 40
1.0
 10
15.1902836125
 20
13.4688584511
 30
0.0
 10
15.1907881911
 20
13.4682326939
 30
0.0
 10
15.191852694
 20
13.4669911003
 30
0.0
 10
15.1935767858
 20
13.4651922285
 30
0.0
 10
15.1954480849
 20
13.4634329063
 30
0.0
 10
15.1974589641
 20
13.4617202006
 30
0.0
 10
15.1996015106
 20
13.4600608549
 30
0.0
 10
15.2018671619
 20
13.4584614653
 30
0.0
 10
15.2042468961
 20
13.4569283844
 30
0.0
 10
15.2067312443
 20
13.4554677275
 30
0.0
 10
15.2093102976
 20
13.4540853028
 30
0.0
 10
15.2119737718
 20
13.452786614
 30
0.0
 10
15.2147110503
 20
13.4515768461
 30
0.0
 10
15.2175112177
 20
13.4504608305
 30
0.0
 10
15.2203630986
 20
13.4494430066
 30
0.0
 10
15.2232553158
 20
13.4485274346
 30
0.0
 10
15.2261763343
 20
13.4477177801
 30
0.0
 10
15.2291144985
 20
13.4470172677
 30
0.0
 10
15.2320580855
 20
13.4464286834
 30
0.0
 10
15.2349953556
 20
13.4459543803
 30
0.0
 10
15.2379145963
 20
13.4455962614
 30
0.0
 10
15.2408041676
 20
13.4453557423
 30
0.0
 10
15.2436525548
 20
13.4452337814
 30
0.0
 10
15.2464484111
 20
13.4452308814
 30
0.0
 10
15.2491806054
 20
13.4453470613
 30
0.0
 10
15.2518382684
 20
13.4455818586
 30
0.0
 10
15.2544108367
 20
13.4459343629
 30
0.0
 10
15.256888079
 20
13.4464032127
 30
0.0
 10
15.2592601935
 20
13.4469865915
 30
0.0
 10
15.2615176666
 20
13.4476821801
 30
0.0
 10
15.2636519091
 20
13.4484875224
 30
0.0
 10
15.2662715355
 20
13.4496804174
 30
0.0
 10
15.2681052821
 20
13.4507613978
 30
0.0
 10
15.2692338488
 20
13.4515644345
 30
0.0
  0
SPLINE
  5
3B5
100
AcDbEntity
  8
LAYER_FEATURE
100
AcDbSpline
 62
7
  6
CONTINUOUS
 70
0
 71
3
 72
18
 73
14
 74
0
 42
0.0000001
 43
0.0000001
 44
0.0000000001
 40
0.0
 40
0.0
 40
0.0
 40
0.0
 40
0.1455138598
 40
0.284068328
 40
0.4158776523
 40
0.4794195298
 40
0.5414757342
 40
0.661498387
 40
0.7770141059
 40
0.8335078459
 40
0.8893787298
 40
0.94481529
 40
1.0
 40
1.0
 40
1.0
 40
1.0
 10
15.2831133746
 20
13.4826496778
 30
0.0
 10
15.2827460689
 20
13.4825324242
 30
0.0
 10
15.2820376402
 20
13.4822749396
 30
0.0
 10
15.2810383321
 20
13.4818069952
 30
0.0
 10
15.280276461
 20
13.4813536977
 30
0.0
 10
15.2797209051
 20
13.4809574578
 30
0.0
 10
15.2792133367
 20
13.4805496216
 30
0.0
 10
15.2786434525
 20
13.4800015331
 30
0.0
 10
15.2781589688
 20
13.4793948669
 30
0.0
 10
15.2778338676
 20
13.4788855247
 30
0.0
 10
15.2776219227
 20
13.4784942061
 30
0.0
 10
15.2774405923
 20
13.4780916309
 30
0.0
 10
15.2773401831
 20
13.4778159136
 30
0.0
 10
15.2772952997
 20
13.4776767501
 30
0.0
  0
SPLINE
  5
3B6
100
AcDbEntity
  8
LAYER_FEATURE
100
AcDbSpline
 62
7
  6
CONTINUOUS
 70
0
 71
3
 72
15
 73
11
 74
0
 42
0.0000001
 43
0.0000001
 44
0.0000000001
 40
0.0
 40
0.0
 40
0.0
 40
0.0
 40
0.1137536612
 40
0.231675074
 40
0.3533524375
 40
0.4783222876
 40
0.6060575452
 40
0.7359862282
 40
0.8675131325
 40
1.0
 40
1.0
 40
1.0
 40
1.0
 10
15.3232079086
 20
13.4754109268
 30
0.0
 10
15.3228934877
 20
13.4757145473
 30
0.0
 10
15.3222312297
 20
13.4763105696
 30
0.0
 10
15.3211655497
 20
13.4771531412
 30
0.0
 10
15.3200161946
 20
13.4779553361
 30
0.0
 10
15.3187915107
 20
13.478711369
 30
0.0
 10
15.3175002579
 20
13.4794158155
 30
0.0
 10
15.3161517128
 20
13.4800636447
 30
0.0
 10
15.3147556273
 20
13.4806501466
 30
0.0
 10
15.3138017374
 20
13.4809968014
 30
0.0
 10
15.3133191988
 20
13.4811589967
 30
0.0
  0
SPLINE
  5
3B7
100
AcDbEntity
  8
LAYER_FEATURE
100
AcDbSpline
 62
7
  6
CONTINUOUS
 70
0
 71
3
 72
11
 73
7
 74
0
 42
0.0000001
 43
0.0000001
 44
0.0000000001
 40
0.0
 40
0.0
 40
0.0
 40
0.0
 40
0.2350987597
 40
0.4801953355
 40
0.7352429363
 40
1.0
 40
1.0
 40
1.0
 40
1.0
 10
15.3305824227
 20
13.4662025342
 30
0.0
 10
15.3301171101
 20
13.4670046002
 30
0.0
 10
15.3290984661
 20
13.4686040164
 30
0.0
 10
15.3273614804
 20
13.47092908
 30
0.0
 10
15.3253929608
 20
13.4732180872
 30
0.0
 10
15.3239590903
 20
13.4746855484
 30
0.0
 10
15.3232079086
 20
13.4754109268
 30
0.0
  0
SPLINE
  5
3B8
100
AcDbEntity
  8
LAYER_FEATURE
100
AcDbSpline
 62
7
  6
CONTINUOUS
 70
0
 71
3
 72
39
 73
35
 74
0
 42
0.0000001
 43
0.0000001
 44
0.0000000001
 40
0.0
 40
0.0
 40
0.0
 40
0.0
 40
0.0266587826
 40
0.0544800533
 40
0.0834550513
 40
0.113555277
 40
0.1447294327
 40
0.1769093152
 40
0.2100111743
 40
0.2439383114
 40
0.2785830695
 40
0.3138287679
 40
0.3495514807
 40
0.3856217102
 40
0.4219059924
 40
0.4582684535
 40
0.4945723428
 40
0.5306815667
 40
0.5664622209
 40
0.6017841414
 40
0.6365225007
 40
0.6705594725
 40
0.7037859903
 40
0.7361036512
 40
0.7674267603
 40
0.7976845586
 40
0.8268236934
 40
0.8548109538
 40
0.8816362736
 40
0.9073159569
 40
0.9318959841
 40
0.9554550211
 40
0.9781066575
 40
1.0
 40
1.0
 40
1.0
 40
1.0
 10
15.3305824227
 20
13.4662025342
 30
0.0
 10
15.3310227999
 20
13.4654434498
 30
0.0
 10
15.3319890127
 20
13.4639298651
 30
0.0
 10
15.3336405741
 20
13.4617316298
 30
0.0
 10
15.3355161656
 20
13.4595688954
 30
0.0
 10
15.3376051125
 20
13.4574537224
 30
0.0
 10
15.3398958877
 20
13.4553976757
 30
0.0
 10
15.3423757198
 20
13.4534121146
 30
0.0
 10
15.345030838
 20
13.4515080268
 30
0.0
 10
15.3478464707
 20
13.4496959753
 30
0.0
 10
15.3508069472
 20
13.4479860272
 30
0.0
 10
15.3538957811
 20
13.4463876953
 30
0.0
 10
15.3570957636
 20
13.4449098803
 30
0.0
 10
15.3603890607
 20
13.4435608176
 30
0.0
 10
15.3637573126
 20
13.4423480286
 30
0.0
 10
15.3671817387
 20
13.4412782784
 30
0.0
 10
15.3706432426
 20
13.4403575325
 30
0.0
 10
15.3741225214
 20
13.4395909229
 30
0.0
 10
15.3776001779
 20
13.4389827226
 30
0.0
 10
15.3810568295
 20
13.4385363218
 30
0.0
 10
15.3844732194
 20
13.4382542108
 30
0.0
 10
15.3878303258
 20
13.4381379676
 30
0.0
 10
15.3911094714
 20
13.4381882538
 30
0.0
 10
15.3942924307
 20
13.4384048105
 30
0.0
 10
15.3973615342
 20
13.4387864699
 30
0.0
 10
15.4002997668
 20
13.4393311743
 30
0.0
 10
15.4030908585
 20
13.4400360009
 30
0.0
 10
15.4057193655
 20
13.4408971959
 30
0.0
 10
15.4081707348
 20
13.4419102101
 30
0.0
 10
15.4104313603
 20
13.4430697552
 30
0.0
 10
15.4124885747
 20
13.4443697826
 30
0.0
 10
15.4143307718
 20
13.4458036692
 30
0.0
 10
15.415946962
 20
13.4473635876
 30
0.0
 10
15.4168812101
 20
13.4484991043
 30
0.0
 10
15.4173038708
 20
13.4490828613
 30
0.0
  0
SPLINE
  5
3B9
100
AcDbEntity
  8
LAYER_FEATURE
100
AcDbSpline
 62
7
  6
CONTINUOUS
 70
0
 71
3
 72
11
 73
7
 74
0
 42
0.0000001
 43
0.0000001
 44
0.0000000001
 40
0.0
 40
0.0
 40
0.0
 40
0.0
 40
0.2526629402
 40
0.5030759433
 40
0.7519314452
 40
1.0
 40
1.0
 40
1.0
 40
1.0
 10
15.4230782565
 20
13.4657348759
 30
0.0
 10
15.4228649931
 20
13.4654013106
 30
0.0
 10
15.4224617771
 20
13.4647231578
 30
0.0
 10
15.421927922
 20
13.4636718319
 30
0.0
 10
15.4214691658
 20
13.4625934382
 30
0.0
 10
15.4212136996
 20
13.4618571201
 30
0.0
 10
15.421098934
 20
13.4614857346
 30
0.0
  0
SPLINE
  5
3BA
100
AcDbEntity
  8
LAYER_FEATURE
100
AcDbSpline
 62
7
  6
CONTINUOUS
 70
0
 71
3
 72
15
 73
11
 74
0
 42
0.0000001
 43
0.0000001
 44
0.0000000001
 40
0.0
 40
0.0
 40
0.0
 40
0.0
 40
0.146391376
 40
0.2864260362
 40
0.4199633292
 40
0.5470667572
 40
0.6679971584
 40
0.7832515757
 40
0.8935867647
 40
1.0
 40
1.0
 40
1.0
 40
1.0
 10
15.4303372164
 20
13.4698215745
 30
0.0
 10
15.4299259521
 20
13.4697481506
 30
0.0
 10
15.4291258175
 20
13.4695770131
 30
0.0
 10
15.4279750007
 20
13.4692381051
 30
0.0
 10
15.4269073455
 20
13.4688247251
 30
0.0
 10
15.4259305569
 20
13.4683396722
 30
0.0
 10
15.4250516805
 20
13.4677861063
 30
0.0
 10
15.4242771353
 20
13.4671676068
 30
0.0
 10
15.4236130168
 20
13.4664884457
 30
0.0
 10
15.4232418368
 20
13.4659907319
 30
0.0
 10
15.4230782565
 20
13.4657348759
 30
0.0
  0
SPLINE
  5
3BB
100
AcDbEntity
  8
LAYER_FEATURE
100
AcDbSpline
 62
7
  6
CONTINUOUS
 70
0
 71
3
 72
15
 73
11
 74
0
 42
0.0000001
 43
0.0000001
 44
0.0000000001
 40
0.0
 40
0.0
 40
0.0
 40
0.0
 40
0.1105054107
 40
0.2258896448
 40
0.3458834811
 40
0.470136022
 40
0.5982069734
 40
0.7295873282
 40
0.8637238915
 40
1.0
 40
1.0
 40
1.0
 40
1.0
 10
15.4701890626
 20
13.458988021
 30
0.0
 10
15.4699362114
 20
13.4593059315
 30
0.0
 10
15.4693924709
 20
13.4599347674
 30
0.0
 10
15.4684919411
 20
13.4608336799
 30
0.0
 10
15.4674947257
 20
13.4617029526
 30
0.0
 10
15.4664080807
 20
13.4625363305
 30
0.0
 10
15.4652397595
 20
13.4633278713
 30
0.0
 10
15.4639981465
 20
13.464071937
 30
0.0
 10
15.4626922085
 20
13.4647631333
 30
0.0
 10
15.4617905827
 20
13.4651827739
 30
0.0
 10
15.4613313324
 20
13.4653828305
 30
0.0
  0
SPLINE
  5
3BC
100
AcDbEntity
  8
LAYER_FEATURE
100
AcDbSpline
 62
7
  6
CONTINUOUS
 70
0
 71
3
 72
11
 73
7
 74
0
 42
0.0000001
 43
0.0000001
 44
0.0000000001
 40
0.0
 40
0.0
 40
0.0
 40
0.0
 40
0.4785280021
 40
0.6048345869
 40
0.7338509974
 40
1.0
 40
1.0
 40
1.0
 40
1.0
 10
15.4755885768
 20
13.4495952349
 30
0.0
 10
15.4750038912
 20
13.4512283708
 30
0.0
 10
15.4740552203
 20
13.4532227959
 30
0.0
 10
15.4726823168
 20
13.4555009522
 30
0.0
 10
15.4716438782
 20
13.4570811263
 30
0.0
 10
15.4707896136
 20
13.4582329467
 30
0.0
 10
15.4701890626
 20
13.458988021
 30
0.0
  0
SPLINE
  5
3BD
100
AcDbEntity
  8
LAYER_FEATURE
100
AcDbSpline
 62
7
  6
CONTINUOUS
 70
0
 71
3
 72
42
 73
38
 74
0
 42
0.0000001
 43
0.0000001
 44
0.0000000001
 40
0.0
 40
0.0
 40
0.0
 40
0.0
 40
0.0253164735
 40
0.0519237559
 40
0.0798803802
 40
0.1092011246
 40
0.1398617194
 40
0.171804781
 40
0.2049445811
 40
0.2391715603
 40
0.2743562683
 40
0.310352935
 40
0.3470027168
 40
0.3841367096
 40
0.4215787893
 40
0.4591483372
 40
0.4966628969
 40
0.5339408031
 40
0.5708038231
 40
0.6070798489
 40
0.642605687
 40
0.6772299942
 40
0.7108164242
 40
0.7432470555
 40
0.7744261862
 40
0.8042845777
 40
0.8327842134
 40
0.8599235647
 40
0.8857432128
 40
0.9103313355
 40
0.9338282127
 40
0.9452323006
 40
0.9564406931
 40
0.9674855574
 40
0.9784025817
 40
0.9892288207
 40
1.0
 40
1.0
 40
1.0
 40
1.0
 10
15.4755885768
 20
13.4495952349
 30
0.0
 10
15.4758975644
 20
13.4487321752
 30
0.0
 10
15.476633806
 20
13.4469974853
 30
0.0
 10
15.4780309897
 20
13.4444600563
 30
0.0
 10
15.4797369035
 20
13.441942105
 30
0.0
 10
15.481738855
 20
13.4394616391
 30
0.0
 10
15.4840224349
 20
13.4370358936
 30
0.0
 10
15.4865712226
 20
13.4346820089
 30
0.0
 10
15.4893669559
 20
13.4324166645
 30
0.0
 10
15.4923895948
 20
13.4302559979
 30
0.0
 10
15.4956174617
 20
13.4282154508
 30
0.0
 10
15.499027386
 20
13.4263096437
 30
0.0
 10
15.5025948705
 20
13.4245522561
 30
0.0
 10
15.5062942686
 20
13.4229559172
 30
0.0
 10
15.510098972
 20
13.4215321079
 30
0.0
 10
15.5139816064
 20
13.4202910722
 30
0.0
 10
15.5179142329
 20
13.4192417405
 30
0.0
 10
15.5218685548
 20
13.4183916631
 30
0.0
 10
15.5258161261
 20
13.4177469554
 30
0.0
 10
15.5297285632
 20
13.4173122555
 30
0.0
 10
15.5335777553
 20
13.4170906943
 30
0.0
 10
15.537336074
 20
13.4170838792
 30
0.0
 10
15.5409765787
 20
13.4172918933
 30
0.0
 10
15.5444732164
 20
13.4177133108
 30
0.0
 10
15.5478010104
 20
13.4183452316
 30
0.0
 10
15.5509362309
 20
13.4191833323
 30
0.0
 10
15.5538565488
 20
13.4202219499
 30
0.0
 10
15.5565411129
 20
13.421454129
 30
0.0
 10
15.5589707019
 20
13.4228718397
 30
0.0
 10
15.561127357
 20
13.4244655499
 30
0.0
 10
15.562699662
 20
13.4259469861
 30
0.0
 10
15.5637972071
 20
13.427206565
 30
0.0
 10
15.5645348428
 20
13.4281779457
 30
0.0
 10
15.565193478
 20
13.4291835201
 30
0.0
 10
15.5657719589
 20
13.4302215067
 30
0.0
 10
15.5662690438
 20
13.4312898731
 30
0.0
 10
15.5665460338
 20
13.4320221201
 30
0.0
 10
15.5666703509
 20
13.4323917988
 30
0.0
  0
SPLINE
  5
3BE
100
AcDbEntity
  8
LAYER_FEATURE
100
AcDbSpline
 62
7
  6
CONTINUOUS
 70
0
 71
3
 72
15
 73
11
 74
0
 42
0.0000001
 43
0.0000001
 44
0.0000000001
 40
0.0
 40
0.0
 40
0.0
 40
0.0
 40
0.1070992105
 40
0.2196050041
 40
0.3375308266
 40
0.4607557077
 40
0.5890232832
 40
0.7219670642
 40
0.8591404599
 40
1.0
 40
1.0
 40
1.0
 40
1.0
 10
16.5371468074
 20
12.5720668865
 30
0.0
 10
16.5369803808
 20
12.5723920887
 30
0.0
 10
16.5366048409
 20
12.5730417801
 30
0.0
 10
16.5359404376
 20
12.5739836539
 30
0.0
 10
16.53516599
 20
12.5749101843
 30
0.0
 10
16.5342871959
 20
12.5758147375
 30
0.0
 10
16.5333103214
 20
12.5766909469
 30
0.0
 10
16.5322423748
 20
12.5775326166
 30
0.0
 10
16.5310910554
 20
12.5783336812
 30
0.0
 10
16.5302829037
 20
12.5788310253
 30
0.0
 10
16.5298671842
 20
12.5790719168
 30
0.0
  0
SPLINE
  5
3BF
100
AcDbEntity
  8
LAYER_FEATURE
100
AcDbSpline
 62
7
  6
CONTINUOUS
 70
0
 71
3
 72
13
 73
9
 74
0
 42
0.0000001
 43
0.0000001
 44
0.0000000001
 40
0.0
 40
0.0
 40
0.0
 40
0.0
 40
0.2592939289
 40
0.5108590149
 40
0.6344653303
 40
0.7569846552
 40
0.8787295118
 40
1.0
 40
1.0
 40
1.0
 40
1.0
 10
15.5715023531
 20
13.4398520661
 30
0.0
 10
15.5709437658
 20
13.4393141704
 30
0.0
 10
15.5698982487
 20
13.4381951919
 30
0.0
 10
15.5687681007
 20
13.4366651113
 30
0.0
 10
15.5679965919
 20
13.4353912767
 30
0.0
 10
15.5674855577
 20
13.4344161356
 30
0.0
 10
15.5670396964
 20
13.4334172363
 30
0.0
 10
15.5667859537
 20
13.4327355644
 30
0.0
 10
15.5666703509
 20
13.4323917988
 30
0.0
  0
SPLINE
  5
3C0
100
AcDbEntity
  8
LAYER_FEATURE
100
AcDbSpline
 62
7
  6
CONTINUOUS
 70
0
 71
3
 72
15
 73
11
 74
0
 42
0.0000001
 43
0.0000001
 44
0.0000000001
 40
0.0
 40
0.0
 40
0.0
 40
0.0
 40
0.1448932962
 40
0.2844583124
 40
0.4183244663
 40
0.5462707421
 40
0.6682145991
 40
0.7842496424
 40
0.8946758109
 40
1.0
 40
1.0
 40
1.0
 40
1.0
 10
15.5800400447
 20
13.4429612454
 30
0.0
 10
15.5795934089
 20
13.4429335298
 30
0.0
 10
15.5787179066
 20
13.4428527632
 30
0.0
 10
15.5774409781
 20
13.4426499779
 30
0.0
 10
15.5762324309
 20
13.4423690418
 30
0.0
 10
15.5751009506
 20
13.4420119062
 30
0.0
 10
15.5740545992
 20
13.441580947
 30
0.0
 10
15.5731008078
 20
13.4410790037
 30
0.0
 10
15.5722466705
 20
13.4405094901
 30
0.0
 10
15.5717366653
 20
13.4400776987
 30
0.0
 10
15.5715023531
 20
13.4398520661
 30
0.0
  0
SPLINE
  5
3C1
100
AcDbEntity
  8
LAYER_FEATURE
100
AcDbSpline
 62
7
  6
CONTINUOUS
 70
0
 71
3
 72
15
 73
11
 74
0
 42
0.0000001
 43
0.0000001
 44
0.0000000001
 40
0.0
 40
0.0
 40
0.0
 40
0.0
 40
0.1097204392
 40
0.2244703329
 40
0.3440278992
 40
0.4680802961
 40
0.5962172169
 40
0.727952325
 40
0.8627487239
 40
1.0
 40
1.0
 40
1.0
 40
1.0
 10
16.5429351527
 20
12.661938381
 30
0.0
 10
16.5426994364
 20
12.6622588118
 30
0.0
 10
16.5421888796
 20
12.6628938924
 30
0.0
 10
16.5413347998
 20
12.663804289
 30
0.0
 10
16.5403809856
 20
12.664687946
 30
0.0
 10
16.539334385
 20
12.6655385107
 30
0.0
 10
16.5382024609
 20
12.6663499312
 30
0.0
 10
16.5369933348
 20
12.6671164342
 30
0.0
 10
16.5357157353
 20
12.6678324683
 30
0.0
 10
16.5348309936
 20
12.6682695478
 30
0.0
 10
16.5343794846
 20
12.6684787127
 30
0.0
  0
SPLINE
  5
3C2
100
AcDbEntity
  8
LAYER_FEATURE
100
AcDbSpline
 62
7
  6
CONTINUOUS
 70
0
 71
3
 72
15
 73
11
 74
0
 42
0.0000001
 43
0.0000001
 44
0.0000000001
 40
0.0
 40
0.0
 40
0.0
 40
0.0
 40
0.1077076897
 40
0.2207604056
 40
0.3391011922
 40
0.462551127
 40
0.5908069451
 40
0.7234651811
 40
0.8600508613
 40
1.0
 40
1.0
 40
1.0
 40
1.0
 10
15.618758979
 20
13.428774893
 30
0.0
 10
15.6185740221
 20
13.4290996211
 30
0.0
 10
15.6181622419
 20
13.429746973
 30
0.0
 10
15.6174468263
 20
13.4306825914
 30
0.0
 10
15.6166238346
 20
13.4315998672
 30
0.0
 10
15.6156992984
 20
13.4324922256
 30
0.0
 10
15.6146798064
 20
13.4333533655
 30
0.0
 10
15.6135726708
 20
13.4341771858
 30
0.0
 10
15.6123858759
 20
13.4349577406
 30
0.0
 10
15.6115560365
 20
13.4354404486
 30
0.0
 10
15.6111300953
 20
13.4356735929
 30
0.0
  0
SPLINE
  5
3C3
100
AcDbEntity
  8
LAYER_FEATURE
100
AcDbSpline
 62
7
  6
CONTINUOUS
 70
0
 71
3
 72
11
 73
7
 74
0
 42
0.0000001
 43
0.0000001
 44
0.0000000001
 40
0.0
 40
0.0
 40
0.0
 40
0.0
 40
0.2353539556
 40
0.4797334475
 40
0.7343316619
 40
1.0
 40
1.0
 40
1.0
 40
1.0
 10
15.622062877
 20
13.4194075329
 30
0.0
 10
15.6219619741
 20
13.4201848688
 30
0.0
 10
15.6216651387
 20
13.4217586656
 30
0.0
 10
15.6209609287
 20
13.4241049314
 30
0.0
 10
15.6199947077
 20
13.4264651017
 30
0.0
 10
15.6191968982
 20
13.4280060401
 30
0.0
 10
15.618758979
 20
13.428774893
 30
0.0
  0
SPLINE
  5
3C4
100
AcDbEntity
  8
LAYER_FEATURE
100
AcDbSpline
 62
7
  6
CONTINUOUS
 70
0
 71
3
 72
41
 73
37
 74
0
 42
0.0000001
 43
0.0000001
 44
0.0000000001
 40
0.0
 40
0.0
 40
0.0
 40
0.0
 40
0.0232596495
 40
0.0475801458
 40
0.0731092946
 40
0.0999430625
 40
0.1281288605
 40
0.1576713919
 40
0.1885380928
 40
0.2206645144
 40
0.2539591261
 40
0.2883076281
 40
0.323576795
 40
0.3596179442
 40
0.3962701093
 40
0.4333629947
 40
0.4707197744
 40
0.5081597867
 40
0.5455011716
 40
0.5825634896
 40
0.6191703625
 40
0.6551521752
 40
0.6903488851
 40
0.724612993
 40
0.7578127384
 40
0.7898355959
 40
0.8205921572
 40
0.8500204778
 40
0.8780909512
 40
0.9048116455
 40
0.9302339892
 40
0.9544579413
 40
0.9661715386
 40
0.9776480906
 40
0.9889150344
 40
1.0
 40
1.0
 40
1.0
 40
1.0
 10
15.622062877
 20
13.4194075329
 30
0.0
 10
15.6221716786
 20
13.418569347
 30
0.0
 10
15.6225095863
 20
13.4168681055
 30
0.0
 10
15.6233395713
 20
13.4143386037
 30
0.0
 10
15.6244955483
 20
13.4117974543
 30
0.0
 10
15.6259683019
 20
13.4092629461
 30
0.0
 10
15.6277468197
 20
13.4067524863
 30
0.0
 10
15.6298181048
 20
13.4042836231
 30
0.0
 10
15.6321672239
 20
13.4018736627
 30
0.0
 10
15.6347773165
 20
13.3995396244
 30
0.0
 10
15.6376296775
 20
13.3972980762
 30
0.0
 10
15.6407038605
 20
13.3951649984
 30
0.0
 10
15.6439778132
 20
13.3931556466
 30
0.0
 10
15.6474280295
 20
13.3912844247
 30
0.0
 10
15.6510297181
 20
13.3895647684
 30
0.0
 10
15.6547569831
 20
13.3880090386
 30
0.0
 10
15.6585830133
 20
13.3866284255
 30
0.0
 10
15.6624802796
 20
13.3854328629
 30
0.0
 10
15.6664207377
 20
13.3844309541
 30
0.0
 10
15.6703760356
 20
13.3836299076
 30
0.0
 10
15.6743177232
 20
13.3830354862
 30
0.0
 10
15.6782174633
 20
13.3826519666
 30
0.0
 10
15.6820472423
 20
13.382482113
 30
0.0
 10
15.6857795792
 20
13.3825271648
 30
0.0
 10
15.6893877296
 20
13.3827868389
 30
0.0
 10
15.6928458835
 20
13.3832593506
 30
0.0
 10
15.6961293485
 20
13.3839414493
 30
0.0
 10
15.6992147262
 20
13.3848284861
 30
0.0
 10
15.7020800164
 20
13.3859144602
 30
0.0
 10
15.7047048263
 20
13.3871922146
 30
0.0
 10
15.7070700115
 20
13.3886531287
 30
0.0
 10
15.7088301302
 20
13.390031036
 30
0.0
 10
15.7100837945
 20
13.3912143519
 30
0.0
 10
15.7109385688
 20
13.3921305677
 30
0.0
 10
15.7117164387
 20
13.3930835472
 30
0.0
 10
15.7121862879
 20
13.3937470425
 30
0.0
 10
15.712407256
 20
13.3940838343
 30
0.0
  0
SPLINE
  5
3C5
100
AcDbEntity
  8
LAYER_FEATURE
100
AcDbSpline
 62
7
  6
CONTINUOUS
 70
0
 71
3
 72
15
 73
11
 74
0
 42
0.0000001
 43
0.0000001
 44
0.0000000001
 40
0.0
 40
0.0
 40
0.0
 40
0.0
 40
0.1128792956
 40
0.2301283942
 40
0.3513673721
 40
0.4761576315
 40
0.6039909232
 40
0.7343084449
 40
0.8665231566
 40
1.0
 40
1.0
 40
1.0
 40
1.0
 10
16.5263488853
 20
12.7558244252
 30
0.0
 10
16.5260498146
 20
12.7561324531
 30
0.0
 10
16.5254169915
 20
12.756738337
 30
0.0
 10
16.5243921956
 20
12.7575974237
 30
0.0
 10
16.523280144
 20
12.7584188604
 30
0.0
 10
16.5220889147
 20
12.7591967255
 30
0.0
 10
16.5208270228
 20
12.7599254455
 30
0.0
 10
16.5195035317
 20
12.7605998187
 30
0.0
 10
16.5181280091
 20
12.7612149451
 30
0.0
 10
16.5171857678
 20
12.7615814845
 30
0.0
 10
16.5167082916
 20
12.7617539583
 30
0.0
  0
SPLINE
  5
3C6
100
AcDbEntity
  8
LAYER_FEATURE
100
AcDbSpline
 62
7
  6
CONTINUOUS
 70
0
 71
3
 72
11
 73
7
 74
0
 42
0.0000001
 43
0.0000001
 44
0.0000000001
 40
0.0
 40
0.0
 40
0.0
 40
0.0
 40
0.2642033269
 40
0.5179795882
 40
0.762676563
 40
1.0
 40
1.0
 40
1.0
 40
1.0
 10
15.7192520405
 20
13.4006064998
 30
0.0
 10
15.7185427958
 20
13.4001589233
 30
0.0
 10
15.7171904462
 20
13.3992186486
 30
0.0
 10
15.7153461434
 20
13.3976438439
 30
0.0
 10
15.7137392151
 20
13.3959425567
 30
0.0
 10
15.7128205116
 20
13.3947137038
 30
0.0
 10
15.712407256
 20
13.3940838343
 30
0.0
  0
SPLINE
  5
3C7
100
AcDbEntity
  8
LAYER_FEATURE
100
AcDbSpline
 62
7
  6
CONTINUOUS
 70
0
 71
3
 72
15
 73
11
 74
0
 42
0.0000001
 43
0.0000001
 44
0.0000000001
 40
0.0
 40
0.0
 40
0.0
 40
0.0
 40
0.1420532858
 40
0.2799795078
 40
0.4132689363
 40
0.5415205108
 40
0.664426257
 40
0.781803275
 40
0.8936206192
 40
1.0
 40
1.0
 40
1.0
 40
1.0
 10
15.728877746
 20
13.402668706
 30
0.0
 10
15.7284053227
 20
13.4026876712
 30
0.0
 10
15.7274729432
 20
13.4026996886
 30
0.0
 10
15.7260980592
 20
13.40263732
 30
0.0
 10
15.7247752317
 20
13.4024947198
 30
0.0
 10
15.7235139869
 20
13.4022729018
 30
0.0
 10
15.7223233154
 20
13.4019733622
 30
0.0
 10
15.721211651
 20
13.4015981351
 30
0.0
 10
15.7201870966
 20
13.401149798
 30
0.0
 10
15.7195514714
 20
13.4007954589
 30
0.0
 10
15.7192520405
 20
13.4006064998
 30
0.0
  0
SPLINE
  5
3C8
100
AcDbEntity
  8
LAYER_FEATURE
100
AcDbSpline
 62
7
  6
CONTINUOUS
 70
0
 71
3
 72
15
 73
11
 74
0
 42
0.0000001
 43
0.0000001
 44
0.0000000001
 40
0.0
 40
0.0
 40
0.0
 40
0.0
 40
0.1163091738
 40
0.2361647967
 40
0.3590805075
 40
0.4845358117
 40
0.6119617947
 40
0.7407591408
 40
0.870318342
 40
1.0
 40
1.0
 40
1.0
 40
1.0
 10
16.4877585149
 20
12.8516277602
 30
0.0
 10
16.4874034113
 20
12.8519163718
 30
0.0
 10
16.4866635831
 20
12.8524796015
 30
0.0
 10
16.4854907655
 20
12.8532684923
 30
0.0
 10
16.4842451133
 20
12.8540095917
 30
0.0
 10
16.4829356678
 20
12.854697551
 30
0.0
 10
16.48157181
 20
12.8553274198
 30
0.0
 10
16.4801633433
 20
12.8558946963
 30
0.0
 10
16.478720461
 20
12.8563952501
 30
0.0
 10
16.4777412968
 20
12.8566824436
 30
0.0
 10
16.4772483507
 20
12.8568140386
 30
0.0
  0
SPLINE
  5
3C9
100
AcDbEntity
  8
LAYER_FEATURE
100
AcDbSpline
 62
7
  6
CONTINUOUS
 70
0
 71
3
 72
11
 73
7
 74
0
 42
0.0000001
 43
0.0000001
 44
0.0000000001
 40
0.0
 40
0.0
 40
0.0
 40
0.0
 40
0.2534943074
 40
0.5052426397
 40
0.7543624702
 40
1.0
 40
1.0
 40
1.0
 40
1.0
 10
16.4772483507
 20
12.8568140386
 30
0.0
 10
16.4760301844
 20
12.8571392355
 30
0.0
 10
16.4735883786
 20
12.8577367127
 30
0.0
 10
16.4699083232
 20
12.858473753
 30
0.0
 10
16.4662385509
 20
12.8590457478
 30
0.0
 10
16.4637917745
 20
12.8593172393
 30
0.0
 10
16.4625747048
 20
12.859424056
 30
0.0
  0
SPLINE
  5
3CA
100
AcDbEntity
  8
LAYER_FEATURE
100
AcDbSpline
 62
7
  6
CONTINUOUS
 70
0
 71
3
 72
14
 73
10
 74
0
 42
0.0000001
 43
0.0000001
 44
0.0000000001
 40
0.0
 40
0.0
 40
0.0
 40
0.0
 40
0.2167319764
 40
0.3335859908
 40
0.4561692196
 40
0.5843914145
 40
0.7180192305
 40
0.8567104619
 40
1.0
 40
1.0
 40
1.0
 40
1.0
 10
15.7655988511
 20
13.3854464544
 30
0.0
 10
15.7653686823
 20
13.3861090228
 30
0.0
 10
15.7648922777
 20
13.3870889049
 30
0.0
 10
15.7640726328
 20
13.3883176742
 30
0.0
 10
15.7633305694
 20
13.3892497415
 30
0.0
 10
15.7624825185
 20
13.3901614931
 30
0.0
 10
15.7615343774
 20
13.3910469198
 30
0.0
 10
15.7604930424
 20
13.3918995627
 30
0.0
 10
15.7597526871
 20
13.3924341625
 30
0.0
 10
15.7593692307
 20
13.3926949389
 30
0.0
  0
SPLINE
  5
3CB
100
AcDbEntity
  8
LAYER_FEATURE
100
AcDbSpline
 62
7
  6
CONTINUOUS
 70
0
 71
3
 72
13
 73
9
 74
0
 42
0.0000001
 43
0.0000001
 44
0.0000000001
 40
0.0
 40
0.0
 40
0.0
 40
0.0
 40
0.1189823302
 40
0.2391923388
 40
0.3608884005
 40
0.4843326628
 40
0.737342742
 40
1.0
 40
1.0
 40
1.0
 40
1.0
 10
15.7667333293
 20
13.3763137715
 30
0.0
 10
15.766775659
 20
13.3766793203
 30
0.0
 10
15.7668377402
 20
13.3774170526
 30
0.0
 10
15.7668630998
 20
13.3785335726
 30
0.0
 10
15.7668210196
 20
13.3796634407
 30
0.0
 10
15.7666740075
 20
13.3811978541
 30
0.0
 10
15.7663172527
 20
13.3831463362
 30
0.0
 10
15.7658654264
 20
13.3846790857
 30
0.0
 10
15.7655988511
 20
13.3854464544
 30
0.0
  0
SPLINE
  5
3CC
100
AcDbEntity
  8
LAYER_FEATURE
100
AcDbSpline
 62
7
  6
CONTINUOUS
 70
0
 71
3
 72
41
 73
37
 74
0
 42
0.0000001
 43
0.0000001
 44
0.0000000001
 40
0.0
 40
0.0
 40
0.0
 40
0.0
 40
0.0109053759
 40
0.0219471942
 40
0.0331568751
 40
0.0445660432
 40
0.0680852787
 40
0.0927068591
 40
0.1185660459
 40
0.1457466031
 40
0.1742852108
 40
0.2041770504
 40
0.2353813698
 40
0.2678267032
 40
0.3014155698
 40
0.3360286662
 40
0.3715286163
 40
0.407763363
 40
0.4445692859
 40
0.4817741153
 40
0.5191997033
 40
0.5566647037
 40
0.593987203
 40
0.630987344
 40
0.6674899786
 40
0.7033273947
 40
0.7383421606
 40
0.7723901471
 40
0.805343791
 40
0.8370956777
 40
0.8675625386
 40
0.8966897041
 40
0.9244561679
 40
0.9508798559
 40
0.9760237231
 40
1.0
 40
1.0
 40
1.0
 40
1.0
 10
15.7667333293
 20
13.3763137715
 30
0.0
 10
15.7666877844
 20
13.375920456
 30
0.0
 10
15.766625039
 20
13.3751252703
 30
0.0
 10
15.7666158258
 20
13.3739205421
 30
0.0
 10
15.7666911317
 20
13.3726997493
 30
0.0
 10
15.7669059795
 20
13.3710373816
 30
0.0
 10
15.7673923524
 20
13.3689244179
 30
0.0
 10
15.768301715
 20
13.3663904376
 30
0.0
 10
15.7695350014
 20
13.3638492914
 30
0.0
 10
15.7710825917
 20
13.3613189728
 30
0.0
 10
15.7729329867
 20
13.3588169509
 30
0.0
 10
15.7750727266
 20
13.3563607192
 30
0.0
 10
15.7774864068
 20
13.3539675288
 30
0.0
 10
15.7801567145
 20
13.351654303
 30
0.0
 10
15.7830645133
 20
13.3494374809
 30
0.0
 10
15.7861889567
 20
13.3473328801
 30
0.0
 10
15.7895076269
 20
13.345355562
 30
0.0
 10
15.792996692
 20
13.3435197074
 30
0.0
 10
15.7966310773
 20
13.3418385019
 30
0.0
 10
15.8003846486
 20
13.3403240326
 30
0.0
 10
15.8042304031
 20
13.338987194
 30
0.0
 10
15.8081406688
 20
13.3378376054
 30
0.0
 10
15.812087308
 20
13.336883539
 30
0.0
 10
15.8160419259
 20
13.336131859
 30
0.0
 10
15.8199760802
 20
13.3355879728
 30
0.0
 10
15.8238614926
 20
13.3352557942
 30
0.0
 10
15.8276702589
 20
13.3351377204
 30
0.0
 10
15.8313750573
 20
13.3352346226
 30
0.0
 10
15.8349493508
 20
13.3355458529
 30
0.0
 10
15.8383675837
 20
13.3360692692
 30
0.0
 10
15.8416053575
 20
13.3368012756
 30
0.0
 10
15.8446396122
 20
13.3377368975
 30
0.0
 10
15.8474486881
 20
13.3388698155
 30
0.0
 10
15.8500126268
 20
13.340192632
 30
0.0
 10
15.8523124648
 20
13.3416962821
 30
0.0
 10
15.8536888573
 20
13.3428382513
 30
0.0
 10
15.8543221693
 20
13.3434355001
 30
0.0
  0
SPLINE
  5
3CD
100
AcDbEntity
  8
LAYER_FEATURE
100
AcDbSpline
 62
7
  6
CONTINUOUS
 70
0
 71
3
 72
15
 73
11
 74
0
 42
0.0000001
 43
0.0000001
 44
0.0000000001
 40
0.0
 40
0.0
 40
0.0
 40
0.0
 40
0.1198798906
 40
0.2423831424
 40
0.3669517782
 40
0.4930134269
 40
0.6199647095
 40
0.747189062
 40
0.8740755723
 40
1.0
 40
1.0
 40
1.0
 40
1.0
 10
16.4280260867
 20
12.9472082977
 30
0.0
 10
16.4276234151
 20
12.9474711259
 30
0.0
 10
16.4267939871
 20
12.9479794753
 30
0.0
 10
16.4254991482
 20
12.9486807262
 30
0.0
 10
16.4241475311
 20
12.9493250711
 30
0.0
 10
16.4227489429
 20
12.9499078603
 30
0.0
 10
16.4213134183
 20
12.9504248885
 30
0.0
 10
16.4198512785
 20
12.9508724621
 30
0.0
 10
16.418373113
 20
12.9512473155
 30
0.0
 10
16.4173786128
 20
12.9514480582
 30
0.0
 10
16.4168811316
 20
12.9515354685
 30
0.0
  0
SPLINE
  5
3CE
100
AcDbEntity
  8
LAYER_FEATURE
100
AcDbSpline
 62
7
  6
CONTINUOUS
 70
0
 71
3
 72
11
 73
7
 74
0
 42
0.0000001
 43
0.0000001
 44
0.0000000001
 40
0.0
 40
0.0
 40
0.0
 40
0.0
 40
0.2562626417
 40
0.5088991388
 40
0.7570731038
 40
1.0
 40
1.0
 40
1.0
 40
1.0
 10
16.4168811316
 20
12.9515354685
 30
0.0
 10
16.415661493
 20
12.951749766
 30
0.0
 10
16.4132300071
 20
12.952123476
 30
0.0
 10
16.4095919087
 20
12.9525191253
 30
0.0
 10
16.4060038272
 20
12.9527444661
 30
0.0
 10
16.4036298813
 20
12.952780764
 30
0.0
 10
16.4024560577
 20
12.9527691979
 30
0.0
  0
SPLINE
  5
3CF
100
AcDbEntity
  8
LAYER_FEATURE
100
AcDbSpline
 62
7
  6
CONTINUOUS
 70
0
 71
3
 72
11
 73
7
 74
0
 42
0.0000001
 43
0.0000001
 44
0.0000000001
 40
0.0
 40
0.0
 40
0.0
 40
0.0
 40
0.2660646159
 40
0.5209819504
 40
0.7653289152
 40
1.0
 40
1.0
 40
1.0
 40
1.0
 10
15.8630268347
 20
13.3488748582
 30
0.0
 10
15.8621809816
 20
13.3485257812
 30
0.0
 10
15.8605494384
 20
13.3477798368
 30
0.0
 10
15.8582522057
 20
13.3464883335
 30
0.0
 10
15.8561701733
 20
13.3450549625
 30
0.0
 10
15.8549093368
 20
13.343989232
 30
0.0
 10
15.8543221693
 20
13.3434355001
 30
0.0
  0
SPLINE
  5
3D0
100
AcDbEntity
  8
LAYER_FEATURE
100
AcDbSpline
 62
7
  6
CONTINUOUS
 70
0
 71
3
 72
15
 73
11
 74
0
 42
0.0000001
 43
0.0000001
 44
0.0000000001
 40
0.0
 40
0.0
 40
0.0
 40
0.0
 40
0.138567481
 40
0.2742443791
 40
0.4064420546
 40
0.5346503036
 40
0.6584189956
 40
0.7773849927
 40
0.8912947858
 40
1.0
 40
1.0
 40
1.0
 40
1.0
 10
15.8735255317
 20
13.3498440249
 30
0.0
 10
15.8730376488
 20
13.3499096392
 30
0.0
 10
15.8720685488
 20
13.3500149383
 30
0.0
 10
15.8706261197
 20
13.3500942975
 30
0.0
 10
15.8692182162
 20
13.35009306
 30
0.0
 10
15.8678550039
 20
13.3500112458
 30
0.0
 10
15.8665462275
 20
13.3498493925
 30
0.0
 10
15.8653011969
 20
13.3496086283
 30
0.0
 10
15.86412894
 20
13.3492906204
 30
0.0
 10
15.8633838162
 20
13.3490221816
 30
0.0
 10
15.8630268347
 20
13.3488748582
 30
0.0
  0
SPLINE
  5
3D1
100
AcDbEntity
  8
LAYER_FEATURE
100
AcDbSpline
 62
7
  6
CONTINUOUS
 70
0
 71
3
 72
15
 73
11
 74
0
 42
0.0000001
 43
0.0000001
 44
0.0000000001
 40
0.0
 40
0.0
 40
0.0
 40
0.0
 40
0.1235358898
 40
0.2487030141
 40
0.3748966212
 40
0.5015147621
 40
0.6279400562
 40
0.753557954
 40
0.8777747785
 40
1.0
 40
1.0
 40
1.0
 40
1.0
 10
16.3484859244
 20
13.0404309265
 30
0.0
 10
16.3480450929
 20
13.0406623045
 30
0.0
 10
16.3471452462
 20
13.0411049379
 30
0.0
 10
16.3457571323
 20
13.0417029917
 30
0.0
 10
16.3443295728
 20
13.0422362752
 30
0.0
 10
16.342872923
 20
13.0427009441
 30
0.0
 10
16.3413976416
 20
13.0430936388
 30
0.0
 10
16.3399143327
 20
13.0434115597
 30
0.0
 10
16.3384337434
 20
13.0436523802
 30
0.0
 10
16.3374460202
 20
13.0437614448
 30
0.0
 10
16.3369551383
 20
13.0438023278
 30
0.0
  0
SPLINE
  5
3D2
100
AcDbEntity
  8
LAYER_FEATURE
100
AcDbSpline
 62
7
  6
CONTINUOUS
 70
0
 71
3
 72
11
 73
7
 74
0
 42
0.0000001
 43
0.0000001
 44
0.0000000001
 40
0.0
 40
0.0
 40
0.0
 40
0.0
 40
0.2590089507
 40
0.5124982004
 40
0.7597182444
 40
1.0
 40
1.0
 40
1.0
 40
1.0
 10
16.3369551383
 20
13.0438023278
 30
0.0
 10
16.335761185
 20
13.0439017661
 30
0.0
 10
16.3333938722
 20
13.0440450619
 30
0.0
 10
16.3298786201
 20
13.0440905034
 30
0.0
 10
16.3264519598
 20
13.0439641491
 30
0.0
 10
16.3242046385
 20
13.0437627414
 30
0.0
 10
16.3231008686
 20
13.0436322096
 30
0.0
  0
SPLINE
  5
3D3
100
AcDbEntity
  8
LAYER_FEATURE
100
AcDbSpline
 62
7
  6
CONTINUOUS
 70
0
 71
3
 72
15
 73
11
 74
0
 42
0.0000001
 43
0.0000001
 44
0.0000000001
 40
0.0
 40
0.0
 40
0.0
 40
0.0
 40
0.1054338191
 40
0.2156309823
 40
0.3312771033
 40
0.4528328551
 40
0.5805304228
 40
0.7144031462
 40
0.8543247155
 40
1.0
 40
1.0
 40
1.0
 40
1.0
 10
15.907428519
 20
13.3299705907
 30
0.0
 10
15.9073913003
 20
13.3302843341
 30
0.0
 10
15.9072717433
 20
13.3309214548
 30
0.0
 10
15.9069707241
 20
13.3318696207
 30
0.0
 10
15.9065471238
 20
13.3328227079
 30
0.0
 10
15.9060043768
 20
13.333773853
 30
0.0
 10
15.905346531
 20
13.3347165063
 30
0.0
 10
15.9045784087
 20
13.3356441187
 30
0.0
 10
15.9037055899
 20
13.3365501066
 30
0.0
 10
15.9030701784
 20
13.3371245132
 30
0.0
 10
15.9027373212
 20
13.3374069408
 30
0.0
  0
SPLINE
  5
3D4
100
AcDbEntity
  8
LAYER_FEATURE
100
AcDbSpline
 62
7
  6
CONTINUOUS
 70
0
 71
3
 72
11
 73
7
 74
0
 42
0.0000001
 43
0.0000001
 44
0.0000000001
 40
0.0
 40
0.0
 40
0.0
 40
0.0
 40
0.265691786
 40
0.5208762463
 40
0.7655626677
 40
1.0
 40
1.0
 40
1.0
 40
1.0
 10
15.9996150445
 20
13.2858127405
 30
0.0
 10
15.998649563
 20
13.2855694263
 30
0.0
 10
15.9967712444
 20
13.2850320344
 30
0.0
 10
15.9940727297
 20
13.2840506797
 30
0.0
 10
15.9915631974
 20
13.2829150614
 30
0.0
 10
15.9899920389
 20
13.2820404641
 30
0.0
 10
15.989244946
 20
13.2815781961
 30
0.0
  0
SPLINE
  5
3D5
100
AcDbEntity
  8
LAYER_FEATURE
100
AcDbSpline
 62
7
  6
CONTINUOUS
 70
0
 71
3
 72
15
 73
11
 74
0
 42
0.0000001
 43
0.0000001
 44
0.0000000001
 40
0.0
 40
0.0
 40
0.0
 40
0.0
 40
0.1348290577
 40
0.2679767605
 40
0.3988150799
 40
0.5267711681
 40
0.6513077468
 40
0.7719464062
 40
0.8882873707
 40
1.0
 40
1.0
 40
1.0
 40
1.0
 10
16.0107522095
 20
13.2856672183
 30
0.0
 10
16.0102596722
 20
13.2857784097
 30
0.0
 10
16.0092751393
 20
13.2859754425
 30
0.0
 10
16.0077971504
 20
13.2861947475
 30
0.0
 10
16.0063353468
 20
13.2863348557
 30
0.0
 10
16.0049003041
 20
13.286394774
 30
0.0
 10
16.0035023051
 20
13.2863740422
 30
0.0
 10
16.0021513376
 20
13.2862728139
 30
0.0
 10
16.00085719
 20
13.2860917791
 30
0.0
 10
16.000020722
 20
13.2859149767
 30
0.0
 10
15.9996150445
 20
13.2858127405
 30
0.0
  0
SPLINE
  5
3D6
100
AcDbEntity
  8
LAYER_FEATURE
100
AcDbSpline
 62
7
  6
CONTINUOUS
 70
0
 71
3
 72
15
 73
11
 74
0
 42
0.0000001
 43
0.0000001
 44
0.0000000001
 40
0.0
 40
0.0
 40
0.0
 40
0.0
 40
0.1272570249
 40
0.2550960042
 40
0.3828851945
 40
0.510011998
 40
0.6358636632
 40
0.7598465393
 40
0.8814038868
 40
1.0
 40
1.0
 40
1.0
 40
1.0
 10
16.2509148238
 20
13.1292132071
 30
0.0
 10
16.2504459824
 20
13.1294082443
 30
0.0
 10
16.2494962719
 20
13.129775897
 30
0.0
 10
16.2480457299
 20
13.1302574646
 30
0.0
 10
16.2465739591
 20
13.1306678334
 30
0.0
 10
16.2450916301
 20
13.1310040523
 30
0.0
 10
16.2436093867
 20
13.131263684
 30
0.0
 10
16.2421378722
 20
13.1314448858
 30
0.0
 10
16.24068775
 20
13.1315463209
 30
0.0
 10
16.2397289658
 20
13.1315604883
 30
0.0
 10
16.2392557854
 20
13.1315535274
 30
0.0
  0
SPLINE
  5
3D7
100
AcDbEntity
  8
LAYER_FEATURE
100
AcDbSpline
 62
7
  6
CONTINUOUS
 70
0
 71
3
 72
11
 73
7
 74
0
 42
0.0000001
 43
0.0000001
 44
0.0000000001
 40
0.0
 40
0.0
 40
0.0
 40
0.0
 40
0.2616511188
 40
0.5159172534
 40
0.7621952019
 40
1.0
 40
1.0
 40
1.0
 40
1.0
 10
16.2392557854
 20
13.1315535274
 30
0.0
 10
16.2381138473
 20
13.1315367285
 30
0.0
 10
16.2358625503
 20
13.1314481032
 30
0.0
 10
16.2325481879
 20
13.1311422576
 30
0.0
 10
16.2293589555
 20
13.1306669
 30
0.0
 10
16.2272898866
 20
13.130230667
 30
0.0
 10
16.2262818014
 20
13.1299833618
 30
0.0
  0
SPLINE
  5
3D8
100
AcDbEntity
  8
LAYER_FEATURE
100
AcDbSpline
 62
7
  6
CONTINUOUS
 70
0
 71
3
 72
15
 73
11
 74
0
 42
0.0000001
 43
0.0000001
 44
0.0000000001
 40
0.0
 40
0.0
 40
0.0
 40
0.0
 40
0.1076044042
 40
0.2184124341
 40
0.3336174783
 40
0.4541772743
 40
0.5807779063
 40
0.7138483782
 40
0.8535960621
 40
1.0
 40
1.0
 40
1.0
 40
1.0
 10
16.0410797421
 20
13.2635865412
 30
0.0
 10
16.0411176292
 20
13.2638822279
 30
0.0
 10
16.0411502035
 20
13.2644888913
 30
0.0
 10
16.0410705836
 20
13.2654123634
 30
0.0
 10
16.040864272
 20
13.2663526576
 30
0.0
 10
16.040533353
 20
13.2673027087
 30
0.0
 10
16.0400806309
 20
13.2682558983
 30
0.0
 10
16.0395096588
 20
13.2692056234
 30
0.0
 10
16.0388247264
 20
13.2701451978
 30
0.0
 10
16.038307151
 20
13.2707468727
 30
0.0
 10
16.0380317607
 20
13.2710446411
 30
0.0
  0
SPLINE
  5
3D9
100
AcDbEntity
  8
LAYER_FEATURE
100
AcDbSpline
 62
7
  6
CONTINUOUS
 70
0
 71
3
 72
11
 73
7
 74
0
 42
0.0000001
 43
0.0000001
 44
0.0000000001
 40
0.0
 40
0.0
 40
0.0
 40
0.0
 40
0.264002878
 40
0.5188861564
 40
0.7642838085
 40
1.0
 40
1.0
 40
1.0
 40
1.0
 10
16.125965515
 20
13.2128288505
 30
0.0
 10
16.124900441
 20
13.2126969955
 30
0.0
 10
16.1228136718
 20
13.2123799494
 30
0.0
 10
16.1197736266
 20
13.2117293973
 30
0.0
 10
16.1168924006
 20
13.2109152617
 30
0.0
 10
16.1150500776
 20
13.2102526633
 30
0.0
 10
16.1141616341
 20
13.2098937124
 30
0.0
  0
SPLINE
  5
3DA
100
AcDbEntity
  8
LAYER_FEATURE
100
AcDbSpline
 62
7
  6
CONTINUOUS
 70
0
 71
3
 72
15
 73
11
 74
0
 42
0.0000001
 43
0.0000001
 44
0.0000000001
 40
0.0
 40
0.0
 40
0.0
 40
0.0
 40
0.1310313123
 40
0.2615404631
 40
0.3908872063
 40
0.5184673823
 40
0.6436931076
 40
0.7660136367
 40
0.8849336467
 40
1.0
 40
1.0
 40
1.0
 40
1.0
 10
16.137492362
 20
13.21157189
 30
0.0
 10
16.1370061874
 20
13.2117265538
 30
0.0
 10
16.1360280981
 20
13.2120117072
 30
0.0
 10
16.1345473759
 20
13.2123660823
 30
0.0
 10
16.1330641108
 20
13.212644414
 30
0.0
 10
16.1315890479
 20
13.2128447097
 30
0.0
 10
16.1301327721
 20
13.2129655074
 30
0.0
 10
16.1287057202
 20
13.2130059586
 30
0.0
 10
16.1273182327
 20
13.2129657416
 30
0.0
 10
16.1264101426
 20
13.2128838949
 30
0.0
 10
16.125965515
 20
13.2128288505
 30
0.0
  0
ENDSEC
  0
SECTION
  2
OBJECTS
  0
DICTIONARY
  5
C
100
AcDbDictionary
280
0
281
1
  3
ACAD_GROUP
350
D
  3
ACAD_MLINESTYLE
350
17
  3
ACAD_LAYOUT
350
1A
  3
ACAD_PLOTSETTINGS
350
19
  3
ACAD_PLOTSTYLENAME
350
E
  0
DICTIONARY
  5
D
102
{ACAD_REACTORS
330
C
102
}
100
AcDbDictionary
280
0
281
1
  0
ACDBDICTIONARYWDFLT
  5
E
102
{ACAD_REACTORS
330
C
102
}
100
AcDbDictionary
281
1
  3
Normal
350
F
100
AcDbDictionaryWithDefault
340
F
  0
DICTIONARY
  5
17
102
{ACAD_REACTORS
330
C
102
}
100
AcDbDictionary
280
0
281
1
  3
Standard
350
18
  0
DICTIONARY
  5
19
102
{ACAD_REACTORS
330
C
102
}
100
AcDbDictionary
281
1
  0
DICTIONARY
  5
1A
102
{ACAD_REACTORS
330
C
102
}
100
AcDbDictionary
281
1
  3
Model
350
3DB
  3
Layout1
350
3DC
  0
ACDBPLACEHOLDER
  5
F
102
{ACAD_REACTORS
330
E
102
}
  0
MLINESTYLE
  5
18
102
{ACAD_REACTORS
330
17
102
}
100
AcDbMlineStyle
  2
STANDARD
 70
0
  3

 62
256
 51
90.0
 52
90.0
 71
2
 49
0.5
 62
256
  6
BYLAYER
 49
-0.5
 62
256
  6
BYLAYER
  0
LAYOUT
  5
3DB
102
{ACAD_REACTORS
330
1A
102
}
100
AcDbPlotSettings
  1

  2
none_device
  4
ANSI_C_(22.00_x_17.00_Inches)
  6

 40
0.0
 41
0.0
 42
0.0
 43
0.0
 44
558.8
 45
431.8
 46
0.0
 47
0.0
 48
0.0
 49
0.0
140
0.0
141
0.0
142
1.0
143
1.0
 70
1024
 72
0
 73
0
 74
0
  7

 75
0
147
1.0
148
0.0
149
0.0
100
AcDbLayout
  1
Model
 70
0
 71
0
 10
0.0
 20
0.0
 11
22.0
 21
17.0
 12
0.0
 22
0.0
 32
0.0
 14
0.0
 24
0.0
 34
0.0
 15
0.0
 25
0.0
 35
0.0
146
0.0
 13
0.0
 23
0.0
 33
0.0
 16
1.0
 26
0.0
 36
0.0
 17
0.0
 27
1.0
 37
0.0
 76
0
330
222
345
0
346
0
  0
LAYOUT
  5
3DC
102
{ACAD_REACTORS
330
1A
102
}
100
AcDbPlotSettings
  1

  2
none_device
  4
ANSI_C_(22.00_x_17.00_Inches)
  6

 40
0.0
 41
0.0
 42
0.0
 43
0.0
 44
558.8
 45
431.8
 46
0.0
 47
0.0
 48
0.0
 49
0.0
140
0.0
141
0.0
142
1.0
143
1.0
 70
0
 72
0
 73
0
 74
0
  7

 75
0
147
1.0
148
0.0
149
0.0
100
AcDbLayout
  1
Layout1
 70
0
 71
1
 10
0.0
 20
0.0
 11
22.0
 21
17.0
 12
0.0
 22
0.0
 32
0.0
 14
0.0
 24
0.0
 34
0.0
 15
0.0
 25
0.0
 35
0.0
146
0.0
 13
0.0
 23
0.0
 33
0.0
 16
1.0
 26
0.0
 36
0.0
 17
0.0
 27
1.0
 37
0.0
 76
0
330
223
345
0
346
0
  0
ENDSEC
  0
EOF