999
DXF file: _cgs_temp_output.dxf
999
Pro/ENGINEER 2016360 by Parametric Technology Corporation
  0
SECTION
  2
HEADER
  9
$ACADVER
  1
AC1021
  9
$DWGCODEPAGE
  3
ANSI_1252
  9
$EXTMAX
 10
22.0
 20
17.0
 30
0.0
  9
$EXTMIN
 10
0.0
 20
0.0
 30
0.0
  9
$LIMMIN
 10
0.0
 20
0.0
  9
$LIMMAX
 10
22.0
 20
17.0
  9
$VIEWCTR
 10
11.0
 20
8.5
  9
$VIEWSIZE
 40
17.0
  9
$CLAYER
  8
0
  9
$LTSCALE
 40
1.21
  9
$CELTYPE
  6
BYLAYER
  9
$DIMSCALE
 40
1.0
  9
$DIMASZ
 40
0.1875
  9
$DIMEXO
 40
0.0625
  9
$DIMDLI
 40
0.836
  9
$DIMEXE
 40
0.125
  9
$DIMCEN
 40
0.198
  9
$DIMLFAC
 40
1.0
  9
$DIMBLK
  1
_CLOSED
  9
$DIMALT
 70
0
  9
$DIMALTF
 40
25.4
  9
$DIMTXT
 40
0.15625
  9
$DIMTOL
 70
0
  9
$DIMLIM
 70
0
  9
$DIMTFAC
 40
1.0
  9
$DIMGAP
 40
0.09
  9
$DIMDSEP
 70
46
  9
$AUNITS
 70
0
  9
$PDMODE
 70
3
  9
$PDSIZE
 40
0.3125
  9
$HANDSEED
  5
3F1
  9
$TILEMODE
 70
1
  9
$MEASUREMENT
 70
0
  9
$INSUNITS
 70
1
  0
ENDSEC
  0
SECTION
  2
CLASSES
  0
CLASS
  1
ACDBDICTIONARYWDFLT
  2
AcDbDictionaryWithDefault
  3
AutoCAD 2000
 90
0
 91
1
280
0
281
0
  0
CLASS
  1
ACDBPLACEHOLDER
  2
AcDbPlaceHolder
  3
AutoCAD 2000
 90
0
 91
1
280
0
281
0
  0
CLASS
  1
LAYOUT
  2
AcDbLayout
  3
AutoCAD 2000
 90
0
 91
0
280
0
281
0
  0
ENDSEC
  0
SECTION
  2
TABLES
  0
TABLE
  2
VPORT
  5
8
100
AcDbSymbolTable
 70
2
  0
VPORT
  5
1F4
100
AcDbSymbolTableRecord
100
AcDbViewportTableRecord
  2
*ACTIVE
 70
0
 10
0.0
 20
0.0
 11
1.0
 21
1.0
 12
11.0
 22
8.5
 13
0.0
 23
0.0
 14
1.0
 24
1.0
 15
0.0
 25
0.0
 16
0.0
 26
0.0
 36
1.0
 17
0.0
 27
0.0
 37
0.0
 40
17.0
 41
1.2941176471
 42
50.0
 43
0.0
 44
0.0
 50
0.0
 51
0.0
 71
0
 72
100
 73
1
 74
1
 75
0
 76
0
 77
0
 78
0
  0
ENDTAB
  0
TABLE
  2
LTYPE
  5
5
100
AcDbSymbolTable
 70
6
  0
LTYPE
  5
14
100
AcDbSymbolTableRecord
100
AcDbLinetypeTableRecord
  2
BYBLOCK
 70
0
  3

 72
65
 73
0
 40
0.0
  0
LTYPE
  5
15
100
AcDbSymbolTableRecord
100
AcDbLinetypeTableRecord
  2
BYLAYER
 70
0
  3

 72
65
 73
0
 40
0.0
  0
LTYPE
  5
16
100
AcDbSymbolTableRecord
100
AcDbLinetypeTableRecord
  2
CONTINUOUS
 70
64
  3
Solid line
 72
65
 73
0
 40
0.0
  0
LTYPE
  5
1F5
100
AcDbSymbolTableRecord
100
AcDbLinetypeTableRecord
  2
CENTER
 70
64
  3
____ _ ____ _ ____ _ ____ _ ____ _ ____ _ ____
 72
65
 73
4
 40
0.6
 49
0.375
 74
0
 49
-0.075
 74
0
 49
0.075
 74
0
 49
-0.075
 74
0
  0
LTYPE
  5
1F6
100
AcDbSymbolTableRecord
100
AcDbLinetypeTableRecord
  2
HIDDEN
 70
64
  3
- - - - - - - - - - - - - - - - - - - -
 72
65
 73
2
 40
0.2
 49
0.1
 74
0
 49
-0.1
 74
0
  0
LTYPE
  5
1F7
100
AcDbSymbolTableRecord
100
AcDbLinetypeTableRecord
  2
PHANTOM
 70
64
  3
_____ _ _ _____ _ _ _____ _ _ _____
 72
65
 73
6
 40
0.8
 49
0.45
 74
0
 49
-0.05
 74
0
 49
0.1
 74
0
 49
-0.05
 74
0
 49
0.1
 74
0
 49
-0.05
 74
0
  0
LTYPE
  5
1F8
100
AcDbSymbolTableRecord
100
AcDbLinetypeTableRecord
  2
DOT
 70
64
  3
. . . . . . . . . . . . . . . . . . . .
 72
65
 73
2
 40
0.2
 49
0.1
 74
0
 49
-0.1
 74
0
  0
LTYPE
  5
1F9
100
AcDbSymbolTableRecord
100
AcDbLinetypeTableRecord
  2
DASHED
 70
64
  3
- - - - - - - - - - - - - - - - - - - -
 72
65
 73
2
 40
0.2
 49
0.1
 74
0
 49
-0.1
 74
0
  0
ENDTAB
  0
TABLE
  2
LAYER
  5
2
100
AcDbSymbolTable
 70
36
  0
LAYER
  5
10
100
AcDbSymbolTableRecord
100
AcDbLayerTableRecord
  2
0
 70
0
 62
7
  6
CONTINUOUS
370
-3
390
F
  0
LAYER
  5
1FA
100
AcDbSymbolTableRecord
100
AcDbLayerTableRecord
  2
DEFAULT_1
 70
0
 62
7
  6
CENTER
370
-3
390
F
  0
LAYER
  5
1FB
100
AcDbSymbolTableRecord
100
AcDbLayerTableRecord
  2
DEFAULT_2
 70
0
 62
8
  6
HIDDEN
370
-3
390
F
  0
LAYER
  5
1FC
100
AcDbSymbolTableRecord
100
AcDbLayerTableRecord
  2
DEFAULT_3
 70
0
 62
7
  6
PHANTOM
370
-3
390
F
  0
LAYER
  5
1FD
100
AcDbSymbolTableRecord
100
AcDbLayerTableRecord
  2
01_ALL_DTM_PLN
 70
0
 62
7
  6
CONTINUOUS
370
-3
390
F
  0
LAYER
  5
1FE
100
AcDbSymbolTableRecord
100
AcDbLayerTableRecord
  2
01__ASM_ALL_DTM_PLN
 70
0
 62
7
  6
CONTINUOUS
370
-3
390
F
  0
LAYER
  5
1FF
100
AcDbSymbolTableRecord
100
AcDbLayerTableRecord
  2
01__ASM_DEF_DTM_PLN
 70
0
 62
7
  6
CONTINUOUS
370
-3
390
F
  0
LAYER
  5
200
100
AcDbSymbolTableRecord
100
AcDbLayerTableRecord
  2
01___PRT_ALL_DTM_PLN
 70
0
 62
7
  6
CONTINUOUS
370
-3
390
F
  0
LAYER
  5
201
100
AcDbSymbolTableRecord
100
AcDbLayerTableRecord
  2
01___PRT_DEF_DTM_PLN
 70
0
 62
7
  6
CONTINUOUS
370
-3
390
F
  0
LAYER
  5
202
100
AcDbSymbolTableRecord
100
AcDbLayerTableRecord
  2
02_ALL_AXES
 70
0
 62
7
  6
CONTINUOUS
370
-3
390
F
  0
LAYER
  5
203
100
AcDbSymbolTableRecord
100
AcDbLayerTableRecord
  2
02__ASM_ALL_AXES
 70
0
 62
7
  6
CONTINUOUS
370
-3
390
F
  0
LAYER
  5
204
100
AcDbSymbolTableRecord
100
AcDbLayerTableRecord
  2
02___PRT_ALL_AXES
 70
0
 62
7
  6
CONTINUOUS
370
-3
390
F
  0
LAYER
  5
205
100
AcDbSymbolTableRecord
100
AcDbLayerTableRecord
  2
03_ALL_CURVES
 70
0
 62
7
  6
CONTINUOUS
370
-3
390
F
  0
LAYER
  5
206
100
AcDbSymbolTableRecord
100
AcDbLayerTableRecord
  2
03__ASM_ALL_CURVES
 70
0
 62
7
  6
CONTINUOUS
370
-3
390
F
  0
LAYER
  5
207
100
AcDbSymbolTableRecord
100
AcDbLayerTableRecord
  2
03___PRT_ALL_CURVES
 70
0
 62
7
  6
CONTINUOUS
370
-3
390
F
  0
LAYER
  5
208
100
AcDbSymbolTableRecord
100
AcDbLayerTableRecord
  2
04_ALL_DTM_PNT
 70
0
 62
7
  6
CONTINUOUS
370
-3
390
F
  0
LAYER
  5
209
100
AcDbSymbolTableRecord
100
AcDbLayerTableRecord
  2
04__ASM_ALL_DTM_PNT
 70
0
 62
7
  6
CONTINUOUS
370
-3
390
F
  0
LAYER
  5
20A
100
AcDbSymbolTableRecord
100
AcDbLayerTableRecord
  2
04___PRT_ALL_DTM_PNT
 70
0
 62
7
  6
CONTINUOUS
370
-3
390
F
  0
LAYER
  5
20B
100
AcDbSymbolTableRecord
100
AcDbLayerTableRecord
  2
05_ALL_DTM_CSYS
 70
0
 62
7
  6
CONTINUOUS
370
-3
390
F
  0
LAYER
  5
20C
100
AcDbSymbolTableRecord
100
AcDbLayerTableRecord
  2
05__ASM_ALL_DTM_CSYS
 70
0
 62
7
  6
CONTINUOUS
370
-3
390
F
  0
LAYER
  5
20D
100
AcDbSymbolTableRecord
100
AcDbLayerTableRecord
  2
05__ASM_DEF_DTM_CSYS
 70
0
 62
7
  6
CONTINUOUS
370
-3
390
F
  0
LAYER
  5
20E
100
AcDbSymbolTableRecord
100
AcDbLayerTableRecord
  2
05___PRT_ALL_DTM_CSYS
 70
0
 62
7
  6
CONTINUOUS
370
-3
390
F
  0
LAYER
  5
20F
100
AcDbSymbolTableRecord
100
AcDbLayerTableRecord
  2
05___PRT_DEF_DTM_CSYS
 70
0
 62
7
  6
CONTINUOUS
370
-3
390
F
  0
LAYER
  5
210
100
AcDbSymbolTableRecord
100
AcDbLayerTableRecord
  2
06_ALL_SURFS
 70
0
 62
7
  6
CONTINUOUS
370
-3
390
F
  0
LAYER
  5
211
100
AcDbSymbolTableRecord
100
AcDbLayerTableRecord
  2
06__ASM_ALL_SURFS
 70
0
 62
7
  6
CONTINUOUS
370
-3
390
F
  0
LAYER
  5
212
100
AcDbSymbolTableRecord
100
AcDbLayerTableRecord
  2
06___PRT_ALL_SURFS
 70
0
 62
7
  6
CONTINUOUS
370
-3
390
F
  0
LAYER
  5
213
100
AcDbSymbolTableRecord
100
AcDbLayerTableRecord
  2
07__ASM_ALL_SKELETONS
 70
0
 62
7
  6
CONTINUOUS
370
-3
390
F
  0
LAYER
  5
214
100
AcDbSymbolTableRecord
100
AcDbLayerTableRecord
  2
LAYER_AXIS
 70
0
 62
7
  6
CONTINUOUS
370
-3
390
F
  0
LAYER
  5
215
100
AcDbSymbolTableRecord
100
AcDbLayerTableRecord
  2
LAYER_CHAMFER_FEAT
 70
0
 62
7
  6
CONTINUOUS
370
-3
390
F
  0
LAYER
  5
216
100
AcDbSymbolTableRecord
100
AcDbLayerTableRecord
  2
LAYER_CUT_FEAT
 70
0
 62
7
  6
CONTINUOUS
370
-3
390
F
  0
LAYER
  5
217
100
AcDbSymbolTableRecord
100
AcDbLayerTableRecord
  2
LAYER_DATUM
 70
0
 62
7
  6
CONTINUOUS
370
-3
390
F
  0
LAYER
  5
218
100
AcDbSymbolTableRecord
100
AcDbLayerTableRecord
  2
LAYER_DIM
 70
0
 62
7
  6
CONTINUOUS
370
-3
390
F
  0
LAYER
  5
219
100
AcDbSymbolTableRecord
100
AcDbLayerTableRecord
  2
LAYER_FEATURE
 70
0
 62
7
  6
CONTINUOUS
370
-3
390
F
  0
LAYER
  5
21A
100
AcDbSymbolTableRecord
100
AcDbLayerTableRecord
  2
LAYER_GEOM_FEAT
 70
0
 62
7
  6
CONTINUOUS
370
-3
390
F
  0
LAYER
  5
21B
100
AcDbSymbolTableRecord
100
AcDbLayerTableRecord
  2
LAYER_NOGEOM_FEAT
 70
0
 62
7
  6
CONTINUOUS
370
-3
390
F
  0
LAYER
  5
21C
100
AcDbSymbolTableRecord
100
AcDbLayerTableRecord
  2
LAYER_PARAMETER_DIM
 70
0
 62
7
  6
CONTINUOUS
370
-3
390
F
  0
LAYER
  5
21D
100
AcDbSymbolTableRecord
100
AcDbLayerTableRecord
  2
LAYER_PROTRUSION_FEAT
 70
0
 62
7
  6
CONTINUOUS
370
-3
390
F
  0
LAYER
  5
21E
100
AcDbSymbolTableRecord
100
AcDbLayerTableRecord
  2
LAYER_QUILT
 70
0
 62
7
  6
CONTINUOUS
370
-3
390
F
  0
LAYER
  5
21F
100
AcDbSymbolTableRecord
100
AcDbLayerTableRecord
  2
LAYER_ROUND_FEAT
 70
0
 62
7
  6
CONTINUOUS
370
-3
390
F
  0
ENDTAB
  0
TABLE
  2
STYLE
  5
3
100
AcDbSymbolTable
 70
1
  0
STYLE
  5
11
100
AcDbSymbolTableRecord
100
AcDbTextStyleTableRecord
  2
STANDARD
 70
0
 40
0.0
 41
0.8
 50
0.0
 71
0
 42
0.2
  3
txt
  4

  0
STYLE
  5
220
100
AcDbSymbolTableRecord
100
AcDbTextStyleTableRecord
  2
TEXTSTYLE_1
 70
0
 40
0.0
 41
0.8
 50
0.0
 71
0
 42
0.2
  3
gdt
  4

  0
ENDTAB
  0
TABLE
  2
VIEW
  5
6
100
AcDbSymbolTable
 70
0
  0
ENDTAB
  0
TABLE
  2
UCS
  5
7
100
AcDbSymbolTable
 70
0
  0
ENDTAB
  0
TABLE
  2
APPID
  5
9
100
AcDbSymbolTable
 70
1
  0
APPID
  5
221
100
AcDbSymbolTableRecord
100
AcDbRegAppTableRecord
  2
ACAD
 70
0
  0
ENDTAB
  0
TABLE
  2
BLOCK_RECORD
  5
1
100
AcDbSymbolTable
 70
0
  0
BLOCK_RECORD
  5
222
100
AcDbSymbolTableRecord
100
AcDbBlockTableRecord
  2
*Model_Space
  0
BLOCK_RECORD
  5
223
100
AcDbSymbolTableRecord
100
AcDbBlockTableRecord
  2
*Paper_Space
  0
ENDTAB
  0
TABLE
  2
DIMSTYLE
  5
A
100
AcDbSymbolTable
 70
1
100
AcDbDimStyleTable
 71
0
  0
DIMSTYLE
105
224
100
AcDbSymbolTableRecord
100
AcDbDimStyleTableRecord
  2
STANDARD
 70
0
  3

  4

 40
1.0
 41
0.1875
 42
0.0625
 43
0.38
 44
0.125
 45
0.0
 46
0.0
 47
0.0001
 48
0.0001
140
0.15625
141
0.09
142
0.0
143
25.4
144
1.0
145
0.0
146
1.0
147
0.09
 71
0.0
 72
0.0
 73
1
 74
1
 75
0
 76
0
 77
0
 78
4
 79
1
170
0
171
3
172
0
173
0
174
0
175
0
176
0
177
0
178
0
270
2
179
4
271
4
272
4
273
2
274
2
275
0
280
0
281
0
282
0
283
1
284
4
285
0
286
0
287
3
288
0
340
11
278
46
  0
ENDTAB
  0
ENDSEC
  0
SECTION
  2
BLOCKS
  0
BLOCK
  5
20
100
AcDbEntity
  8
0
100
AcDbBlockBegin
  2
*Model_Space
 70
0
 10
0.0
 20
0.0
 30
0.0
  3
*Model_Space
  1

  0
ENDBLK
  5
21
100
AcDbEntity
  8
0
100
AcDbBlockEnd
  0
BLOCK
  5
1C
100
AcDbEntity
  8
0
100
AcDbBlockBegin
  2
*Paper_Space
 70
0
 10
0.0
 20
0.0
 30
0.0
  3
*Paper_Space
  1

  0
ENDBLK
  5
1D
100
AcDbEntity
  8
0
100
AcDbBlockEnd
  0
ENDSEC
  0
SECTION
  2
ENTITIES
  0
MTEXT
  5
225
100
AcDbEntity
  8
0
100
AcDbMText
 62
7
  6
CONTINUOUS
  7
STANDARD
 71
1
 72
1
 10
15.9560215477
 20
0.9479130325
 30
0.0
 11
1.0
 21
0.0
 31
0.0
 44
0.9
  1
SCALE: 1:2.000
 40
0.3
 41
3.36
  0
LINE
  5
226
100
AcDbEntity
  8
0
100
AcDbLine
 62
7
  6
CONTINUOUS
 10
0.0
 20
0.0
 11
0.0
 21
17.0
  0
LINE
  5
227
100
AcDbEntity
  8
0
100
AcDbLine
 62
7
  6
CONTINUOUS
 10
0.0
 20
0.0
 11
22.0
 21
0.0
  0
LINE
  5
228
100
AcDbEntity
  8
0
100
AcDbLine
 62
7
  6
CONTINUOUS
 10
0.0
 20
17.0
 11
22.0
 21
17.0
  0
LINE
  5
229
100
AcDbEntity
  8
0
100
AcDbLine
 62
7
  6
CONTINUOUS
 10
22.0
 20
0.0
 11
22.0
 21
17.0
  0
LINE
  5
22A
100
AcDbEntity
  8
LAYER_FEATURE
100
AcDbLine
 62
7
  6
CONTINUOUS
 10
5.9991672762
 20
6.4201198968
 11
5.9876918436
 21
6.4086444642
  0
LINE
  5
22B
100
AcDbEntity
  8
LAYER_FEATURE
100
AcDbLine
 62
7
  6
CONTINUOUS
 10
7.0303672762
 20
5.3889198968
 11
7.0189956794
 21
5.3775483
  0
LINE
  5
22C
100
AcDbEntity
  8
LAYER_FEATURE
100
AcDbLine
 62
7
  6
CONTINUOUS
 10
6.2615672762
 20
6.4201198968
 11
6.2730427087
 21
6.4086444642
  0
LINE
  5
22D
100
AcDbEntity
  8
LAYER_FEATURE
100
AcDbLine
 62
7
  6
CONTINUOUS
 10
7.0303672762
 20
5.6513198968
 11
7.0189956794
 21
5.6626914935
  0
LINE
  5
22E
100
AcDbEntity
  8
LAYER_FEATURE
100
AcDbLine
 62
7
  6
CONTINUOUS
 10
7.0303672762
 20
5.6513198968
 11
7.0303672762
 21
5.3889198968
  0
LINE
  5
22F
100
AcDbEntity
  8
LAYER_FEATURE
100
AcDbLine
 62
7
  6
CONTINUOUS
 10
5.9991672762
 20
6.4201198968
 11
6.2615672762
 21
6.4201198968
  0
LINE
  5
230
100
AcDbEntity
  8
LAYER_FEATURE
100
AcDbLine
 62
7
  6
CONTINUOUS
 10
4.7318720839
 20
12.5075477814
 11
4.7318720839
 21
12.5875477814
  0
LINE
  5
231
100
AcDbEntity
  8
LAYER_FEATURE
100
AcDbLine
 62
7
  6
CONTINUOUS
 10
4.7318720839
 20
13.2375477814
 11
4.7318720839
 21
13.3175477814
  0
LINE
  5
232
100
AcDbEntity
  8
LAYER_FEATURE
100
AcDbLine
 62
7
  6
CONTINUOUS
 10
4.9631069076
 20
12.6225477814
 11
4.9631069076
 21
13.2025477814
  0
LINE
  5
233
100
AcDbEntity
  8
LAYER_FEATURE
100
AcDbLine
 62
7
  6
CONTINUOUS
 10
4.9673965407
 20
12.6225477814
 11
4.9673965407
 21
13.2025477814
  0
LINE
  5
234
100
AcDbEntity
  8
LAYER_FEATURE
100
AcDbLine
 62
7
  6
CONTINUOUS
 10
4.9707130084
 20
12.6225477814
 11
4.9707130084
 21
13.2025477814
  0
LINE
  5
235
100
AcDbEntity
  8
LAYER_FEATURE
100
AcDbLine
 62
7
  6
CONTINUOUS
 10
4.9920567827
 20
12.6225477814
 11
4.9920567827
 21
13.2025477814
  0
LINE
  5
236
100
AcDbEntity
  8
LAYER_FEATURE
100
AcDbLine
 62
7
  6
CONTINUOUS
 10
4.9997324543
 20
12.6225477814
 11
4.9997324543
 21
13.2025477814
  0
LINE
  5
237
100
AcDbEntity
  8
LAYER_FEATURE
100
AcDbLine
 62
7
  6
CONTINUOUS
 10
5.0377149374
 20
12.6225477814
 11
5.0377149374
 21
13.2025477814
  0
LINE
  5
238
100
AcDbEntity
  8
LAYER_FEATURE
100
AcDbLine
 62
7
  6
CONTINUOUS
 10
5.0496004146
 20
12.6225477814
 11
5.0496004146
 21
13.2025477814
  0
LINE
  5
239
100
AcDbEntity
  8
0
100
AcDbLine
 62
7
  6
CONTINUOUS
 10
5.1034221914
 20
13.2025477814
 11
5.1034221914
 21
12.6225477814
  0
LINE
  5
23A
100
AcDbEntity
  8
LAYER_FEATURE
100
AcDbLine
 62
7
  6
CONTINUOUS
 10
5.1034823208
 20
12.6225477814
 11
5.1034823208
 21
13.2025477814
  0
LINE
  5
23B
100
AcDbEntity
  8
LAYER_FEATURE
100
AcDbLine
 62
7
  6
CONTINUOUS
 10
5.1193462663
 20
12.6225477814
 11
5.1193462663
 21
13.2025477814
  0
LINE
  5
23C
100
AcDbEntity
  8
02___PRT_ALL_AXES
100
AcDbLine
 62
7
  6
CONTINUOUS
 10
5.1708720839
 20
11.8825477814
 11
5.1708720839
 21
12.5075477814
  0
LINE
  5
23D
100
AcDbEntity
  8
0
100
AcDbLine
 62
7
  6
CONTINUOUS
 10
5.1876395354
 20
13.2025477814
 11
5.1876395354
 21
12.6225477814
  0
LINE
  5
23E
100
AcDbEntity
  8
LAYER_FEATURE
100
AcDbLine
 62
7
  6
CONTINUOUS
 10
5.1880788455
 20
12.6225477814
 11
5.1880788455
 21
13.2025477814
  0
LINE
  5
23F
100
AcDbEntity
  8
LAYER_FEATURE
100
AcDbLine
 62
7
  6
CONTINUOUS
 10
5.2076124856
 20
12.6225477814
 11
5.2076124856
 21
13.2025477814
  0
LINE
  5
240
100
AcDbEntity
  8
0
100
AcDbLine
 62
7
  6
CONTINUOUS
 10
5.2886976468
 20
13.2025477814
 11
5.2886976468
 21
12.6225477814
  0
LINE
  5
241
100
AcDbEntity
  8
LAYER_FEATURE
100
AcDbLine
 62
7
  6
CONTINUOUS
 10
5.2898579364
 20
12.6225477814
 11
5.2898579364
 21
13.2025477814
  0
LINE
  5
242
100
AcDbEntity
  8
LAYER_FEATURE
100
AcDbLine
 62
7
  6
CONTINUOUS
 10
5.3126810711
 20
12.6225477814
 11
5.3126810711
 21
13.2025477814
  0
LINE
  5
243
100
AcDbEntity
  8
02___PRT_ALL_AXES
100
AcDbLine
 62
7
  6
CONTINUOUS
 10
5.1708720984
 20
11.8825477814
 11
6.9708720693
 21
11.8825477814
  0
LINE
  5
244
100
AcDbEntity
  8
0
100
AcDbLine
 62
7
  6
CONTINUOUS
 10
5.4046295443
 20
13.2025477814
 11
5.4046295443
 21
12.6225477814
  0
LINE
  5
245
100
AcDbEntity
  8
LAYER_FEATURE
100
AcDbLine
 62
7
  6
CONTINUOUS
 10
5.4068385794
 20
12.6225477814
 11
5.4068385794
 21
13.2025477814
  0
LINE
  5
246
100
AcDbEntity
  8
LAYER_FEATURE
100
AcDbLine
 62
7
  6
CONTINUOUS
 10
5.4325069823
 20
12.6225477814
 11
5.4325069823
 21
13.2025477814
  0
LINE
  5
247
100
AcDbEntity
  8
0
100
AcDbLine
 62
7
  6
CONTINUOUS
 10
5.5331787455
 20
13.2025477814
 11
5.5331787455
 21
12.6225477814
  0
LINE
  5
248
100
AcDbEntity
  8
LAYER_FEATURE
100
AcDbLine
 62
7
  6
CONTINUOUS
 10
5.5367438791
 20
12.6225477814
 11
5.5367438791
 21
13.2025477814
  0
LINE
  5
249
100
AcDbEntity
  8
LAYER_FEATURE
100
AcDbLine
 62
7
  6
CONTINUOUS
 10
5.564757944
 20
12.6225477814
 11
5.564757944
 21
13.2025477814
  0
LINE
  5
24A
100
AcDbEntity
  8
0
100
AcDbLine
 62
7
  6
CONTINUOUS
 10
5.67172591
 20
13.2025477814
 11
5.67172591
 21
12.6225477814
  0
LINE
  5
24B
100
AcDbEntity
  8
LAYER_FEATURE
100
AcDbLine
 62
7
  6
CONTINUOUS
 10
5.6770453768
 20
12.6225477814
 11
5.6770453768
 21
13.2025477814
  0
LINE
  5
24C
100
AcDbEntity
  8
LAYER_FEATURE
100
AcDbLine
 62
7
  6
CONTINUOUS
 10
4.7318720839
 20
12.5875477814
 11
4.7947630506
 21
12.612280184
  0
LINE
  5
24D
100
AcDbEntity
  8
LAYER_CUT_FEAT
100
AcDbLine
 62
7
  6
CONTINUOUS
 10
6.0235293618
 20
12.1130477814
 11
6.1182148059
 21
12.1130477814
  0
LINE
  5
24E
100
AcDbEntity
  8
LAYER_FEATURE
100
AcDbLine
 62
7
  6
CONTINUOUS
 10
5.7068598418
 20
12.6225477814
 11
5.7068598418
 21
13.2025477814
  0
LINE
  5
24F
100
AcDbEntity
  8
LAYER_CUT_FEAT
100
AcDbLine
 62
7
  6
CONTINUOUS
 10
6.1182148059
 20
12.2770477814
 11
6.0235293618
 21
12.2770477814
  0
LINE
  5
250
100
AcDbEntity
  8
0
100
AcDbLine
 62
7
  6
CONTINUOUS
 10
5.8170842194
 20
13.2025477814
 11
5.8170842194
 21
12.6225477814
  0
LINE
  5
251
100
AcDbEntity
  8
LAYER_FEATURE
100
AcDbLine
 62
7
  6
CONTINUOUS
 10
5.8250122634
 20
12.6225477814
 11
5.8250122634
 21
13.2025477814
  0
LINE
  5
252
100
AcDbEntity
  8
LAYER_FEATURE
100
AcDbLine
 62
7
  6
CONTINUOUS
 10
5.8560468238
 20
12.6225477814
 11
5.8560468238
 21
13.2025477814
  0
LINE
  5
253
100
AcDbEntity
  8
LAYER_CUT_FEAT
100
AcDbLine
 62
7
  6
CONTINUOUS
 10
5.9761866397
 20
12.1950477814
 11
6.0235293618
 21
12.1130477814
  0
LINE
  5
254
100
AcDbEntity
  8
LAYER_FEATURE
100
AcDbLine
 62
7
  6
CONTINUOUS
 10
5.9777645317
 20
12.6225477814
 11
5.9777645317
 21
13.2025477814
  0
LINE
  5
255
100
AcDbEntity
  8
LAYER_FEATURE
100
AcDbLine
 62
7
  6
CONTINUOUS
 10
7.3469811171
 20
13.2128153787
 11
7.4098720839
 21
13.2375477814
  0
LINE
  5
256
100
AcDbEntity
  8
LAYER_FEATURE
100
AcDbLine
 62
7
  6
CONTINUOUS
 10
4.7318720839
 20
12.5075477814
 11
7.4098720839
 21
12.5075477814
  0
LINE
  5
257
100
AcDbEntity
  8
LAYER_CUT_FEAT
100
AcDbLine
 62
7
  6
CONTINUOUS
 10
6.165557528
 20
12.1950477814
 11
6.1182148059
 21
12.2770477814
  0
LINE
  5
258
100
AcDbEntity
  8
LAYER_FEATURE
100
AcDbLine
 62
7
  6
CONTINUOUS
 10
6.0094151351
 20
12.6225477814
 11
6.0094151351
 21
13.2025477814
  0
LINE
  5
259
100
AcDbEntity
  8
LAYER_FEATURE
100
AcDbLine
 62
7
  6
CONTINUOUS
 10
4.7318720839
 20
12.5875477814
 11
7.4098720839
 21
12.5875477814
  0
LINE
  5
25A
100
AcDbEntity
  8
LAYER_FEATURE
100
AcDbLine
 62
7
  6
CONTINUOUS
 10
6.1323290326
 20
12.6225477814
 11
6.1323290326
 21
13.2025477814
  0
LINE
  5
25B
100
AcDbEntity
  8
LAYER_FEATURE
100
AcDbLine
 62
7
  6
CONTINUOUS
 10
6.163979636
 20
12.6225477814
 11
6.163979636
 21
13.2025477814
  0
LINE
  5
25C
100
AcDbEntity
  8
LAYER_FEATURE
100
AcDbLine
 62
7
  6
CONTINUOUS
 10
7.2928166099
 20
12.6225477814
 11
4.8489275578
 21
12.6225477814
  0
LINE
  5
25D
100
AcDbEntity
  8
LAYER_FEATURE
100
AcDbLine
 62
7
  6
CONTINUOUS
 10
4.7947630506
 20
13.2128153787
 11
4.7318720839
 21
13.2375477814
  0
LINE
  5
25E
100
AcDbEntity
  8
LAYER_FEATURE
100
AcDbLine
 62
7
  6
CONTINUOUS
 10
6.285697344
 20
12.6225477814
 11
6.285697344
 21
13.2025477814
  0
LINE
  5
25F
100
AcDbEntity
  8
LAYER_CUT_FEAT
100
AcDbLine
 62
7
  6
CONTINUOUS
 10
6.0235293618
 20
12.2770477814
 11
5.9761866397
 21
12.1950477814
  0
LINE
  5
260
100
AcDbEntity
  8
LAYER_FEATURE
100
AcDbLine
 62
7
  6
CONTINUOUS
 10
6.3167319043
 20
12.6225477814
 11
6.3167319043
 21
13.2025477814
  0
LINE
  5
261
100
AcDbEntity
  8
LAYER_CUT_FEAT
100
AcDbLine
 62
7
  6
CONTINUOUS
 10
6.3246599483
 20
13.2025477814
 11
6.3246599483
 21
12.6225477814
  0
LINE
  5
262
100
AcDbEntity
  8
LAYER_CUT_FEAT
100
AcDbLine
 62
7
  6
CONTINUOUS
 10
6.1182148059
 20
12.1130477814
 11
6.165557528
 21
12.1950477814
  0
LINE
  5
263
100
AcDbEntity
  8
LAYER_FEATURE
100
AcDbLine
 62
7
  6
CONTINUOUS
 10
6.4348843259
 20
12.6225477814
 11
6.4348843259
 21
13.2025477814
  0
LINE
  5
264
100
AcDbEntity
  8
LAYER_FEATURE
100
AcDbLine
 62
7
  6
CONTINUOUS
 10
6.4646987909
 20
12.6225477814
 11
6.4646987909
 21
13.2025477814
  0
LINE
  5
265
100
AcDbEntity
  8
LAYER_CUT_FEAT
100
AcDbLine
 62
7
  6
CONTINUOUS
 10
6.4700182577
 20
13.2025477814
 11
6.4700182577
 21
12.6225477814
  0
LINE
  5
266
100
AcDbEntity
  8
LAYER_FEATURE
100
AcDbLine
 62
7
  6
CONTINUOUS
 10
6.5769862237
 20
12.6225477814
 11
6.5769862237
 21
13.2025477814
  0
LINE
  5
267
100
AcDbEntity
  8
LAYER_FEATURE
100
AcDbLine
 62
7
  6
CONTINUOUS
 10
7.4098720839
 20
12.5875477814
 11
7.3469811171
 21
12.612280184
  0
LINE
  5
268
100
AcDbEntity
  8
LAYER_FEATURE
100
AcDbLine
 62
7
  6
CONTINUOUS
 10
6.9661787435
 20
12.3309411218
 11
6.9708720839
 21
12.3262477814
  0
LINE
  5
269
100
AcDbEntity
  8
LAYER_FEATURE
100
AcDbLine
 62
7
  6
CONTINUOUS
 10
6.6050002886
 20
12.6225477814
 11
6.6050002886
 21
13.2025477814
  0
LINE
  5
26A
100
AcDbEntity
  8
LAYER_CUT_FEAT
100
AcDbLine
 62
7
  6
CONTINUOUS
 10
6.6085654222
 20
13.2025477814
 11
6.6085654222
 21
12.6225477814
  0
LINE
  5
26B
100
AcDbEntity
  8
LAYER_FEATURE
100
AcDbLine
 62
7
  6
CONTINUOUS
 10
7.2928166099
 20
13.2025477814
 11
4.8489275578
 21
13.2025477814
  0
LINE
  5
26C
100
AcDbEntity
  8
LAYER_FEATURE
100
AcDbLine
 62
7
  6
CONTINUOUS
 10
6.7092371854
 20
12.6225477814
 11
6.7092371854
 21
13.2025477814
  0
LINE
  5
26D
100
AcDbEntity
  8
LAYER_FEATURE
100
AcDbLine
 62
7
  6
CONTINUOUS
 10
6.7349055884
 20
12.6225477814
 11
6.7349055884
 21
13.2025477814
  0
LINE
  5
26E
100
AcDbEntity
  8
LAYER_CUT_FEAT
100
AcDbLine
 62
7
  6
CONTINUOUS
 10
6.7371146234
 20
13.2025477814
 11
6.7371146234
 21
12.6225477814
  0
LINE
  5
26F
100
AcDbEntity
  8
LAYER_FEATURE
100
AcDbLine
 62
7
  6
CONTINUOUS
 10
4.7318720839
 20
13.2375477814
 11
7.4098720839
 21
13.2375477814
  0
LINE
  5
270
100
AcDbEntity
  8
LAYER_FEATURE
100
AcDbLine
 62
7
  6
CONTINUOUS
 10
4.7318720839
 20
13.3175477814
 11
7.4098720839
 21
13.3175477814
  0
LINE
  5
271
100
AcDbEntity
  8
LAYER_FEATURE
100
AcDbLine
 62
7
  6
CONTINUOUS
 10
6.8290630966
 20
12.6225477814
 11
6.8290630966
 21
13.2025477814
  0
LINE
  5
272
100
AcDbEntity
  8
LAYER_FEATURE
100
AcDbLine
 62
7
  6
CONTINUOUS
 10
6.8518862313
 20
12.6225477814
 11
6.8518862313
 21
13.2025477814
  0
LINE
  5
273
100
AcDbEntity
  8
LAYER_CUT_FEAT
100
AcDbLine
 62
7
  6
CONTINUOUS
 10
6.853046521
 20
13.2025477814
 11
6.853046521
 21
12.6225477814
  0
LINE
  5
274
100
AcDbEntity
  8
LAYER_FEATURE
100
AcDbLine
 62
7
  6
CONTINUOUS
 10
6.9341316821
 20
12.6225477814
 11
6.9341316821
 21
13.2025477814
  0
LINE
  5
275
100
AcDbEntity
  8
LAYER_FEATURE
100
AcDbLine
 62
7
  6
CONTINUOUS
 10
6.9536653222
 20
12.6225477814
 11
6.9536653222
 21
13.2025477814
  0
LINE
  5
276
100
AcDbEntity
  8
LAYER_CUT_FEAT
100
AcDbLine
 62
7
  6
CONTINUOUS
 10
6.9541046323
 20
13.2025477814
 11
6.9541046323
 21
12.6225477814
  0
LINE
  5
277
100
AcDbEntity
  8
02___PRT_ALL_AXES
100
AcDbLine
 62
7
  6
CONTINUOUS
 10
6.9708720839
 20
11.8825477814
 11
6.9708720839
 21
12.0310477814
  0
LINE
  5
278
100
AcDbEntity
  8
LAYER_FEATURE
100
AcDbLine
 62
7
  6
CONTINUOUS
 10
6.9708720839
 20
12.0638478689
 11
6.9708720839
 21
12.3262476938
  0
LINE
  5
279
100
AcDbEntity
  8
02___PRT_ALL_AXES
100
AcDbLine
 62
7
  6
CONTINUOUS
 10
6.9708720839
 20
12.3590477814
 11
6.9708720839
 21
12.5075477814
  0
LINE
  5
27A
100
AcDbEntity
  8
LAYER_FEATURE
100
AcDbLine
 62
7
  6
CONTINUOUS
 10
7.0223979015
 20
12.6225477814
 11
7.0223979015
 21
13.2025477814
  0
LINE
  5
27B
100
AcDbEntity
  8
LAYER_FEATURE
100
AcDbLine
 62
7
  6
CONTINUOUS
 10
7.0382618469
 20
12.6225477814
 11
7.0382618469
 21
13.2025477814
  0
LINE
  5
27C
100
AcDbEntity
  8
LAYER_CUT_FEAT
100
AcDbLine
 62
7
  6
CONTINUOUS
 10
7.0383219763
 20
13.2025477814
 11
7.0383219763
 21
12.6225477814
  0
LINE
  5
27D
100
AcDbEntity
  8
LAYER_FEATURE
100
AcDbLine
 62
7
  6
CONTINUOUS
 10
7.0921437531
 20
12.6225477814
 11
7.0921437531
 21
13.2025477814
  0
LINE
  5
27E
100
AcDbEntity
  8
LAYER_FEATURE
100
AcDbLine
 62
7
  6
CONTINUOUS
 10
6.9661787433
 20
12.0591544408
 11
6.9708720839
 21
12.0638477814
  0
LINE
  5
27F
100
AcDbEntity
  8
LAYER_FEATURE
100
AcDbLine
 62
7
  6
CONTINUOUS
 10
7.1040292303
 20
12.6225477814
 11
7.1040292303
 21
13.2025477814
  0
LINE
  5
280
100
AcDbEntity
  8
LAYER_FEATURE
100
AcDbLine
 62
7
  6
CONTINUOUS
 10
7.1420117135
 20
12.6225477814
 11
7.1420117135
 21
13.2025477814
  0
LINE
  5
281
100
AcDbEntity
  8
LAYER_FEATURE
100
AcDbLine
 62
7
  6
CONTINUOUS
 10
7.149687385
 20
12.6225477814
 11
7.149687385
 21
13.2025477814
  0
LINE
  5
282
100
AcDbEntity
  8
LAYER_FEATURE
100
AcDbLine
 62
7
  6
CONTINUOUS
 10
7.1710311593
 20
12.6225477814
 11
7.1710311593
 21
13.2025477814
  0
LINE
  5
283
100
AcDbEntity
  8
LAYER_FEATURE
100
AcDbLine
 62
7
  6
CONTINUOUS
 10
7.174347627
 20
12.6225477814
 11
7.174347627
 21
13.2025477814
  0
LINE
  5
284
100
AcDbEntity
  8
LAYER_FEATURE
100
AcDbLine
 62
7
  6
CONTINUOUS
 10
7.1786372601
 20
12.6225477814
 11
7.1786372601
 21
13.2025477814
  0
LINE
  5
285
100
AcDbEntity
  8
LAYER_FEATURE
100
AcDbLine
 62
7
  6
CONTINUOUS
 10
7.4098720839
 20
12.5075477814
 11
7.4098720839
 21
12.5875477814
  0
LINE
  5
286
100
AcDbEntity
  8
LAYER_FEATURE
100
AcDbLine
 62
7
  6
CONTINUOUS
 10
7.4098720839
 20
13.2375477814
 11
7.4098720839
 21
13.3175477814
  0
LINE
  5
287
100
AcDbEntity
  8
LAYER_FEATURE
100
AcDbLine
 62
7
  6
CONTINUOUS
 10
16.2778552569
 20
4.1216247044
 11
16.1978552569
 21
4.1216247044
  0
LINE
  5
288
100
AcDbEntity
  8
LAYER_FEATURE
100
AcDbLine
 62
7
  6
CONTINUOUS
 10
15.5478552569
 20
4.1216247044
 11
15.4678552569
 21
4.1216247044
  0
LINE
  5
289
100
AcDbEntity
  8
02___PRT_ALL_AXES
100
AcDbLine
 62
7
  6
CONTINUOUS
 10
15.5828552569
 20
4.3526247044
 11
16.1628552569
 21
4.3526247044
  0
LINE
  5
28A
100
AcDbEntity
  8
LAYER_FEATURE
100
AcDbLine
 62
7
  6
CONTINUOUS
 10
15.5828552569
 20
4.3527382774
 11
16.1628552569
 21
4.3527382774
  0
LINE
  5
28B
100
AcDbEntity
  8
LAYER_FEATURE
100
AcDbLine
 62
7
  6
CONTINUOUS
 10
15.0194639096
 20
6.3559333571
 11
15.0241552569
 21
6.3606247044
  0
LINE
  5
28C
100
AcDbEntity
  8
LAYER_FEATURE
100
AcDbLine
 62
7
  6
CONTINUOUS
 10
15.5828552569
 20
4.3613123175
 11
16.1628552569
 21
4.3613123175
  0
LINE
  5
28D
100
AcDbEntity
  8
LAYER_FEATURE
100
AcDbLine
 62
7
  6
CONTINUOUS
 10
15.5828552569
 20
4.3657279864
 11
16.1628552569
 21
4.3657279864
  0
LINE
  5
28E
100
AcDbEntity
  8
LAYER_FEATURE
100
AcDbLine
 62
7
  6
CONTINUOUS
 10
15.5828552569
 20
4.3912832227
 11
16.1628552569
 21
4.3912832227
  0
LINE
  5
28F
100
AcDbEntity
  8
LAYER_FEATURE
100
AcDbLine
 62
7
  6
CONTINUOUS
 10
15.5828552569
 20
4.4000286147
 11
16.1628552569
 21
4.4000286147
  0
LINE
  5
290
100
AcDbEntity
  8
LAYER_FEATURE
100
AcDbLine
 62
7
  6
CONTINUOUS
 10
15.5828552569
 20
4.4420676435
 11
16.1628552569
 21
4.4420676435
  0
LINE
  5
291
100
AcDbEntity
  8
LAYER_FEATURE
100
AcDbLine
 62
7
  6
CONTINUOUS
 10
15.5828552569
 20
4.4549725394
 11
16.1628552569
 21
4.4549725394
  0
LINE
  5
292
100
AcDbEntity
  8
LAYER_CUT_FEAT
100
AcDbLine
 62
7
  6
CONTINUOUS
 10
16.1628552569
 20
4.5125547571
 11
15.5828552569
 21
4.5125547571
  0
LINE
  5
293
100
AcDbEntity
  8
LAYER_FEATURE
100
AcDbLine
 62
7
  6
CONTINUOUS
 10
15.5828552569
 20
4.5126771189
 11
16.1628552569
 21
4.5126771189
  0
LINE
  5
294
100
AcDbEntity
  8
LAYER_FEATURE
100
AcDbLine
 62
7
  6
CONTINUOUS
 10
15.5828552569
 20
4.5294903395
 11
16.1628552569
 21
4.5294903395
  0
LINE
  5
295
100
AcDbEntity
  8
02___PRT_ALL_AXES
100
AcDbLine
 62
7
  6
CONTINUOUS
 10
15.4678552569
 20
4.5606247044
 11
14.8428552569
 21
4.5606247044
  0
LINE
  5
296
100
AcDbEntity
  8
LAYER_CUT_FEAT
100
AcDbLine
 62
7
  6
CONTINUOUS
 10
16.1628552569
 20
4.6011493684
 11
15.5828552569
 21
4.6011493684
  0
LINE
  5
297
100
AcDbEntity
  8
LAYER_FEATURE
100
AcDbLine
 62
7
  6
CONTINUOUS
 10
15.5828552569
 20
4.6017373158
 11
16.1628552569
 21
4.6017373158
  0
LINE
  5
298
100
AcDbEntity
  8
LAYER_FEATURE
100
AcDbLine
 62
7
  6
CONTINUOUS
 10
15.5828552569
 20
4.622131611
 11
16.1628552569
 21
4.622131611
  0
LINE
  5
299
100
AcDbEntity
  8
02___PRT_ALL_AXES
100
AcDbLine
 62
7
  6
CONTINUOUS
 10
14.8428552569
 20
6.3606247044
 11
14.8428552569
 21
4.5606247044
  0
LINE
  5
29A
100
AcDbEntity
  8
LAYER_CUT_FEAT
100
AcDbLine
 62
7
  6
CONTINUOUS
 10
16.1628552569
 20
4.7061223398
 11
15.5828552569
 21
4.7061223398
  0
LINE
  5
29B
100
AcDbEntity
  8
LAYER_FEATURE
100
AcDbLine
 62
7
  6
CONTINUOUS
 10
15.5828552569
 20
4.7075147788
 11
16.1628552569
 21
4.7075147788
  0
LINE
  5
29C
100
AcDbEntity
  8
LAYER_FEATURE
100
AcDbLine
 62
7
  6
CONTINUOUS
 10
15.5828552569
 20
4.7310931967
 11
16.1628552569
 21
4.7310931967
  0
LINE
  5
29D
100
AcDbEntity
  8
LAYER_CUT_FEAT
100
AcDbLine
 62
7
  6
CONTINUOUS
 10
16.1628552569
 20
4.825430492
 11
15.5828552569
 21
4.825430492
  0
LINE
  5
29E
100
AcDbEntity
  8
LAYER_FEATURE
100
AcDbLine
 62
7
  6
CONTINUOUS
 10
15.5828552569
 20
4.8279506698
 11
16.1628552569
 21
4.8279506698
  0
LINE
  5
29F
100
AcDbEntity
  8
LAYER_FEATURE
100
AcDbLine
 62
7
  6
CONTINUOUS
 10
15.5828552569
 20
4.8542542834
 11
16.1628552569
 21
4.8542542834
  0
LINE
  5
2A0
100
AcDbEntity
  8
LAYER_CUT_FEAT
100
AcDbLine
 62
7
  6
CONTINUOUS
 10
16.1628552569
 20
4.9567516275
 11
15.5828552569
 21
4.9567516275
  0
LINE
  5
2A1
100
AcDbEntity
  8
LAYER_FEATURE
100
AcDbLine
 62
7
  6
CONTINUOUS
 10
15.5828552569
 20
4.9607008412
 11
16.1628552569
 21
4.9607008412
  0
LINE
  5
2A2
100
AcDbEntity
  8
LAYER_CUT_FEAT
100
AcDbLine
 62
7
  6
CONTINUOUS
 10
15.0733552569
 20
5.5079674265
 11
15.0733552569
 21
5.4132819824
  0
LINE
  5
2A3
100
AcDbEntity
  8
LAYER_FEATURE
100
AcDbLine
 62
7
  6
CONTINUOUS
 10
15.5828552569
 20
4.9892176806
 11
16.1628552569
 21
4.9892176806
  0
LINE
  5
2A4
100
AcDbEntity
  8
LAYER_CUT_FEAT
100
AcDbLine
 62
7
  6
CONTINUOUS
 10
15.2373552569
 20
5.4132819824
 11
15.2373552569
 21
5.5079674265
  0
LINE
  5
2A5
100
AcDbEntity
  8
LAYER_CUT_FEAT
100
AcDbLine
 62
7
  6
CONTINUOUS
 10
16.1628552569
 20
5.0972933431
 11
15.5828552569
 21
5.0972933431
  0
LINE
  5
2A6
100
AcDbEntity
  8
LAYER_FEATURE
100
AcDbLine
 62
7
  6
CONTINUOUS
 10
15.5828552569
 20
5.103181462
 11
16.1628552569
 21
5.103181462
  0
LINE
  5
2A7
100
AcDbEntity
  8
LAYER_FEATURE
100
AcDbLine
 62
7
  6
CONTINUOUS
 10
15.5828552569
 20
5.1333564793
 11
16.1628552569
 21
5.1333564793
  0
LINE
  5
2A8
100
AcDbEntity
  8
LAYER_CUT_FEAT
100
AcDbLine
 62
7
  6
CONTINUOUS
 10
15.1553552569
 20
5.5553101486
 11
15.0733552569
 21
5.5079674265
  0
LINE
  5
2A9
100
AcDbEntity
  8
LAYER_CUT_FEAT
100
AcDbLine
 62
7
  6
CONTINUOUS
 10
16.1628552569
 20
5.2439027285
 11
15.5828552569
 21
5.2439027285
  0
LINE
  5
2AA
100
AcDbEntity
  8
LAYER_FEATURE
100
AcDbLine
 62
7
  6
CONTINUOUS
 10
15.5828552569
 20
5.2526193089
 11
16.1628552569
 21
5.2526193089
  0
LINE
  5
2AB
100
AcDbEntity
  8
LAYER_CUT_FEAT
100
AcDbLine
 62
7
  6
CONTINUOUS
 10
15.0733552569
 20
5.4132819824
 11
15.1553552569
 21
5.3659392603
  0
LINE
  5
2AC
100
AcDbEntity
  8
LAYER_FEATURE
100
AcDbLine
 62
7
  6
CONTINUOUS
 10
15.4678552569
 20
6.7996247044
 11
15.4678552569
 21
4.1216247044
  0
LINE
  5
2AD
100
AcDbEntity
  8
LAYER_CUT_FEAT
100
AcDbLine
 62
7
  6
CONTINUOUS
 10
15.1553552569
 20
5.3659392603
 11
15.2373552569
 21
5.4132819824
  0
LINE
  5
2AE
100
AcDbEntity
  8
LAYER_FEATURE
100
AcDbLine
 62
7
  6
CONTINUOUS
 10
15.5828552569
 20
5.2838651818
 11
16.1628552569
 21
5.2838651818
  0
LINE
  5
2AF
100
AcDbEntity
  8
LAYER_CUT_FEAT
100
AcDbLine
 62
7
  6
CONTINUOUS
 10
15.2373552569
 20
5.5079674265
 11
15.1553552569
 21
5.5553101486
  0
LINE
  5
2B0
100
AcDbEntity
  8
LAYER_FEATURE
100
AcDbLine
 62
7
  6
CONTINUOUS
 10
15.5478552569
 20
6.7996247044
 11
15.5478552569
 21
4.1216247044
  0
LINE
  5
2B1
100
AcDbEntity
  8
LAYER_FEATURE
100
AcDbLine
 62
7
  6
CONTINUOUS
 10
15.5828552569
 20
5.4061057442
 11
16.1628552569
 21
5.4061057442
  0
LINE
  5
2B2
100
AcDbEntity
  8
LAYER_FEATURE
100
AcDbLine
 62
7
  6
CONTINUOUS
 10
15.5828552569
 20
5.4378143073
 11
16.1628552569
 21
5.4378143073
  0
LINE
  5
2B3
100
AcDbEntity
  8
LAYER_FEATURE
100
AcDbLine
 62
7
  6
CONTINUOUS
 10
15.5828552569
 20
4.2386800992
 11
15.5828552569
 21
6.6825693097
  0
LINE
  5
2B4
100
AcDbEntity
  8
LAYER_FEATURE
100
AcDbLine
 62
7
  6
CONTINUOUS
 10
16.1978552569
 20
6.7996247044
 11
16.1731228543
 21
6.7367337377
  0
LINE
  5
2B5
100
AcDbEntity
  8
LAYER_FEATURE
100
AcDbLine
 62
7
  6
CONTINUOUS
 10
15.5828552569
 20
5.560653329
 11
16.1628552569
 21
5.560653329
  0
LINE
  5
2B6
100
AcDbEntity
  8
LAYER_FEATURE
100
AcDbLine
 62
7
  6
CONTINUOUS
 10
16.1978552569
 20
4.1216247044
 11
16.1731228543
 21
4.1845156712
  0
LINE
  5
2B7
100
AcDbEntity
  8
LAYER_FEATURE
100
AcDbLine
 62
7
  6
CONTINUOUS
 10
15.5828552569
 20
5.5922074112
 11
16.1628552569
 21
5.5922074112
  0
LINE
  5
2B8
100
AcDbEntity
  8
LAYER_FEATURE
100
AcDbLine
 62
7
  6
CONTINUOUS
 10
15.5828552569
 20
5.7132539705
 11
16.1628552569
 21
5.7132539705
  0
LINE
  5
2B9
100
AcDbEntity
  8
LAYER_FEATURE
100
AcDbLine
 62
7
  6
CONTINUOUS
 10
15.5828552569
 20
5.7440394075
 11
16.1628552569
 21
5.7440394075
  0
LINE
  5
2BA
100
AcDbEntity
  8
LAYER_CUT_FEAT
100
AcDbLine
 62
7
  6
CONTINUOUS
 10
16.1628552569
 20
5.75123261
 11
15.5828552569
 21
5.75123261
  0
LINE
  5
2BB
100
AcDbEntity
  8
LAYER_FEATURE
100
AcDbLine
 62
7
  6
CONTINUOUS
 10
15.5828552569
 20
5.8609374707
 11
16.1628552569
 21
5.8609374707
  0
LINE
  5
2BC
100
AcDbEntity
  8
LAYER_FEATURE
100
AcDbLine
 62
7
  6
CONTINUOUS
 10
15.5725876596
 20
4.1845156712
 11
15.5478552569
 21
4.1216247044
  0
LINE
  5
2BD
100
AcDbEntity
  8
LAYER_FEATURE
100
AcDbLine
 62
7
  6
CONTINUOUS
 10
15.5828552569
 20
5.8903550589
 11
16.1628552569
 21
5.8903550589
  0
LINE
  5
2BE
100
AcDbEntity
  8
LAYER_CUT_FEAT
100
AcDbLine
 62
7
  6
CONTINUOUS
 10
16.1628552569
 20
5.8951627466
 11
15.5828552569
 21
5.8951627466
  0
LINE
  5
2BF
100
AcDbEntity
  8
LAYER_FEATURE
100
AcDbLine
 62
7
  6
CONTINUOUS
 10
15.2912466047
 20
6.3559333567
 11
15.2865552569
 21
6.3606247044
  0
LINE
  5
2C0
100
AcDbEntity
  8
LAYER_FEATURE
100
AcDbLine
 62
7
  6
CONTINUOUS
 10
15.5725876596
 20
6.7367337377
 11
15.5478552569
 21
6.7996247044
  0
LINE
  5
2C1
100
AcDbEntity
  8
LAYER_FEATURE
100
AcDbLine
 62
7
  6
CONTINUOUS
 10
16.1628552569
 20
4.2386800992
 11
16.1628552569
 21
6.6825693097
  0
LINE
  5
2C2
100
AcDbEntity
  8
LAYER_FEATURE
100
AcDbLine
 62
7
  6
CONTINUOUS
 10
15.5828552569
 20
6.0008293382
 11
16.1628552569
 21
6.0008293382
  0
LINE
  5
2C3
100
AcDbEntity
  8
LAYER_FEATURE
100
AcDbLine
 62
7
  6
CONTINUOUS
 10
15.5828552569
 20
6.0283064977
 11
16.1628552569
 21
6.0283064977
  0
LINE
  5
2C4
100
AcDbEntity
  8
LAYER_CUT_FEAT
100
AcDbLine
 62
7
  6
CONTINUOUS
 10
16.1628552569
 20
6.031505138
 11
15.5828552569
 21
6.031505138
  0
LINE
  5
2C5
100
AcDbEntity
  8
LAYER_FEATURE
100
AcDbLine
 62
7
  6
CONTINUOUS
 10
16.1978552569
 20
6.7996247044
 11
16.1978552569
 21
4.1216247044
  0
LINE
  5
2C6
100
AcDbEntity
  8
LAYER_FEATURE
100
AcDbLine
 62
7
  6
CONTINUOUS
 10
16.2778552569
 20
6.7996247044
 11
16.2778552569
 21
4.1216247044
  0
LINE
  5
2C7
100
AcDbEntity
  8
LAYER_FEATURE
100
AcDbLine
 62
7
  6
CONTINUOUS
 10
15.5828552569
 20
6.130206737
 11
16.1628552569
 21
6.130206737
  0
LINE
  5
2C8
100
AcDbEntity
  8
LAYER_FEATURE
100
AcDbLine
 62
7
  6
CONTINUOUS
 10
15.5828552569
 20
6.1552086562
 11
16.1628552569
 21
6.1552086562
  0
LINE
  5
2C9
100
AcDbEntity
  8
LAYER_CUT_FEAT
100
AcDbLine
 62
7
  6
CONTINUOUS
 10
16.1628552569
 20
6.1571257875
 11
15.5828552569
 21
6.1571257875
  0
LINE
  5
2CA
100
AcDbEntity
  8
LAYER_FEATURE
100
AcDbLine
 62
7
  6
CONTINUOUS
 10
15.5828552569
 20
6.2465514832
 11
16.1628552569
 21
6.2465514832
  0
LINE
  5
2CB
100
AcDbEntity
  8
LAYER_FEATURE
100
AcDbLine
 62
7
  6
CONTINUOUS
 10
15.5828552569
 20
6.2685915282
 11
16.1628552569
 21
6.2685915282
  0
LINE
  5
2CC
100
AcDbEntity
  8
LAYER_CUT_FEAT
100
AcDbLine
 62
7
  6
CONTINUOUS
 10
16.1628552569
 20
6.2695401852
 11
15.5828552569
 21
6.2695401852
  0
LINE
  5
2CD
100
AcDbEntity
  8
LAYER_FEATURE
100
AcDbLine
 62
7
  6
CONTINUOUS
 10
15.5828552569
 20
6.3475990586
 11
16.1628552569
 21
6.3475990586
  0
LINE
  5
2CE
100
AcDbEntity
  8
02___PRT_ALL_AXES
100
AcDbLine
 62
7
  6
CONTINUOUS
 10
15.4678552569
 20
6.3606247044
 11
15.3193552569
 21
6.3606247044
  0
LINE
  5
2CF
100
AcDbEntity
  8
02___PRT_ALL_AXES
100
AcDbLine
 62
7
  6
CONTINUOUS
 10
14.9913552569
 20
6.3606247044
 11
14.8428552569
 21
6.3606247044
  0
LINE
  5
2D0
100
AcDbEntity
  8
LAYER_FEATURE
100
AcDbLine
 62
7
  6
CONTINUOUS
 10
15.02415533
 20
6.3606247044
 11
15.2865551839
 21
6.3606247044
  0
LINE
  5
2D1
100
AcDbEntity
  8
LAYER_FEATURE
100
AcDbLine
 62
7
  6
CONTINUOUS
 10
15.5828552569
 20
6.3662482449
 11
16.1628552569
 21
6.3662482449
  0
LINE
  5
2D2
100
AcDbEntity
  8
LAYER_CUT_FEAT
100
AcDbLine
 62
7
  6
CONTINUOUS
 10
16.1628552569
 20
6.3665603127
 11
15.5828552569
 21
6.3665603127
  0
LINE
  5
2D3
100
AcDbEntity
  8
LAYER_FEATURE
100
AcDbLine
 62
7
  6
CONTINUOUS
 10
15.5828552569
 20
6.4313826871
 11
16.1628552569
 21
6.4313826871
  0
LINE
  5
2D4
100
AcDbEntity
  8
LAYER_FEATURE
100
AcDbLine
 62
7
  6
CONTINUOUS
 10
15.5828552569
 20
6.4462780296
 11
16.1628552569
 21
6.4462780296
  0
LINE
  5
2D5
100
AcDbEntity
  8
LAYER_CUT_FEAT
100
AcDbLine
 62
7
  6
CONTINUOUS
 10
16.1628552569
 20
6.4462977835
 11
15.5828552569
 21
6.4462977835
  0
LINE
  5
2D6
100
AcDbEntity
  8
LAYER_FEATURE
100
AcDbLine
 62
7
  6
CONTINUOUS
 10
15.5828552569
 20
6.4962716157
 11
16.1628552569
 21
6.4962716157
  0
LINE
  5
2D7
100
AcDbEntity
  8
LAYER_FEATURE
100
AcDbLine
 62
7
  6
CONTINUOUS
 10
15.5828552569
 20
6.5071231935
 11
16.1628552569
 21
6.5071231935
  0
LINE
  5
2D8
100
AcDbEntity
  8
LAYER_FEATURE
100
AcDbLine
 62
7
  6
CONTINUOUS
 10
15.5828552569
 20
6.5410028552
 11
16.1628552569
 21
6.5410028552
  0
LINE
  5
2D9
100
AcDbEntity
  8
LAYER_FEATURE
100
AcDbLine
 62
7
  6
CONTINUOUS
 10
15.5828552569
 20
6.5475994547
 11
16.1628552569
 21
6.5475994547
  0
LINE
  5
2DA
100
AcDbEntity
  8
LAYER_FEATURE
100
AcDbLine
 62
7
  6
CONTINUOUS
 10
15.5828552569
 20
6.5647057629
 11
16.1628552569
 21
6.5647057629
  0
LINE
  5
2DB
100
AcDbEntity
  8
LAYER_FEATURE
100
AcDbLine
 62
7
  6
CONTINUOUS
 10
15.5828552569
 20
6.5669189887
 11
16.1628552569
 21
6.5669189887
  0
LINE
  5
2DC
100
AcDbEntity
  8
LAYER_FEATURE
100
AcDbLine
 62
7
  6
CONTINUOUS
 10
16.2778552569
 20
6.7996247044
 11
16.1978552569
 21
6.7996247044
  0
LINE
  5
2DD
100
AcDbEntity
  8
LAYER_FEATURE
100
AcDbLine
 62
7
  6
CONTINUOUS
 10
15.5478552569
 20
6.7996247044
 11
15.4678552569
 21
6.7996247044
  0
LINE
  5
2DE
100
AcDbEntity
  8
LAYER_FEATURE
100
AcDbLine
 62
7
  6
CONTINUOUS
 10
14.093767097
 20
12.6972400961
 11
14.1131324029
 21
12.7599062489
  0
LINE
  5
2DF
100
AcDbEntity
  8
LAYER_FEATURE
100
AcDbLine
 62
7
  6
CONTINUOUS
 10
14.2704755131
 20
13.2690687402
 11
14.289840819
 21
13.3317348929
  0
LINE
  5
2E0
100
AcDbEntity
  8
LAYER_FEATURE
100
AcDbLine
 62
7
  6
CONTINUOUS
 10
14.4610105412
 20
13.1028592484
 11
14.4855016957
 21
13.1821126532
  0
LINE
  5
2E1
100
AcDbEntity
  8
LAYER_FEATURE
100
AcDbLine
 62
7
  6
CONTINUOUS
 10
14.4621115049
 20
13.1033418305
 11
14.491731673
 21
13.1991927294
  0
LINE
  5
2E2
100
AcDbEntity
  8
LAYER_FEATURE
100
AcDbLine
 62
7
  6
CONTINUOUS
 10
14.476603842
 20
13.1093073992
 11
14.5239547316
 21
13.2625349339
  0
LINE
  5
2E3
100
AcDbEntity
  8
LAYER_FEATURE
100
AcDbLine
 62
7
  6
CONTINUOUS
 10
14.4829284269
 20
13.1117739178
 11
14.5343197735
 21
13.2780763761
  0
LINE
  5
2E4
100
AcDbEntity
  8
LAYER_FEATURE
100
AcDbLine
 62
7
  6
CONTINUOUS
 10
14.5172400269
 20
13.1246148134
 11
14.5822094637
 21
13.3348559879
  0
LINE
  5
2E5
100
AcDbEntity
  8
LAYER_FEATURE
100
AcDbLine
 62
7
  6
CONTINUOUS
 10
14.5285065594
 20
13.1285041189
 11
14.5965078264
 21
13.3485562996
  0
LINE
  5
2E6
100
AcDbEntity
  8
LAYER_CUT_FEAT
100
AcDbLine
 62
7
  6
CONTINUOUS
 10
14.3765716669
 20
12.6098468742
 11
14.3850439883
 21
12.637263316
  0
LINE
  5
2E7
100
AcDbEntity
  8
LAYER_FEATURE
100
AcDbLine
 62
7
  6
CONTINUOUS
 10
14.5810722343
 20
13.1450665768
 11
14.6591320299
 21
13.3976681681
  0
LINE
  5
2E8
100
AcDbEntity
  8
LAYER_FEATURE
100
AcDbLine
 62
7
  6
CONTINUOUS
 10
14.5967389568
 20
13.1492594638
 11
14.677085412
 21
13.4092606882
  0
LINE
  5
2E9
100
AcDbEntity
  8
LAYER_FEATURE
100
AcDbLine
 62
7
  6
CONTINUOUS
 10
14.6591320299
 20
13.3976681681
 11
14.6591144054
 21
13.3976120543
  0
LINE
  5
2EA
100
AcDbEntity
  8
0
100
AcDbLine
 62
7
  6
CONTINUOUS
 10
14.7526032605
 20
13.448378967
 11
14.6652781684
 21
13.1657948654
  0
LINE
  5
2EB
100
AcDbEntity
  8
LAYER_FEATURE
100
AcDbLine
 62
7
  6
CONTINUOUS
 10
14.6654893655
 20
13.1658355775
 11
14.75322522
 21
13.4497489067
  0
LINE
  5
2EC
100
AcDbEntity
  8
LAYER_FEATURE
100
AcDbLine
 62
7
  6
CONTINUOUS
 10
14.6850524167
 20
13.1696067101
 11
14.7744841794
 21
13.4590080001
  0
LINE
  5
2ED
100
AcDbEntity
  8
02___PRT_ALL_AXES
100
AcDbLine
 62
7
  6
CONTINUOUS
 10
14.3619053955
 20
12.0780471815
 11
14.5131968477
 21
12.5676265001
  0
LINE
  5
2EE
100
AcDbEntity
  8
0
100
AcDbLine
 62
7
  6
CONTINUOUS
 10
14.8611087178
 20
13.4875308436
 11
14.7669798599
 21
13.1829297479
  0
LINE
  5
2EF
100
AcDbEntity
  8
LAYER_FEATURE
100
AcDbLine
 62
7
  6
CONTINUOUS
 10
14.7677709301
 20
13.18303108
 11
14.862657617
 21
13.4900845116
  0
LINE
  5
2F0
100
AcDbEntity
  8
LAYER_FEATURE
100
AcDbLine
 62
7
  6
CONTINUOUS
 10
14.7907466628
 20
13.1859741549
 11
14.8868083722
 21
13.4968299605
  0
LINE
  5
2F1
100
AcDbEntity
  8
0
100
AcDbLine
 62
7
  6
CONTINUOUS
 10
14.9825188212
 20
13.5143056438
 11
14.8835368714
 21
13.1939999369
  0
LINE
  5
2F2
100
AcDbEntity
  8
LAYER_FEATURE
100
AcDbLine
 62
7
  6
CONTINUOUS
 10
14.8852459665
 20
13.1941173716
 11
14.9852992439
 21
13.5178898959
  0
LINE
  5
2F3
100
AcDbEntity
  8
LAYER_FEATURE
100
AcDbLine
 62
7
  6
CONTINUOUS
 10
14.910901268
 20
13.1952498801
 11
15.0118717279
 21
13.5219904079
  0
LINE
  5
2F4
100
AcDbEntity
  8
0
100
AcDbLine
 62
7
  6
CONTINUOUS
 10
15.1144704612
 20
13.5281822264
 11
15.0119843815
 21
13.196537151
  0
LINE
  5
2F5
100
AcDbEntity
  8
LAYER_FEATURE
100
AcDbLine
 62
7
  6
CONTINUOUS
 10
15.0148925392
 20
13.1964988581
 11
15.1187630207
 21
13.5326238597
  0
LINE
  5
2F6
100
AcDbEntity
  8
LAYER_FEATURE
100
AcDbLine
 62
7
  6
CONTINUOUS
 10
15.0427508887
 20
13.1958726363
 11
15.1472400304
 21
13.5339996229
  0
LINE
  5
2F7
100
AcDbEntity
  8
0
100
AcDbLine
 62
7
  6
CONTINUOUS
 10
15.2543541517
 20
13.5287600289
 11
15.1495309315
 21
13.1895519639
  0
LINE
  5
2F8
100
AcDbEntity
  8
LAYER_FEATURE
100
AcDbLine
 62
7
  6
CONTINUOUS
 10
15.1538886503
 20
13.1891629981
 11
15.2604512271
 21
13.5339996229
  0
LINE
  5
2F9
100
AcDbEntity
  8
LAYER_FEATURE
100
AcDbLine
 62
7
  6
CONTINUOUS
 10
15.2544171597
 20
13.5289595724
 11
15.2543541781
 21
13.5287600207
  0
LINE
  5
2FA
100
AcDbEntity
  8
LAYER_CUT_FEAT
100
AcDbLine
 62
7
  6
CONTINUOUS
 10
16.1552678007
 20
11.9982567905
 11
16.1038974789
 21
11.9982567905
  0
LINE
  5
2FB
100
AcDbEntity
  8
LAYER_FEATURE
100
AcDbLine
 62
7
  6
CONTINUOUS
 10
15.1833188955
 20
13.1865024858
 11
15.2902784898
 21
13.5326238597
  0
LINE
  5
2FC
100
AcDbEntity
  8
LAYER_CUT_FEAT
100
AcDbLine
 62
7
  6
CONTINUOUS
 10
15.3983814362
 20
13.5138066298
 11
15.2928601769
 21
13.1723397097
  0
LINE
  5
2FD
100
AcDbEntity
  8
LAYER_FEATURE
100
AcDbLine
 62
7
  6
CONTINUOUS
 10
15.2992364221
 20
13.1713061213
 11
15.4076060631
 21
13.5219904079
  0
LINE
  5
2FE
100
AcDbEntity
  8
LAYER_CUT_FEAT
100
AcDbLine
 62
7
  6
CONTINUOUS
 10
14.9991361053
 20
12.6807959845
 11
14.9356811322
 21
12.6165631779
  0
LINE
  5
2FF
100
AcDbEntity
  8
LAYER_CUT_FEAT
100
AcDbLine
 62
7
  6
CONTINUOUS
 10
16.1606757269
 20
12.0919183051
 11
16.0961129359
 21
12.0919183051
  0
LINE
  5
300
100
AcDbEntity
  8
LAYER_CUT_FEAT
100
AcDbLine
 62
7
  6
CONTINUOUS
 10
14.9356811322
 20
12.6165631779
 11
14.9672020154
 21
12.5523303713
  0
LINE
  5
301
100
AcDbEntity
  8
LAYER_CUT_FEAT
100
AcDbLine
 62
7
  6
CONTINUOUS
 10
14.9356811322
 20
12.6165631779
 11
14.9594372283
 21
12.5523303713
  0
LINE
  5
302
100
AcDbEntity
  8
LAYER_FEATURE
100
AcDbLine
 62
7
  6
CONTINUOUS
 10
15.3295805221
 20
13.1663873473
 11
15.4382030251
 21
13.5178898959
  0
LINE
  5
303
100
AcDbEntity
  8
LAYER_CUT_FEAT
100
AcDbLine
 62
7
  6
CONTINUOUS
 10
15.0491629715
 20
12.5788519497
 11
15.0229625587
 21
12.5523303713
  0
LINE
  5
304
100
AcDbEntity
  8
LAYER_CUT_FEAT
100
AcDbLine
 62
7
  6
CONTINUOUS
 10
15.0466482976
 20
12.5523303713
 11
15.1101032708
 21
12.6165631779
  0
LINE
  5
305
100
AcDbEntity
  8
LAYER_CUT_FEAT
100
AcDbLine
 62
7
  6
CONTINUOUS
 10
14.9991361053
 20
12.6807959845
 11
15.0491629715
 21
12.5788519497
  0
LINE
  5
306
100
AcDbEntity
  8
LAYER_CUT_FEAT
100
AcDbLine
 62
7
  6
CONTINUOUS
 10
15.1101032708
 20
12.6165631779
 11
15.0863471746
 21
12.6807959845
  0
LINE
  5
307
100
AcDbEntity
  8
LAYER_CUT_FEAT
100
AcDbLine
 62
7
  6
CONTINUOUS
 10
15.5442236943
 20
13.4861601122
 11
15.4387482465
 21
13.1448414377
  0
LINE
  5
308
100
AcDbEntity
  8
LAYER_FEATURE
100
AcDbLine
 62
7
  6
CONTINUOUS
 10
15.4479273614
 20
13.1426950452
 11
15.5573633273
 21
13.4968299605
  0
LINE
  5
309
100
AcDbEntity
  8
LAYER_FEATURE
100
AcDbLine
 62
7
  6
CONTINUOUS
 10
15.478568828
 20
13.1355300173
 11
15.5881344535
 21
13.4900845116
  0
LINE
  5
30A
100
AcDbEntity
  8
LAYER_FEATURE
100
AcDbLine
 62
7
  6
CONTINUOUS
 10
15.5969680639
 20
13.1035653033
 11
15.7068081648
 21
13.4590080001
  0
LINE
  5
30B
100
AcDbEntity
  8
LAYER_FEATURE
100
AcDbLine
 62
7
  6
CONTINUOUS
 10
15.6273027284
 20
13.0942683454
 11
15.7371545304
 21
13.4497489067
  0
LINE
  5
30C
100
AcDbEntity
  8
LAYER_FEATURE
100
AcDbLine
 62
7
  6
CONTINUOUS
 10
15.7434222662
 20
13.0545641004
 11
15.853031802
 21
13.4092606882
  0
LINE
  5
30D
100
AcDbEntity
  8
LAYER_FEATURE
100
AcDbLine
 62
7
  6
CONTINUOUS
 10
15.7728592002
 20
13.0433145533
 11
15.8823627493
 21
13.3976681681
  0
LINE
  5
30E
100
AcDbEntity
  8
LAYER_CUT_FEAT
100
AcDbLine
 62
7
  6
CONTINUOUS
 10
14.9594372283
 20
12.5523303713
 11
15.0466482976
 21
12.5523303713
  0
LINE
  5
30F
100
AcDbEntity
  8
LAYER_CUT_FEAT
100
AcDbLine
 62
7
  6
CONTINUOUS
 10
15.0728487103
 20
12.5788519497
 11
15.0491629715
 21
12.5788519497
  0
LINE
  5
310
100
AcDbEntity
  8
LAYER_FEATURE
100
AcDbLine
 62
7
  6
CONTINUOUS
 10
15.8844626926
 20
12.9967205515
 11
15.993188162
 21
13.3485562996
  0
LINE
  5
311
100
AcDbEntity
  8
LAYER_CUT_FEAT
100
AcDbLine
 62
7
  6
CONTINUOUS
 10
15.0863471746
 20
12.6807959845
 11
14.9991361053
 21
12.6807959845
  0
LINE
  5
312
100
AcDbEntity
  8
LAYER_FEATURE
100
AcDbLine
 62
7
  6
CONTINUOUS
 10
15.9124356773
 20
12.9837591779
 11
16.0209327976
 21
13.3348559879
  0
LINE
  5
313
100
AcDbEntity
  8
LAYER_CUT_FEAT
100
AcDbLine
 62
7
  6
CONTINUOUS
 10
16.0240591198
 20
13.3225152906
 11
15.9185063255
 21
12.9809463232
  0
LINE
  5
314
100
AcDbEntity
  8
LAYER_FEATURE
100
AcDbLine
 62
7
  6
CONTINUOUS
 10
16.1231754987
 20
12.2057353004
 11
16.1479859946
 21
12.1760110816
  0
LINE
  5
315
100
AcDbEntity
  8
LAYER_CUT_FEAT
100
AcDbLine
 62
7
  6
CONTINUOUS
 10
16.0920938252
 20
12.0223101078
 11
16.1209768498
 21
11.9634526919
  0
LINE
  5
316
100
AcDbEntity
  8
LAYER_FEATURE
100
AcDbLine
 62
7
  6
CONTINUOUS
 10
16.1522903706
 20
13.2543988671
 11
16.1524524337
 21
13.2549566623
  0
LINE
  5
317
100
AcDbEntity
  8
LAYER_FEATURE
100
AcDbLine
 62
7
  6
CONTINUOUS
 10
16.0174018032
 20
12.9313470765
 11
16.1245492607
 21
13.2780763761
  0
LINE
  5
318
100
AcDbEntity
  8
LAYER_FEATURE
100
AcDbLine
 62
7
  6
CONTINUOUS
 10
16.0434091806
 20
12.9170646694
 11
16.1501675668
 21
13.2625349339
  0
LINE
  5
319
100
AcDbEntity
  8
LAYER_CUT_FEAT
100
AcDbLine
 62
7
  6
CONTINUOUS
 10
16.1522904145
 20
13.2543988536
 11
16.0473692065
 21
12.9148736999
  0
LINE
  5
31A
100
AcDbEntity
  8
LAYER_CUT_FEAT
100
AcDbLine
 62
7
  6
CONTINUOUS
 10
16.1606757269
 20
12.0919183051
 11
16.1317927022
 21
12.150775721
  0
LINE
  5
31B
100
AcDbEntity
  8
LAYER_FEATURE
100
AcDbLine
 62
7
  6
CONTINUOUS
 10
16.1398028121
 20
12.8602038341
 11
16.2445583038
 21
13.1991927294
  0
LINE
  5
31C
100
AcDbEntity
  8
LAYER_FEATURE
100
AcDbLine
 62
7
  6
CONTINUOUS
 10
16.1634026175
 20
12.8450862631
 11
16.2675516492
 21
13.1821126532
  0
LINE
  5
31D
100
AcDbEntity
  8
LAYER_CUT_FEAT
100
AcDbLine
 62
7
  6
CONTINUOUS
 10
16.2686739355
 20
13.175884404
 11
16.1659357443
 21
12.8434234956
  0
LINE
  5
31E
100
AcDbEntity
  8
LAYER_CUT_FEAT
100
AcDbLine
 62
7
  6
CONTINUOUS
 10
16.0975017514
 20
12.1159716224
 11
16.0920938252
 21
12.0223101078
  0
LINE
  5
31F
100
AcDbEntity
  8
LAYER_CUT_FEAT
100
AcDbLine
 62
7
  6
CONTINUOUS
 10
16.1552678007
 20
11.9982567905
 11
16.1606757269
 21
12.0919183051
  0
LINE
  5
320
100
AcDbEntity
  8
LAYER_FEATURE
100
AcDbLine
 62
7
  6
CONTINUOUS
 10
16.2495435553
 20
12.7855176589
 11
16.3508794517
 21
13.1134407399
  0
LINE
  5
321
100
AcDbEntity
  8
LAYER_FEATURE
100
AcDbLine
 62
7
  6
CONTINUOUS
 10
16.2703623159
 20
12.7701370479
 11
16.3708002971
 21
13.0951544738
  0
LINE
  5
322
100
AcDbEntity
  8
LAYER_CUT_FEAT
100
AcDbLine
 62
7
  6
CONTINUOUS
 10
16.3711289736
 20
13.0904871207
 11
16.2717894922
 21
12.7690244414
  0
LINE
  5
323
100
AcDbEntity
  8
LAYER_CUT_FEAT
100
AcDbLine
 62
7
  6
CONTINUOUS
 10
16.1317927022
 20
12.150775721
 11
16.0975017514
 21
12.1159716224
  0
LINE
  5
324
100
AcDbEntity
  8
LAYER_FEATURE
100
AcDbLine
 62
7
  6
CONTINUOUS
 10
16.3448837173
 20
12.7100225996
 11
16.4414432842
 21
13.0224894725
  0
LINE
  5
325
100
AcDbEntity
  8
LAYER_FEATURE
100
AcDbLine
 62
7
  6
CONTINUOUS
 10
16.3624825783
 20
12.6945694506
 11
16.457903893
 21
13.003352938
  0
LINE
  5
326
100
AcDbEntity
  8
LAYER_CUT_FEAT
100
AcDbLine
 62
7
  6
CONTINUOUS
 10
16.4577672936
 20
13.0002338859
 11
16.3631332749
 21
12.6939980891
  0
LINE
  5
327
100
AcDbEntity
  8
02___PRT_ALL_AXES
100
AcDbLine
 62
7
  6
CONTINUOUS
 10
16.0816629152
 20
11.5466019129
 11
16.2329543673
 21
12.0361812314
  0
LINE
  5
328
100
AcDbEntity
  8
LAYER_FEATURE
100
AcDbLine
 62
7
  6
CONTINUOUS
 10
16.4243723494
 20
12.6364978172
 11
16.5144870794
 21
12.9281091901
  0
LINE
  5
329
100
AcDbEntity
  8
LAYER_FEATURE
100
AcDbLine
 62
7
  6
CONTINUOUS
 10
16.4387046609
 20
12.6222304151
 11
16.5271670645
 21
12.9084948581
  0
LINE
  5
32A
100
AcDbEntity
  8
LAYER_CUT_FEAT
100
AcDbLine
 62
7
  6
CONTINUOUS
 10
16.5269025792
 20
12.9068813761
 11
16.438883702
 21
12.6220521849
  0
LINE
  5
32B
100
AcDbEntity
  8
LAYER_FEATURE
100
AcDbLine
 62
7
  6
CONTINUOUS
 10
16.1231754987
 20
11.9084931125
 11
16.1479859946
 21
11.9382173313
  0
LINE
  5
32C
100
AcDbEntity
  8
LAYER_CUT_FEAT
100
AcDbLine
 62
7
  6
CONTINUOUS
 10
16.1209768498
 20
11.9634526919
 11
16.1552678007
 21
11.9982567905
  0
LINE
  5
32D
100
AcDbEntity
  8
LAYER_FEATURE
100
AcDbLine
 62
7
  6
CONTINUOUS
 10
16.4873146078
 20
12.5691324709
 11
16.5685891228
 21
12.8321368977
  0
LINE
  5
32E
100
AcDbEntity
  8
LAYER_FEATURE
100
AcDbLine
 62
7
  6
CONTINUOUS
 10
16.4981811951
 20
12.5565867068
 11
16.5772416828
 21
12.8124265388
  0
LINE
  5
32F
100
AcDbEntity
  8
LAYER_CUT_FEAT
100
AcDbLine
 62
7
  6
CONTINUOUS
 10
16.3695795481
 20
11.9939608573
 11
16.3780518694
 21
12.0213772991
  0
LINE
  5
330
100
AcDbEntity
  8
LAYER_FEATURE
100
AcDbLine
 62
7
  6
CONTINUOUS
 10
16.5334298535
 20
12.5122940257
 11
16.6026963797
 21
12.7364405867
  0
LINE
  5
331
100
AcDbEntity
  8
LAYER_FEATURE
100
AcDbLine
 62
7
  6
CONTINUOUS
 10
16.5408520673
 20
12.5024676124
 11
16.6071531024
 21
12.7170178406
  0
LINE
  5
332
100
AcDbEntity
  8
LAYER_FEATURE
100
AcDbLine
 62
7
  6
CONTINUOUS
 10
16.5630823933
 20
12.4711722471
 11
16.6161449912
 21
12.6428828769
  0
LINE
  5
333
100
AcDbEntity
  8
LAYER_FEATURE
100
AcDbLine
 62
7
  6
CONTINUOUS
 10
16.5672165156
 20
12.4652296622
 11
16.6163191315
 21
12.6241257853
  0
LINE
  5
334
100
AcDbEntity
  8
LAYER_FEATURE
100
AcDbLine
 62
7
  6
CONTINUOUS
 10
16.5768616278
 20
12.4503424926
 11
16.6086731954
 21
12.5532847628
  0
LINE
  5
335
100
AcDbEntity
  8
LAYER_FEATURE
100
AcDbLine
 62
7
  6
CONTINUOUS
 10
16.5777812769
 20
12.4488980181
 11
16.6045613638
 21
12.5355584111
  0
LINE
  5
336
100
AcDbEntity
  8
LAYER_FEATURE
100
AcDbLine
 62
7
  6
CONTINUOUS
 10
16.652384118
 20
11.9065676353
 11
16.6717494238
 21
11.9692337881
  0
LINE
  5
337
100
AcDbEntity
  8
LAYER_FEATURE
100
AcDbLine
 62
7
  6
CONTINUOUS
 10
16.829092534
 20
12.4783962794
 11
16.8484578399
 21
12.5410624321
  0
CIRCLE
  5
338
100
AcDbEntity
  8
LAYER_FEATURE
100
AcDbCircle
 62
7
  6
CONTINUOUS
 10
6.1303672762
 20
5.5201198968
 40
1.339
  0
CIRCLE
  5
339
100
AcDbEntity
  8
LAYER_FEATURE
100
AcDbCircle
 62
7
  6
CONTINUOUS
 10
6.1303672762
 20
5.5201198968
 40
1.25
  0
CIRCLE
  5
33A
100
AcDbEntity
  8
LAYER_CUT_FEAT
100
AcDbCircle
 62
7
  6
CONTINUOUS
 10
6.1303672762
 20
5.5201198968
 40
1.043
  0
CIRCLE
  5
33B
100
AcDbEntity
  8
02___PRT_ALL_AXES
100
AcDbCircle
 62
7
  6
CONTINUOUS
 10
6.1303672762
 20
5.5201198968
 40
0.9
  0
CIRCLE
  5
33C
100
AcDbEntity
  8
LAYER_CHAMFER_FEAT
100
AcDbCircle
 62
7
  6
CONTINUOUS
 10
6.1303672762
 20
5.5201198968
 40
0.2875
  0
CIRCLE
  5
33D
100
AcDbEntity
  8
LAYER_CHAMFER_FEAT
100
AcDbCircle
 62
7
  6
CONTINUOUS
 10
6.1303672762
 20
5.5201198968
 40
0.25
  0
CIRCLE
  5
33E
100
AcDbEntity
  8
02___PRT_ALL_AXES
100
AcDbCircle
 62
7
  6
CONTINUOUS
 10
6.0708720839
 20
12.1950477814
 40
0.164
  0
ARC
  5
33F
100
AcDbEntity
  8
LAYER_FEATURE
100
AcDbCircle
 62
7
  6
CONTINUOUS
 10
7.2928166891
 20
12.4745477814
 40
0.148
100
AcDbArc
 50
68.5323485609
 51
90.0
  0
ARC
  5
340
100
AcDbEntity
  8
LAYER_FEATURE
100
AcDbCircle
 62
7
  6
CONTINUOUS
 10
4.8489274786
 20
12.4745477814
 40
0.148
100
AcDbArc
 50
90.0
 51
111.4676514391
  0
ARC
  5
341
100
AcDbEntity
  8
LAYER_FEATURE
100
AcDbCircle
 62
7
  6
CONTINUOUS
 10
7.2928166891
 20
13.3505477814
 40
0.148
100
AcDbArc
 50
270.0
 51
291.4676514391
  0
ARC
  5
342
100
AcDbEntity
  8
LAYER_FEATURE
100
AcDbCircle
 62
7
  6
CONTINUOUS
 10
4.8489274786
 20
13.3505477814
 40
0.148
100
AcDbArc
 50
248.5323485609
 51
270.0
  0
CIRCLE
  5
343
100
AcDbEntity
  8
LAYER_FEATURE
100
AcDbCircle
 62
7
  6
CONTINUOUS
 10
6.0708720839
 20
12.1950477814
 40
0.1312
  0
CIRCLE
  5
344
100
AcDbEntity
  8
02___PRT_ALL_AXES
100
AcDbCircle
 62
7
  6
CONTINUOUS
 10
15.1553552569
 20
5.4606247044
 40
0.164
  0
ARC
  5
345
100
AcDbEntity
  8
LAYER_FEATURE
100
AcDbCircle
 62
7
  6
CONTINUOUS
 10
15.4348552569
 20
4.2386800992
 40
0.148
100
AcDbArc
 50
338.5323485609
 51
360.0
  0
ARC
  5
346
100
AcDbEntity
  8
LAYER_FEATURE
100
AcDbCircle
 62
7
  6
CONTINUOUS
 10
15.4348552569
 20
6.6825693097
 40
0.148
100
AcDbArc
 50
0.0
 51
21.4676514391
  0
ARC
  5
347
100
AcDbEntity
  8
LAYER_FEATURE
100
AcDbCircle
 62
7
  6
CONTINUOUS
 10
16.3108552569
 20
4.2386800992
 40
0.148
100
AcDbArc
 50
180.0
 51
201.4676514391
  0
ARC
  5
348
100
AcDbEntity
  8
LAYER_FEATURE
100
AcDbCircle
 62
7
  6
CONTINUOUS
 10
16.3108552569
 20
6.6825693097
 40
0.148
100
AcDbArc
 50
158.5323485609
 51
180.0
  0
CIRCLE
  5
349
100
AcDbEntity
  8
LAYER_FEATURE
100
AcDbCircle
 62
7
  6
CONTINUOUS
 10
15.1553552569
 20
5.4606247044
 40
0.1312
  0
ARC
  5
34A
100
AcDbEntity
  8
LAYER_FEATURE
100
AcDbCircle
 62
7
  6
CONTINUOUS
 10
15.1572994293
 20
11.6036525581
 40
1.9350203272
100
AcDbArc
 50
72.5626024578
 51
73.5020607101
  0
ARC
  5
34B
100
AcDbEntity
  8
LAYER_FEATURE
100
AcDbCircle
 62
7
  6
CONTINUOUS
 10
15.1686252558
 20
11.6346993664
 40
1.9019674564
100
AcDbArc
 50
67.9594481294
 51
68.9095466017
  0
ARC
  5
34C
100
AcDbEntity
  8
LAYER_FEATURE
100
AcDbCircle
 62
7
  6
CONTINUOUS
 10
15.1674703173
 20
11.6446732216
 40
1.8927496254
100
AcDbArc
 50
77.1587627059
 51
78.1123705659
  0
ARC
  5
34D
100
AcDbEntity
  8
LAYER_FEATURE
100
AcDbCircle
 62
7
  6
CONTINUOUS
 10
15.2112693678
 20
11.7301417535
 40
1.7974044185
100
AcDbArc
 50
63.2266335904
 51
64.2130113441
  0
ARC
  5
34E
100
AcDbEntity
  8
LAYER_FEATURE
100
AcDbCircle
 62
7
  6
CONTINUOUS
 10
15.1864733438
 20
11.7557515556
 40
1.7800279107
100
AcDbArc
 50
81.8700368071
 51
82.8637133636
  0
ARC
  5
34F
100
AcDbEntity
  8
LAYER_FEATURE
100
AcDbCircle
 62
7
  6
CONTINUOUS
 10
15.2902828105
 20
11.8739975265
 40
1.6332292938
100
AcDbArc
 50
58.2311543867
 51
59.2823404503
  0
ARC
  5
350
100
AcDbEntity
  8
LAYER_FEATURE
100
AcDbCircle
 62
7
  6
CONTINUOUS
 10
15.2012030306
 20
11.9254447025
 40
1.6096457003
100
AcDbArc
 50
86.8277141181
 51
87.8905677122
  0
ARC
  5
351
100
AcDbEntity
  8
LAYER_FEATURE
100
AcDbCircle
 62
7
  6
CONTINUOUS
 10
15.4048309166
 20
12.0447275492
 40
1.4275615353
100
AcDbArc
 50
52.8192309968
 51
53.9688501135
  0
ARC
  5
352
100
AcDbEntity
  8
LAYER_FEATURE
100
AcDbCircle
 62
7
  6
CONTINUOUS
 10
15.2005701692
 20
12.1347041182
 40
1.4003113987
100
AcDbArc
 50
92.182608104
 51
93.3491655255
  0
ARC
  5
353
100
AcDbEntity
  8
LAYER_FEATURE
100
AcDbCircle
 62
7
  6
CONTINUOUS
 10
15.5480879218
 20
12.2188950903
 40
1.2019509805
100
AcDbArc
 50
46.8052108914
 51
48.0942655293
  0
ARC
  5
354
100
AcDbEntity
  8
LAYER_FEATURE
100
AcDbCircle
 62
7
  6
CONTINUOUS
 10
15.1775855206
 20
12.3599690083
 40
1.1737780005
100
AcDbArc
 50
98.1161243667
 51
99.4285920248
  0
ARC
  5
355
100
AcDbEntity
  8
LAYER_FEATURE
100
AcDbCircle
 62
7
  6
CONTINUOUS
 10
15.708164597
 20
12.3750998991
 40
0.9781671089
100
AcDbArc
 50
39.9617284662
 51
41.4403104169
  0
ARC
  5
356
100
AcDbEntity
  8
LAYER_FEATURE
100
AcDbCircle
 62
7
  6
CONTINUOUS
 10
15.1307064852
 20
12.5769944224
 40
0.9516216195
100
AcDbArc
 50
104.8504736887
 51
106.3602526514
  0
ARC
  5
357
100
AcDbEntity
  8
LAYER_FEATURE
100
AcDbCircle
 62
7
  6
CONTINUOUS
 10
15.8699132329
 20
12.4975088103
 40
0.7751723232
100
AcDbArc
 50
32.018069549
 51
33.7444630428
  0
ARC
  5
358
100
AcDbEntity
  8
LAYER_FEATURE
100
AcDbCircle
 62
7
  6
CONTINUOUS
 10
15.0642112051
 20
12.7647572915
 40
0.7522803971
100
AcDbArc
 50
112.6519163941
 51
114.418034185
  0
ARC
  5
359
100
AcDbEntity
  8
LAYER_CUT_FEAT
100
AcDbCircle
 62
7
  6
CONTINUOUS
 10
14.9749859215
 20
12.5781949845
 40
0.6267611869
100
AcDbArc
 50
206.1564414664
 51
208.4705450124
  0
ARC
  5
35A
100
AcDbEntity
  8
LAYER_FEATURE
100
AcDbCircle
 62
7
  6
CONTINUOUS
 10
16.0173029491
 20
12.5783759564
 40
0.6068863655
100
AcDbArc
 50
22.6845958259
 51
24.7169512178
  0
ARC
  5
35B
100
AcDbEntity
  8
LAYER_FEATURE
100
AcDbCircle
 62
7
  6
CONTINUOUS
 10
14.9875333451
 20
12.9087702408
 40
0.5889555222
100
AcDbArc
 50
121.8108070537
 51
123.8899504276
  0
ARC
  5
35C
100
AcDbEntity
  8
LAYER_FEATURE
100
AcDbCircle
 62
7
  6
CONTINUOUS
 10
16.1359592438
 20
12.6191208891
 40
0.4812561329
100
AcDbArc
 50
11.7370021568
 51
14.1096337341
  0
ARC
  5
35D
100
AcDbEntity
  8
LAYER_FEATURE
100
AcDbCircle
 62
7
  6
CONTINUOUS
 10
14.9136710919
 20
13.0032366916
 40
0.4688690314
100
AcDbArc
 50
132.5663230771
 51
134.9863761446
  0
ARC
  5
35E
100
AcDbEntity
  8
LAYER_FEATURE
100
AcDbCircle
 62
7
  6
CONTINUOUS
 10
16.2154331948
 20
12.6297833265
 40
0.400925856
100
AcDbArc
 50
359.1914614985
 51
1.872372525
  0
ARC
  5
35F
100
AcDbEntity
  8
LAYER_FEATURE
100
AcDbCircle
 62
7
  6
CONTINUOUS
 10
14.8569447138
 20
13.0516812817
 40
0.3941339758
100
AcDbArc
 50
144.9415693133
 51
147.6574693917
  0
ARC
  5
360
100
AcDbEntity
  8
LAYER_FEATURE
100
AcDbCircle
 62
7
  6
CONTINUOUS
 10
16.2508122292
 20
12.6269546691
 40
0.3653651957
100
AcDbArc
 50
345.513586432
 51
348.3674951615
  0
ARC
  5
361
100
AcDbEntity
  8
LAYER_FEATURE
100
AcDbCircle
 62
7
  6
CONTINUOUS
 10
14.8304903164
 20
13.0659538934
 40
0.3640192384
100
AcDbArc
 50
158.5295442614
 51
161.3914578872
  0
ARC
  5
362
100
AcDbEntity
  8
LAYER_FEATURE
100
AcDbCircle
 62
7
  6
CONTINUOUS
 10
14.5874236927
 20
13.2602812226
 40
0.0904548508
100
AcDbArc
 50
67.3144866602
 51
76.9108080432
  0
ARC
  5
363
100
AcDbEntity
  8
LAYER_FEATURE
100
AcDbCircle
 62
7
  6
CONTINUOUS
 10
16.5609277101
 20
12.6582048333
 40
0.0903909983
100
AcDbArc
 50
69.1513649024
 51
78.7522157049
  0
ARC
  5
364
100
AcDbEntity
  8
LAYER_FEATURE
100
AcDbCircle
 62
7
  6
CONTINUOUS
 10
16.5691471464
 20
12.5688764586
 40
0.0894915107
100
AcDbArc
 50
64.5349147035
 51
74.2001440122
  0
ARC
  5
365
100
AcDbEntity
  8
LAYER_FEATURE
100
AcDbCircle
 62
7
  6
CONTINUOUS
 10
14.5319971849
 20
13.1907013794
 40
0.0892405612
100
AcDbArc
 50
71.8584323422
 51
81.5418158689
  0
ARC
  5
366
100
AcDbEntity
  8
LAYER_FEATURE
100
AcDbCircle
 62
7
  6
CONTINUOUS
 10
14.5858251995
 20
13.355187623
 40
0.0838288476
100
AcDbArc
 50
251.9016184284
 51
254.5700877569
  0
ARC
  5
367
100
AcDbEntity
  8
LAYER_FEATURE
100
AcDbCircle
 62
7
  6
CONTINUOUS
 10
16.6163671485
 20
12.7355581642
 40
0.0837493027
100
AcDbArc
 50
250.5476625442
 51
254.1644081437
  0
ARC
  5
368
100
AcDbEntity
  8
LAYER_FEATURE
100
AcDbCircle
 62
7
  6
CONTINUOUS
 10
14.6544051654
 20
13.4204593376
 40
0.0831642025
100
AcDbArc
 50
247.2985339359
 51
260.6058289017
  0
ARC
  5
369
100
AcDbEntity
  8
LAYER_FEATURE
100
AcDbCircle
 62
7
  6
CONTINUOUS
 10
16.5608072604
 20
12.4914301557
 40
0.0801102312
100
AcDbArc
 50
59.5574717899
 51
62.8594917914
  0
ARC
  5
36A
100
AcDbEntity
  8
LAYER_FEATURE
100
AcDbCircle
 62
7
  6
CONTINUOUS
 10
14.4969498332
 20
13.1219279722
 40
0.0793502653
100
AcDbArc
 50
84.252382355
 51
86.5481981039
  0
SPLINE
  5
36B
100
AcDbEntity
  8
02___PRT_ALL_AXES
100
AcDbSpline
 62
7
  6
CONTINUOUS
 70
0
 71
3
 72
21
 73
17
 74
0
 42
0.0000001
 43
0.0000001
 44
0.0000000001
 40
0.0
 40
0.0
 40
0.0
 40
0.0
 40
0.038531141
 40
0.0850736456
 40
0.1474228387
 40
0.2231257814
 40
0.3093244065
 40
0.4027955686
 40
0.4999999999
 40
0.5972044312
 40
0.6906755933
 40
0.7768742183
 40
0.8525771611
 40
0.9149263544
 40
0.9614688591
 40
1.0
 40
1.0
 40
1.0
 40
1.0
 10
6.9708720839
 20
12.0310477814
 30
0.0
 10
6.9701126623
 20
12.0352152763
 30
0.0
 10
6.9684957662
 20
12.0444276964
 30
0.0
 10
6.9659264738
 20
12.0604310509
 30
0.0
 10
6.9630891713
 20
12.0805276463
 30
0.0
 10
6.9602404152
 20
12.1050195936
 30
0.0
 10
6.957813221
 20
12.1329947138
 30
0.0
 10
6.9561837903
 20
12.1633966099
 30
0.0
 10
6.9556099734
 20
12.1950477813
 30
0.0
 10
6.9561837903
 20
12.2266989527
 30
0.0
 10
6.957813221
 20
12.2571008488
 30
0.0
 10
6.9602404152
 20
12.2850759691
 30
0.0
 10
6.9630891713
 20
12.3095679164
 30
0.0
 10
6.9659264738
 20
12.3296645118
 30
0.0
 10
6.9684957662
 20
12.3456678663
 30
0.0
 10
6.9701126623
 20
12.3548802865
 30
0.0
 10
6.9708720839
 20
12.3590477814
 30
0.0
  0
SPLINE
  5
36C
100
AcDbEntity
  8
02___PRT_ALL_AXES
100
AcDbSpline
 62
7
  6
CONTINUOUS
 70
0
 71
3
 72
21
 73
17
 74
0
 42
0.0000001
 43
0.0000001
 44
0.0000000001
 40
0.0
 40
0.0
 40
0.0
 40
0.0
 40
0.0385311374
 40
0.0850736401
 40
0.1474228405
 40
0.2231257917
 40
0.3093244178
 40
0.4027955775
 40
0.5000000002
 40
0.5972044229
 40
0.6906755827
 40
0.7768742087
 40
0.8525771598
 40
0.9149263602
 40
0.9614688627
 40
1.0
 40
1.0
 40
1.0
 40
1.0
 10
15.3193552569
 20
6.3606247044
 30
0.0
 10
15.3151877625
 20
6.3598652827
 30
0.0
 10
15.3059753429
 20
6.3582483866
 30
0.0
 10
15.2899719881
 20
6.3556790949
 30
0.0
 10
15.2698753912
 20
6.3528417923
 30
0.0
 10
15.2453834422
 20
6.3499930353
 30
0.0
 10
15.2174083212
 20
6.3475658403
 30
0.0
 10
15.1870064261
 20
6.3459364098
 30
0.0
 10
15.1553552569
 20
6.3453625931
 30
0.0
 10
15.1237040876
 20
6.3459364098
 30
0.0
 10
15.0933021926
 20
6.3475658403
 30
0.0
 10
15.0653270716
 20
6.3499930353
 30
0.0
 10
15.0408351226
 20
6.3528417923
 30
0.0
 10
15.0207385257
 20
6.3556790949
 30
0.0
 10
15.0047351709
 20
6.3582483866
 30
0.0
 10
14.9955227514
 20
6.3598652827
 30
0.0
 10
14.9913552569
 20
6.3606247044
 30
0.0
  0
SPLINE
  5
36D
100
AcDbEntity
  8
02___PRT_ALL_AXES
100
AcDbSpline
 62
7
  6
CONTINUOUS
 70
0
 71
3
 72
58
 73
54
 74
0
 42
0.0000001
 43
0.0000001
 44
0.0000000001
 40
0.0
 40
0.0
 40
0.0
 40
0.0
 40
0.0136805344
 40
0.0278509676
 40
0.0424929642
 40
0.0575894398
 40
0.073121654
 40
0.0890692454
 40
0.1054109612
 40
0.122124865
 40
0.1391881576
 40
0.1565774984
 40
0.1922376091
 40
0.2289113576
 40
0.2664006159
 40
0.3045063017
 40
0.3430302643
 40
0.3817767511
 40
0.4205536262
 40
0.4591733956
 40
0.4974542688
 40
0.5352212299
 40
0.5723074043
 40
0.6085555487
 40
0.6438199091
 40
0.6610426242
 40
0.6779710673
 40
0.6945911665
 40
0.71089002
 40
0.7268558779
 40
0.7424783184
 40
0.7577482545
 40
0.7726579998
 40
0.7872014356
 40
0.801373964
 40
0.8151727289
 40
0.8285965783
 40
0.8416462412
 40
0.8543244212
 40
0.8666358513
 40
0.8785875121
 40
0.8901886369
 40
0.9014509797
 40
0.912388855
 40
0.9230193039
 40
0.9333622456
 40
0.9434405068
 40
0.9532799569
 40
0.9629094048
 40
0.9723605773
 40
0.9816678835
 40
0.9908681085
 40
1.0
 40
1.0
 40
1.0
 40
1.0
 10
16.086685899
 20
11.9286485933
 30
0.0
 10
16.0860287636
 20
11.9299876945
 30
0.0
 10
16.0847228071
 20
11.9327295771
 30
0.0
 10
16.0828201458
 20
11.9369544156
 30
0.0
 10
16.0809418766
 20
11.9413585045
 30
0.0
 10
16.0790913789
 20
11.9459348693
 30
0.0
 10
16.0772720577
 20
11.950676498
 30
0.0
 10
16.0754874815
 20
11.9555760524
 30
0.0
 10
16.0737413129
 20
11.9606259461
 30
0.0
 10
16.0720372912
 20
11.9658183944
 30
0.0
 10
16.0703792173
 20
11.9711454547
 30
0.0
 10
16.0682168289
 20
11.9784782035
 30
0.0
 10
16.0656581958
 20
11.9879221611
 30
0.0
 10
16.0628583649
 20
11.9995663568
 30
0.0
 10
16.0603356716
 20
12.0115464585
 30
0.0
 10
16.0581215503
 20
12.0237925361
 30
0.0
 10
16.0562466752
 20
12.0362338913
 30
0.0
 10
16.054740491
 20
12.0487991092
 30
0.0
 10
16.0536307115
 20
12.0614162068
 30
0.0
 10
16.0529427758
 20
12.0740127139
 30
0.0
 10
16.0526992615
 20
12.0865157899
 30
0.0
 10
16.0529192518
 20
12.0988523758
 30
0.0
 10
16.0536177035
 20
12.1109495687
 30
0.0
 10
16.0548048086
 20
12.1227346609
 30
0.0
 10
16.0562162613
 20
12.1323104821
 30
0.0
 10
16.0576002385
 20
12.1397522681
 30
0.0
 10
16.0587528524
 20
12.1451674403
 30
0.0
 10
16.060027163
 20
12.150451722
 30
0.0
 10
16.0614215946
 20
12.1555969729
 30
0.0
 10
16.0629343334
 20
12.1605951939
 30
0.0
 10
16.0645630337
 20
12.1654386765
 30
0.0
 10
16.0663050294
 20
12.1701199588
 30
0.0
 10
16.0681572964
 20
12.1746318537
 30
0.0
 10
16.070116341
 20
12.1789675176
 30
0.0
 10
16.0721784771
 20
12.1831203608
 30
0.0
 10
16.074339512
 20
12.1870841981
 30
0.0
 10
16.0765950812
 20
12.1908531165
 30
0.0
 10
16.0789404478
 20
12.1944215847
 30
0.0
 10
16.0813706085
 20
12.197784423
 30
0.0
 10
16.0838803801
 20
12.2009367494
 30
0.0
 10
16.0864642383
 20
12.2038741124
 30
0.0
 10
16.0891165911
 20
12.2065922947
 30
0.0
 10
16.0918315493
 20
12.209087511
 30
0.0
 10
16.0946031431
 20
12.2113562301
 30
0.0
 10
16.0974252324
 20
12.2133952573
 30
0.0
 10
16.1002915343
 20
12.2152017342
 30
0.0
 10
16.1031957055
 20
12.2167730199
 30
0.0
 10
16.1061312297
 20
12.2181068825
 30
0.0
 10
16.1090915702
 20
12.2192012569
 30
0.0
 10
16.1120700257
 20
12.2200544874
 30
0.0
 10
16.1150599427
 20
12.2206651593
 30
0.0
 10
16.1180542577
 20
12.2210322005
 30
0.0
 10
16.1200540251
 20
12.2211142043
 30
0.0
 10
16.121049716
 20
12.2211142062
 30
0.0
  0
SPLINE
  5
36E
100
AcDbEntity
  8
02___PRT_ALL_AXES
100
AcDbSpline
 62
7
  6
CONTINUOUS
 70
0
 71
3
 72
29
 73
25
 74
0
 42
0.0000001
 43
0.0000001
 44
0.0000000001
 40
0.0
 40
0.0
 40
0.0
 40
0.0
 40
0.0748332171
 40
0.1480458276
 40
0.2195269555
 40
0.2891927065
 40
0.3569873724
 40
0.4228881097
 40
0.4869073977
 40
0.5490959417
 40
0.6095446
 40
0.6683855962
 40
0.6972615858
 40
0.7258041052
 40
0.7540411393
 40
0.7820027925
 40
0.8097214224
 40
0.8372312266
 40
0.864568147
 40
0.8917695318
 40
0.918873879
 40
0.9459205218
 40
0.9729492562
 40
1.0
 40
1.0
 40
1.0
 40
1.0
 10
14.9831933244
 20
12.4880975647
 30
0.0
 10
14.9801536258
 20
12.4880975647
 30
0.0
 10
14.9741390899
 20
12.488229518
 30
0.0
 10
14.9652395152
 20
12.4888370875
 30
0.0
 10
14.9565878848
 20
12.4898509589
 30
0.0
 10
14.9482160871
 20
12.491268916
 30
0.0
 10
14.9401540084
 20
12.4930879224
 30
0.0
 10
14.9324298413
 20
12.495304112
 30
0.0
 10
14.9250699406
 20
12.4979128382
 30
0.0
 10
14.91809874
 20
12.5009087766
 30
0.0
 10
14.9115392102
 20
12.5042856022
 30
0.0
 10
14.906400841
 20
12.5074313953
 30
0.0
 10
14.902524966
 20
12.5101311795
 30
0.0
 10
14.8997514011
 20
12.5122335054
 30
0.0
 10
14.8970953846
 20
12.5144245827
 30
0.0
 10
14.8945588941
 20
12.5167032741
 30
0.0
 10
14.8921437927
 20
12.5190682525
 30
0.0
 10
14.8898518967
 20
12.5215182192
 30
0.0
 10
14.8876848603
 20
12.5240517351
 30
0.0
 10
14.8856442893
 20
12.5266673462
 30
0.0
 10
14.8837316525
 20
12.5293634811
 30
0.0
 10
14.8819483248
 20
12.5321385384
 30
0.0
 10
14.8802956316
 20
12.5349907307
 30
0.0
 10
14.8792825021
 20
12.5369408677
 30
0.0
 10
14.8787984403
 20
12.5379272891
 30
0.0
  0
SPLINE
  5
36F
100
AcDbEntity
  8
LAYER_CUT_FEAT
100
AcDbSpline
 62
7
  6
CONTINUOUS
 70
0
 71
3
 72
22
 73
18
 74
0
 42
0.0000001
 43
0.0000001
 44
0.0000000001
 40
0.0
 40
0.0
 40
0.0
 40
0.0
 40
0.138119746
 40
0.2053664285
 40
0.2714549226
 40
0.3364371368
 40
0.4003725798
 40
0.4633278425
 40
0.5253764101
 40
0.5865986145
 40
0.6470813095
 40
0.7069174418
 40
0.7662055029
 40
0.8250488587
 40
0.8835549592
 40
0.9418344156
 40
1.0
 40
1.0
 40
1.0
 40
1.0
 10
14.4124089907
 20
12.3019038657
 30
0.0
 10
14.4059663771
 20
12.3150325319
 30
0.0
 10
14.3970889591
 20
12.3349133117
 30
0.0
 10
14.3869639889
 20
12.361818959
 30
0.0
 10
14.3803802314
 20
12.381765049
 30
0.0
 10
14.3747465932
 20
12.4016356655
 30
0.0
 10
14.3700683935
 20
12.4214123805
 30
0.0
 10
14.3663503706
 20
12.4410761363
 30
0.0
 10
14.3635962988
 20
12.4606081424
 30
0.0
 10
14.3618090625
 20
12.479989635
 30
0.0
 10
14.3609905832
 20
12.4992019648
 30
0.0
 10
14.3611418556
 20
12.5182265915
 30
0.0
 10
14.3622629408
 20
12.537045125
 30
0.0
 10
14.3643529269
 20
12.555639264
 30
0.0
 10
14.3674099666
 20
12.5739911235
 30
0.0
 10
14.3714309784
 20
12.5920821661
 30
0.0
 10
14.374753348
 20
12.6039627864
 30
0.0
 10
14.376571667
 20
12.6098468742
 30
0.0
  0
SPLINE
  5
370
100
AcDbEntity
  8
LAYER_CHAMFER_FEAT
100
AcDbSpline
 62
7
  6
CONTINUOUS
 70
0
 71
3
 72
23
 73
19
 74
0
 42
0.0000001
 43
0.0000001
 44
0.0000000001
 40
0.0
 40
0.0
 40
0.0
 40
0.0
 40
0.0739010133
 40
0.1460109247
 40
0.2163347818
 40
0.2848920139
 40
0.3517176501
 40
0.4168632203
 40
0.4803974836
 40
0.5424073048
 40
0.6029981965
 40
0.6622943006
 40
0.7204381797
 40
0.7775901124
 40
0.833926507
 40
0.8896377988
 40
0.9449257489
 40
1.0
 40
1.0
 40
1.0
 40
1.0
 10
15.0749477428
 20
11.9861141743
 30
0.0
 10
15.0722797582
 20
11.9852900841
 30
0.0
 10
15.0670408643
 20
11.9835542875
 30
0.0
 10
15.0593975017
 20
11.9806492813
 30
0.0
 10
15.0520790215
 20
11.977480016
 30
0.0
 10
15.0450994838
 20
11.9740524016
 30
0.0
 10
15.0384720929
 20
11.9703727908
 30
0.0
 10
15.0322094592
 20
11.9664480213
 30
0.0
 10
15.0263235489
 20
11.9622853372
 30
0.0
 10
15.0208256587
 20
11.957892443
 30
0.0
 10
15.0157263722
 20
11.9532775184
 30
0.0
 10
15.0110356034
 20
11.9484491489
 30
0.0
 10
15.0067625675
 20
11.9434163629
 30
0.0
 10
15.00291568
 20
11.9381886745
 30
0.0
 10
14.9995026174
 20
11.9327760671
 30
0.0
 10
14.9965302254
 20
11.9271888003
 30
0.0
 10
14.9940046119
 20
11.9214381824
 30
0.0
 10
14.9926208334
 20
11.9174993689
 30
0.0
 10
14.9920064332
 20
11.9155111486
 30
0.0
  0
SPLINE
  5
371
100
AcDbEntity
  8
LAYER_CHAMFER_FEAT
100
AcDbSpline
 62
7
  6
CONTINUOUS
 70
0
 71
3
 72
24
 73
20
 74
0
 42
0.0000001
 43
0.0000001
 44
0.0000000001
 40
0.0
 40
0.0
 40
0.0
 40
0.0
 40
0.0739184662
 40
0.1460439679
 40
0.2163811886
 40
0.2849494045
 40
0.3517835088
 40
0.3845685588
 40
0.4169408192
 40
0.4804779678
 40
0.5424879138
 40
0.6030761382
 40
0.6623668583
 40
0.7205029161
 40
0.7776448187
 40
0.8339692698
 40
0.8896671539
 40
0.9449406893
 40
1.0
 40
1.0
 40
1.0
 40
1.0
 10
15.4409532662
 20
11.8731184917
 30
0.0
 10
15.4426963866
 20
11.8709303605
 30
0.0
 10
15.4460527425
 20
11.8665363804
 30
0.0
 10
15.4507391201
 20
11.8598174055
 30
0.0
 10
15.4550071893
 20
11.8530631478
 30
0.0
 10
15.4588485887
 20
11.8462866265
 30
0.0
 10
15.4617062829
 20
11.8405953454
 30
0.0
 10
15.4637676711
 20
11.836044465
 30
0.0
 10
15.4656561691
 20
11.8315542795
 30
0.0
 10
15.4677434823
 20
11.825950149
 30
0.0
 10
15.4698125398
 20
11.8192119019
 30
0.0
 10
15.4714260584
 20
11.8125150886
 30
0.0
 10
15.4725806067
 20
11.8058725589
 30
0.0
 10
15.4732737241
 20
11.7992969977
 30
0.0
 10
15.4735037859
 20
11.7928010603
 30
0.0
 10
15.4732700389
 20
11.786397374
 30
0.0
 10
15.4725726664
 20
11.7800983249
 30
0.0
 10
15.4714130168
 20
11.7739167389
 30
0.0
 10
15.4703320858
 20
11.769878383
 30
0.0
 10
15.4697168518
 20
11.767887464
 30
0.0
  0
SPLINE
  5
372
100
AcDbEntity
  8
LAYER_FEATURE
100
AcDbSpline
 62
7
  6
CONTINUOUS
 70
0
 71
3
 72
41
 73
37
 74
0
 42
0.0000001
 43
0.0000001
 44
0.0000000001
 40
0.0
 40
0.0
 40
0.0
 40
0.0
 40
0.0202789315
 40
0.0308756986
 40
0.0417792297
 40
0.0529904145
 40
0.0645090546
 40
0.0884615636
 40
0.1136200579
 40
0.1399540572
 40
0.1674229689
 40
0.1959774096
 40
0.2255603881
 40
0.2561082505
 40
0.2875514754
 40
0.3198153527
 40
0.3528206859
 40
0.3864843932
 40
0.4207200423
 40
0.4554383387
 40
0.4905476409
 40
0.5259544578
 40
0.5615638994
 40
0.5972801179
 40
0.6330067679
 40
0.6686474666
 40
0.7041062289
 40
0.7392879039
 40
0.7740986482
 40
0.8084464118
 40
0.8422413357
 40
0.8753963275
 40
0.9078276226
 40
0.9394544954
 40
0.9702032111
 40
1.0
 40
1.0
 40
1.0
 40
1.0
 10
16.1479859935
 20
12.1760110756
 30
0.0
 10
16.1488829697
 20
12.1749364453
 30
0.0
 10
16.1501882861
 20
12.1732489647
 30
0.0
 10
16.1518428333
 20
12.1708866334
 30
0.0
 10
16.1530817187
 20
12.1689984516
 30
0.0
 10
16.1542993216
 20
12.1670214297
 30
0.0
 10
16.1559142159
 20
12.1642325912
 30
0.0
 10
16.1578693909
 20
12.1605302295
 30
0.0
 10
16.160086027
 20
12.1558160357
 30
0.0
 10
16.1621958437
 20
12.1507888909
 30
0.0
 10
16.1641921614
 20
12.1454647125
 30
0.0
 10
16.1660686884
 20
12.139860257
 30
0.0
 10
16.1678194723
 20
12.1339932335
 30
0.0
 10
16.1694389496
 20
12.127882192
 30
0.0
 10
16.17092196
 20
12.1215464798
 30
0.0
 10
16.1722637874
 20
12.1150061782
 30
0.0
 10
16.1734601581
 20
12.1082820301
 30
0.0
 10
16.1745072573
 20
12.1013953691
 30
0.0
 10
16.1754017385
 20
12.0943680522
 30
0.0
 10
16.1761407494
 20
12.0872223927
 30
0.0
 10
16.1767219381
 20
12.0799810854
 30
0.0
 10
16.1771434505
 20
12.0726671315
 30
0.0
 10
16.1774039378
 20
12.0653037644
 30
0.0
 10
16.1775025635
 20
12.0579143777
 30
0.0
 10
16.1774390204
 20
12.0505224491
 30
0.0
 10
16.1772135127
 20
12.0431514631
 30
0.0
 10
16.176826759
 20
12.0358248376
 30
0.0
 10
16.1762799857
 20
12.0285658492
 30
0.0
 10
16.1755749422
 20
12.021397555
 30
0.0
 10
16.1747138812
 20
12.0143427212
 30
0.0
 10
16.1736995513
 20
12.0074237483
 30
0.0
 10
16.1725351814
 20
12.0006625921
 30
0.0
 10
16.1712244788
 20
11.9940807536
 30
0.0
 10
16.169771636
 20
11.987698977
 30
0.0
 10
16.1681812712
 20
11.9815377099
 30
0.0
 10
16.1670135246
 20
11.9775240588
 30
0.0
 10
16.1664062689
 20
11.9755589786
 30
0.0
  0
SPLINE
  5
373
100
AcDbEntity
  8
LAYER_FEATURE
100
AcDbSpline
 62
7
  6
CONTINUOUS
 70
0
 71
3
 72
15
 73
11
 74
0
 42
0.0000001
 43
0.0000001
 44
0.0000000001
 40
0.0
 40
0.0
 40
0.0
 40
0.0
 40
0.1030415528
 40
0.2124413609
 40
0.3282547734
 40
0.4504493039
 40
0.5789186337
 40
0.7134889495
 40
0.8539445788
 40
1.0
 40
1.0
 40
1.0
 40
1.0
 10
16.1479859933
 20
11.9382173385
 30
0.0
 10
16.1489079781
 20
11.9393219159
 30
0.0
 10
16.1507222497
 20
11.9416724606
 30
0.0
 10
16.1532805819
 20
11.9454788085
 30
0.0
 10
16.1557485997
 20
11.9496579357
 30
0.0
 10
16.1581181191
 20
11.9541958501
 30
0.0
 10
16.1603814339
 20
11.9590776478
 30
0.0
 10
16.1625311437
 20
11.9642872472
 30
0.0
 10
16.1645599824
 20
11.9698072222
 30
0.0
 10
16.1658041366
 20
11.9736104778
 30
0.0
 10
16.1664062689
 20
11.9755589786
 30
0.0
  0
SPLINE
  5
374
100
AcDbEntity
  8
02___PRT_ALL_AXES
100
AcDbSpline
 62
7
  6
CONTINUOUS
 70
0
 71
3
 72
26
 73
22
 74
0
 42
0.0000001
 43
0.0000001
 44
0.0000000001
 40
0.0
 40
0.0
 40
0.0
 40
0.0
 40
0.0204580492
 40
0.0410653325
 40
0.0619120177
 40
0.0830850408
 40
0.1046666855
 40
0.1267339049
 40
0.1725884317
 40
0.2211654139
 40
0.2728669847
 40
0.3280058947
 40
0.3868173523
 40
0.4494707091
 40
0.5160783816
 40
0.5867068722
 40
0.6613830076
 40
0.7400978001
 40
0.8228161241
 40
0.909482414
 40
1.0
 40
1.0
 40
1.0
 40
1.0
 10
16.121049716
 20
11.8931142067
 30
0.0
 10
16.1206978186
 20
11.8931142057
 30
0.0
 10
16.1199912263
 20
11.8931383545
 30
0.0
 10
16.1189310338
 20
11.8932465545
 30
0.0
 10
16.1178681771
 20
11.8934267414
 30
0.0
 10
16.1168028738
 20
11.8936788418
 30
0.0
 10
16.1157352147
 20
11.8940027245
 30
0.0
 10
16.1142904425
 20
11.8945367578
 30
0.0
 10
16.1124737273
 20
11.8953925482
 30
0.0
 10
16.1103167379
 20
11.8966902251
 30
0.0
 10
16.1081554366
 20
11.8982689108
 30
0.0
 10
16.105990786
 20
11.9001256472
 30
0.0
 10
16.1038237465
 20
11.9022573911
 30
0.0
 10
16.1016557506
 20
11.9046607186
 30
0.0
 10
16.0994885241
 20
11.9073317486
 30
0.0
 10
16.0973241706
 20
11.9102661245
 30
0.0
 10
16.0951651091
 20
11.9134589387
 30
0.0
 10
16.0930140243
 20
11.9169047376
 30
0.0
 10
16.0908738555
 20
11.9205976399
 30
0.0
 10
16.0887479336
 20
11.9245310226
 30
0.0
 10
16.0873718181
 20
11.9272508372
 30
0.0
 10
16.086685899
 20
11.9286485933
 30
0.0
  0
SPLINE
  5
375
100
AcDbEntity
  8
LAYER_FEATURE
100
AcDbSpline
 62
7
  6
CONTINUOUS
 70
0
 71
3
 72
39
 73
35
 74
0
 42
0.0000001
 43
0.0000001
 44
0.0000000001
 40
0.0
 40
0.0
 40
0.0
 40
0.0
 40
0.0264442153
 40
0.0529256837
 40
0.0794813981
 40
0.1061478393
 40
0.1329607374
 40
0.1599548366
 40
0.1871636942
 40
0.2146195043
 40
0.2423529218
 40
0.2703929409
 40
0.2987667962
 40
0.3274998597
 40
0.3566155961
 40
0.386135538
 40
0.4160792431
 40
0.4464643108
 40
0.4773064117
 40
0.5086192844
 40
0.5404147927
 40
0.5727029857
 40
0.6054921181
 40
0.6387887258
 40
0.672597702
 40
0.7069223252
 40
0.7417643418
 40
0.7771240459
 40
0.8130003077
 40
0.8493906547
 40
0.8862913494
 40
0.9236974145
 40
0.9616027088
 40
1.0
 40
1.0
 40
1.0
 40
1.0
 10
14.0937671043
 20
12.6972400939
 30
0.0
 10
14.0917876733
 20
12.690834643
 30
0.0
 10
14.0881193331
 20
12.6779219551
 30
0.0
 10
14.0835040353
 20
12.6583000828
 30
0.0
 10
14.0797771912
 20
12.6384325411
 30
0.0
 10
14.0769414971
 20
12.6183337038
 30
0.0
 10
14.074998852
 20
12.5980174171
 30
0.0
 10
14.0739505055
 20
12.5774978541
 30
0.0
 10
14.0737970667
 20
12.5567892551
 30
0.0
 10
14.0745385732
 20
12.5359059849
 30
0.0
 10
14.0761743679
 20
12.5148625035
 30
0.0
 10
14.0787031825
 20
12.4936733556
 30
0.0
 10
14.0821231861
 20
12.472353172
 30
0.0
 10
14.086431873
 20
12.4509166456
 30
0.0
 10
14.0916261398
 20
12.4293785283
 30
0.0
 10
14.097702333
 20
12.4077536392
 30
0.0
 10
14.1046561422
 20
12.3860568295
 30
0.0
 10
14.1124826713
 20
12.3643029871
 30
0.0
 10
14.1211764829
 20
12.3425070486
 30
0.0
 10
14.1307315003
 20
12.3206839546
 30
0.0
 10
14.141141071
 20
12.2988486586
 30
0.0
 10
14.1523980095
 20
12.2770161423
 30
0.0
 10
14.1644945088
 20
12.2552013615
 30
0.0
 10
14.1774221972
 20
12.2334192593
 30
0.0
 10
14.1911721804
 20
12.2116847824
 30
0.0
 10
14.205734962
 20
12.1900128212
 30
0.0
 10
14.2211004954
 20
12.1684182246
 30
0.0
 10
14.237258225
 20
12.1469158182
 30
0.0
 10
14.2541970155
 20
12.1255203408
 30
0.0
 10
14.2719052022
 20
12.1042464568
 30
0.0
 10
14.2903706179
 20
12.0831087894
 30
0.0
 10
14.3095805851
 20
12.0621218041
 30
0.0
 10
14.3295217562
 20
12.0413000118
 30
0.0
 10
14.343207283
 20
12.0276253729
 30
0.0
 10
14.3501664464
 20
12.0208183604
 30
0.0
  0
SPLINE
  5
376
100
AcDbEntity
  8
LAYER_FEATURE
100
AcDbSpline
 62
7
  6
CONTINUOUS
 70
0
 71
3
 72
23
 73
19
 74
0
 42
0.0000001
 43
0.0000001
 44
0.0000000001
 40
0.0
 40
0.0
 40
0.0
 40
0.0
 40
0.060073508
 40
0.1202076004
 40
0.1804625543
 40
0.2408980593
 40
0.3015729041
 40
0.3625447299
 40
0.4238697545
 40
0.4856025362
 40
0.5477957864
 40
0.6105001241
 40
0.6737639938
 40
0.7376334314
 40
0.8021520443
 40
0.8673608516
 40
0.9332982531
 40
1.0
 40
1.0
 40
1.0
 40
1.0
 10
14.2704755204
 20
13.2690687379
 30
0.0
 10
14.2688011842
 20
13.2636505756
 30
0.0
 10
14.2656606583
 20
13.2527426569
 30
0.0
 10
14.2615838939
 20
13.2361977308
 30
0.0
 10
14.2581419122
 20
13.2194740573
 30
0.0
 10
14.2553365834
 20
13.2025802507
 30
0.0
 10
14.2531691872
 20
13.185524627
 30
0.0
 10
14.2516408047
 20
13.1683156714
 30
0.0
 10
14.2507521552
 20
13.1509619167
 30
0.0
 10
14.250503602
 20
13.1334719659
 30
0.0
 10
14.2508952818
 20
13.1158544818
 30
0.0
 10
14.2519268731
 20
13.0981181767
 30
0.0
 10
14.2535978946
 20
13.0802718249
 30
0.0
 10
14.2559073977
 20
13.0623242271
 30
0.0
 10
14.2588542335
 20
13.04428426
 30
0.0
 10
14.2624368914
 20
13.026160754
 30
0.0
 10
14.2666534816
 20
13.007962858
 30
0.0
 10
14.2698668759
 20
12.9958585019
 30
0.0
 10
14.2715762697
 20
12.9897982938
 30
0.0
  0
SPLINE
  5
377
100
AcDbEntity
  8
LAYER_FEATURE
100
AcDbSpline
 62
7
  6
CONTINUOUS
 70
0
 71
3
 72
38
 73
34
 74
0
 42
0.0000001
 43
0.0000001
 44
0.0000000001
 40
0.0
 40
0.0
 40
0.0
 40
0.0
 40
0.0264432445
 40
0.0529237546
 40
0.0794785375
 40
0.1061440849
 40
0.1329561369
 40
0.1599494534
 40
0.1871575995
 40
0.2146127747
 40
0.2423456503
 40
0.2703852235
 40
0.29875873
 40
0.3274915572
 40
0.3566071684
 40
0.3861270927
 40
0.4160709019
 40
0.4464561903
 40
0.5086033967
 40
0.5403994688
 40
0.5726883275
 40
0.6054782387
 40
0.6387757274
 40
0.672585673
 40
0.7069113638
 40
0.7417545338
 40
0.777115461
 40
0.8129930242
 40
0.8493847371
 40
0.8862868449
 40
0.9236943775
 40
0.9616011795
 40
1.0
 40
1.0
 40
1.0
 40
1.0
 10
16.6523841107
 20
11.9065676376
 30
0.0
 10
16.6504043002
 20
11.9001609585
 30
0.0
 10
16.6461472385
 20
11.8874275021
 30
0.0
 10
16.6388861818
 20
11.8686191955
 30
0.0
 10
16.6307526016
 20
11.8501094212
 30
0.0
 10
16.621752419
 20
11.831911565
 30
0.0
 10
16.6118919036
 20
11.8140381232
 30
0.0
 10
16.6011779767
 20
11.7965015362
 30
0.0
 10
16.5896181982
 20
11.7793139007
 30
0.0
 10
16.5772206687
 20
11.7624870867
 30
0.0
 10
16.5639940511
 20
11.7460327009
 30
0.0
 10
16.5499476261
 20
11.7299620289
 30
0.0
 10
16.5350911844
 20
11.7142861024
 30
0.0
 10
16.5194350593
 20
11.6990156844
 30
0.0
 10
16.5029901391
 20
11.6841611792
 30
0.0
 10
16.4857679097
 20
11.6697328007
 30
0.0
 10
16.4677799648
 20
11.6557402075
 30
0.0
 10
16.442605407
 20
11.6375424028
 30
0.0
 10
16.4161115755
 20
11.6204007831
 30
0.0
 10
16.3884312922
 20
11.6043162807
 30
0.0
 10
16.3668126175
 20
11.5926402982
 30
0.0
 10
16.3445109284
 20
11.5814530929
 30
0.0
 10
16.3215410988
 20
11.5707619584
 30
0.0
 10
16.2979190598
 20
11.5605742809
 30
0.0
 10
16.2736610099
 20
11.5508970163
 30
0.0
 10
16.2487836506
 20
11.5417367498
 30
0.0
 10
16.2233040782
 20
11.5330997432
 30
0.0
 10
16.1972398015
 20
11.5249919245
 30
0.0
 10
16.1706087422
 20
11.5174188075
 30
0.0
 10
16.1434292148
 20
11.5103855784
 30
0.0
 10
16.1157198506
 20
11.5038970662
 30
0.0
 10
16.0874998732
 20
11.497957713
 30
0.0
 10
16.0684799079
 20
11.4943896376
 30
0.0
 10
16.0588909048
 20
11.4926963417
 30
0.0
  0
SPLINE
  5
378
100
AcDbEntity
  8
LAYER_FEATURE
100
AcDbSpline
 62
7
  6
CONTINUOUS
 70
0
 71
3
 72
23
 73
19
 74
0
 42
0.0000001
 43
0.0000001
 44
0.0000000001
 40
0.0
 40
0.0
 40
0.0
 40
0.0
 40
0.0600730667
 40
0.1202067295
 40
0.180461279
 40
0.2408964096
 40
0.3015709324
 40
0.3625424844
 40
0.4238673089
 40
0.4855999619
 40
0.5477931667
 40
0.610497558
 40
0.6737615678
 40
0.7376312678
 40
0.8021502359
 40
0.8673595317
 40
0.9332975295
 40
1.0
 40
1.0
 40
1.0
 40
1.0
 10
16.8290925268
 20
12.4783962816
 30
0.0
 10
16.8274180226
 20
12.4729775758
 30
0.0
 10
16.8238566996
 20
12.4621985009
 30
0.0
 10
16.8178878701
 20
12.4462364803
 30
0.0
 10
16.8112939183
 20
12.4304850618
 30
0.0
 10
16.8040782471
 20
12.414952378
 30
0.0
 10
16.7962444001
 20
12.3996460634
 30
0.0
 10
16.7877963603
 20
12.3845736909
 30
0.0
 10
16.7787382792
 20
12.3697427525
 30
0.0
 10
16.7690747543
 20
12.3551605342
 30
0.0
 10
16.7588105534
 20
12.3408342707
 30
0.0
 10
16.7479508346
 20
12.3267709968
 30
0.0
 10
16.7365009983
 20
12.3129776442
 30
0.0
 10
16.7244667283
 20
12.2994610054
 30
0.0
 10
16.7118540533
 20
12.2862276969
 30
0.0
 10
16.6986691408
 20
12.273284223
 30
0.0
 10
16.6849187651
 20
12.2606370204
 30
0.0
 10
16.6754351533
 20
12.2524553736
 30
0.0
 10
16.6706040141
 20
12.2484158637
 30
0.0
  0
SPLINE
  5
379
100
AcDbEntity
  8
LAYER_CUT_FEAT
100
AcDbSpline
 62
7
  6
CONTINUOUS
 70
0
 71
3
 72
29
 73
25
 74
0
 42
0.0000001
 43
0.0000001
 44
0.0000000001
 40
0.0
 40
0.0
 40
0.0
 40
0.0
 40
0.028819489
 40
0.057655153
 40
0.0865231221
 40
0.1154394391
 40
0.1444200073
 40
0.1734805657
 40
0.2026366233
 40
0.2319034423
 40
0.2908232704
 40
0.3503614651
 40
0.4106274345
 40
0.4717235518
 40
0.533744525
 40
0.565131553
 40
0.5967815423
 40
0.6609035729
 40
0.7261848151
 40
0.7592815208
 40
0.7926902073
 40
0.8604644452
 40
0.9295556649
 40
1.0
 40
1.0
 40
1.0
 40
1.0
 10
16.369579548
 20
11.9939608573
 30
0.0
 10
16.3686068884
 20
11.9908133269
 30
0.0
 10
16.366569857
 20
11.9845442566
 30
0.0
 10
16.3632424747
 20
11.9752288042
 30
0.0
 10
16.3596437383
 20
11.9660028116
 30
0.0
 10
16.3557746651
 20
11.9568689278
 30
0.0
 10
16.3516363534
 20
11.9478296118
 30
0.0
 10
16.3472299027
 20
11.9388874058
 30
0.0
 10
16.3425565278
 20
11.9300446611
 30
0.0
 10
16.3359570626
 20
11.9183651681
 30
0.0
 10
16.3270352035
 20
11.9040167497
 30
0.0
 10
16.3153074255
 20
11.8872761362
 30
0.0
 10
16.3025467299
 20
11.8709915781
 30
0.0
 10
16.288767872
 20
11.8551814845
 30
0.0
 10
16.2764984272
 20
11.8424664693
 30
0.0
 10
16.2662001251
 20
11.8325497781
 30
0.0
 10
16.2554882092
 20
11.82272235
 30
0.0
 10
16.2414800211
 20
11.8107653142
 30
0.0
 10
16.2268080144
 20
11.7993622765
 30
0.0
 10
16.2146137798
 20
11.790514877
 30
0.0
 10
16.2019960933
 20
11.7817719638
 30
0.0
 10
16.1856444063
 20
11.7712020246
 30
0.0
 10
16.1652268479
 20
11.7591607749
 30
0.0
 10
16.1511746912
 20
11.75160396
 30
0.0
 10
16.1440121982
 20
11.7479239163
 30
0.0
  0
SPLINE
  5
37A
100
AcDbEntity
  8
02___PRT_ALL_AXES
100
AcDbSpline
 62
7
  6
CONTINUOUS
 70
0
 71
3
 72
50
 73
46
 74
0
 42
0.0000001
 43
0.0000001
 44
0.0000000001
 40
0.0
 40
0.0
 40
0.0
 40
0.0
 40
0.0135052479
 40
0.0269930003
 40
0.0404702886
 40
0.0539443337
 40
0.0674225517
 40
0.0809125114
 40
0.0944219258
 40
0.1079585929
 40
0.1215303963
 40
0.1351452303
 40
0.148810992
 40
0.1625354979
 40
0.1763264661
 40
0.1901914372
 40
0.2041377536
 40
0.2181724784
 40
0.2323023534
 40
0.2465337508
 40
0.2753189393
 40
0.3045756693
 40
0.3193941042
 40
0.3343420544
 40
0.3646317238
 40
0.3954628368
 40
0.4110846928
 40
0.4268419475
 40
0.4587528189
 40
0.4911805964
 40
0.524096033
 40
0.5574599365
 40
0.591223607
 40
0.6253294254
 40
0.6597114209
 40
0.694295984
 40
0.7290026094
 40
0.7637448254
 40
0.7984312287
 40
0.8329667586
 40
0.8672541453
 40
0.90119558
 40
0.9346947438
 40
0.9676584851
 40
1.0
 40
1.0
 40
1.0
 40
1.0
 10
15.173254419
 20
12.6824252958
 30
0.0
 10
15.1738897995
 20
12.6811305186
 30
0.0
 10
15.1751039052
 20
12.6785148034
 30
0.0
 10
15.1767518765
 20
12.6745179474
 30
0.0
 10
15.1782228827
 20
12.6704560776
 30
0.0
 10
15.1795146158
 20
12.6663347763
 30
0.0
 10
15.1806250337
 20
12.6621595581
 30
0.0
 10
15.1815522657
 20
12.6579360092
 30
0.0
 10
15.1822947209
 20
12.6536697566
 30
0.0
 10
15.1828509556
 20
12.6493664433
 30
0.0
 10
15.1832198794
 20
12.6450317476
 30
0.0
 10
15.1834005107
 20
12.6406713412
 30
0.0
 10
15.1833922915
 20
12.6362909044
 30
0.0
 10
15.1831947421
 20
12.6318960997
 30
0.0
 10
15.1828078557
 20
12.6274925601
 30
0.0
 10
15.1822316966
 20
12.6230858935
 30
0.0
 10
15.1814668102
 20
12.6186816302
 30
0.0
 10
15.1805138477
 20
12.6142852865
 30
0.0
 10
15.1793738717
 20
12.6099021837
 30
0.0
 10
15.1775997635
 20
12.6040614016
 30
0.0
 10
15.1749146878
 20
12.5968160611
 30
0.0
 10
15.1716529361
 20
12.589743084
 30
0.0
 10
15.168699091
 20
12.5841733904
 30
0.0
 10
15.1654890643
 20
12.5786194516
 30
0.0
 10
15.1610477014
 20
12.5718088758
 30
0.0
 10
15.1561082441
 20
12.5652609705
 30
0.0
 10
15.1518525555
 20
12.5601580054
 30
0.0
 10
15.1473593795
 20
12.5551073971
 30
0.0
 10
15.1413757617
 20
12.5489867553
 30
0.0
 10
15.1336817624
 20
12.5420016182
 30
0.0
 10
15.1254826553
 20
12.5353676886
 30
0.0
 10
15.1168198109
 20
12.5291059325
 30
0.0
 10
15.1077360985
 20
12.5232350423
 30
0.0
 10
15.0982760232
 20
12.5177719628
 30
0.0
 10
15.0884854997
 20
12.5127319865
 30
0.0
 10
15.0784117647
 20
12.5081289373
 30
0.0
 10
15.0681032595
 20
12.5039752885
 30
0.0
 10
15.0576095167
 20
12.5002822535
 30
0.0
 10
15.0469810126
 20
12.497059832
 30
0.0
 10
15.0362689862
 20
12.4943168235
 30
0.0
 10
15.0255251932
 20
12.4920608125
 30
0.0
 10
15.0148016487
 20
12.4902981178
 30
0.0
 10
15.00415016
 20
12.4890337724
 30
0.0
 10
14.9936224427
 20
12.488271417
 30
0.0
 10
14.9866471927
 20
12.4880975647
 30
0.0
 10
14.9831933244
 20
12.4880975647
 30
0.0
  0
SPLINE
  5
37B
100
AcDbEntity
  8
02___PRT_ALL_AXES
100
AcDbSpline
 62
7
  6
CONTINUOUS
 70
0
 71
3
 72
72
 73
68
 74
0
 42
0.0000001
 43
0.0000001
 44
0.0000000001
 40
0.0
 40
0.0
 40
0.0
 40
0.0
 40
0.010625356
 40
0.0212733554
 40
0.031966404
 40
0.04272644
 40
0.0535747195
 40
0.0645316224
 40
0.0756164846
 40
0.0868474578
 40
0.0982413997
 40
0.1098137921
 40
0.1215786868
 40
0.133548676
 40
0.139614469
 40
0.1457355831
 40
0.1581476775
 40
0.1707938916
 40
0.1836810622
 40
0.1968146741
 40
0.2101989112
 40
0.2238367119
 40
0.2377298265
 40
0.2518788758
 40
0.2662834099
 40
0.2809419659
 40
0.2958521243
 40
0.3110105636
 40
0.3264131135
 40
0.3420548058
 40
0.3579299225
 40
0.3740320428
 40
0.3903540875
 40
0.4068883618
 40
0.4236265954
 40
0.4405599824
 40
0.4576792185
 40
0.474974537
 40
0.4924357441
 40
0.5100522521
 40
0.5278131124
 40
0.5457070468
 40
0.5637224785
 40
0.5818475619
 40
0.6000702125
 40
0.6183781355
 40
0.6367588541
 40
0.6551997378
 40
0.6736880298
 40
0.6922108743
 40
0.7107553436
 40
0.7293084655
 40
0.7478572496
 40
0.7663887148
 40
0.7848899155
 40
0.8033479692
 40
0.8217500831
 40
0.8400835816
 40
0.8583359338
 40
0.8764947812
 40
0.8945479664
 40
0.9124835611
 40
0.9302898968
 40
0.9479555893
 40
0.9654695892
 40
0.982821149
 40
1.0
 40
1.0
 40
1.0
 40
1.0
 10
14.3619053967
 20
12.0780471812
 30
0.0
 10
14.3602681895
 20
12.0727491716
 30
0.0
 10
14.3572889119
 20
12.0620469244
 30
0.0
 10
14.3537247249
 20
12.0457407964
 30
0.0
 10
14.3510666226
 20
12.0291910659
 30
0.0
 10
14.3493175107
 20
12.0124159588
 30
0.0
 10
14.3484790256
 20
11.9954330629
 30
0.0
 10
14.3485518778
 20
11.9782603698
 30
0.0
 10
14.3495357721
 20
11.9609159598
 30
0.0
 10
14.3514294484
 20
11.9434180521
 30
0.0
 10
14.3542306825
 20
11.9257849861
 30
0.0
 10
14.357936329
 20
11.9080351306
 30
0.0
 10
14.3625422303
 20
11.890187176
 30
0.0
 10
14.3671062667
 20
11.8753136467
 30
0.0
 10
14.3711953457
 20
11.8633872376
 30
0.0
 10
14.3756183893
 20
11.8513344776
 30
0.0
 10
14.3817073005
 20
11.8362391181
 30
0.0
 10
14.3898552363
 20
11.8181842755
 30
0.0
 10
14.3988694646
 20
11.8001242359
 30
0.0
 10
14.40874042
 20
11.7820779232
 30
0.0
 10
14.4194577715
 20
11.7640639648
 30
0.0
 10
14.4310102963
 20
11.7461010338
 30
0.0
 10
14.4433859262
 20
11.7282077332
 30
0.0
 10
14.456571747
 20
11.7104026053
 30
0.0
 10
14.4705540125
 20
11.6927041051
 30
0.0
 10
14.4853181565
 20
11.6751305846
 30
0.0
 10
14.500848805
 20
11.6577002723
 30
0.0
 10
14.5171297915
 20
11.6404312543
 30
0.0
 10
14.5341441723
 20
11.6233414559
 30
0.0
 10
14.5518742435
 20
11.6064486219
 30
0.0
 10
14.5703015581
 20
11.589770298
 30
0.0
 10
14.5894069446
 20
11.5733238119
 30
0.0
 10
14.6091705263
 20
11.5571262548
 30
0.0
 10
14.6295717415
 20
11.5411944632
 30
0.0
 10
14.6505893645
 20
11.5255450008
 30
0.0
 10
14.6722015269
 20
11.5101941402
 30
0.0
 10
14.694385741
 20
11.4951578466
 30
0.0
 10
14.7171189228
 20
11.4804517603
 30
0.0
 10
14.740377416
 20
11.4660911799
 30
0.0
 10
14.7641370165
 20
11.4520910466
 30
0.0
 10
14.7883729978
 20
11.438465928
 30
0.0
 10
14.8130601366
 20
11.4252300028
 30
0.0
 10
14.8381727388
 20
11.4123970457
 30
0.0
 10
14.8636846663
 20
11.3999804127
 30
0.0
 10
14.8895693646
 20
11.387993027
 30
0.0
 10
14.9157998904
 20
11.3764473658
 30
0.0
 10
14.9423489399
 20
11.365355447
 30
0.0
 10
14.9691888769
 20
11.3547288167
 30
0.0
 10
14.9962917622
 20
11.3445785367
 30
0.0
 10
15.0236293825
 20
11.3349151736
 30
0.0
 10
15.0511732797
 20
11.3257487869
 30
0.0
 10
15.0788947806
 20
11.317088919
 30
0.0
 10
15.1067650273
 20
11.3089445843
 30
0.0
 10
15.1347550067
 20
11.301324261
 30
0.0
 10
15.1628355817
 20
11.2942358816
 30
0.0
 10
15.1909775209
 20
11.2876868251
 30
0.0
 10
15.2191515295
 20
11.2816839087
 30
0.0
 10
15.2473282797
 20
11.2762333814
 30
0.0
 10
15.2754784418
 20
11.2713409172
 30
0.0
 10
15.3035727141
 20
11.267011609
 30
0.0
 10
15.3315818545
 20
11.2632499631
 30
0.0
 10
15.3594767099
 20
11.2600598951
 30
0.0
 10
15.3872282499
 20
11.2574447267
 30
0.0
 10
15.4148075849
 20
11.2554071789
 30
0.0
 10
15.4421860464
 20
11.2539493786
 30
0.0
 10
15.4693349911
 20
11.2530728384
 30
0.0
 10
15.4873564572
 20
11.2528755758
 30
0.0
 10
15.4963218353
 20
11.2528755758
 30
0.0
  0
SPLINE
  5
37C
100
AcDbEntity
  8
02___PRT_ALL_AXES
100
AcDbSpline
 62
7
  6
CONTINUOUS
 70
0
 71
3
 72
45
 73
41
 74
0
 42
0.0000001
 43
0.0000001
 44
0.0000000001
 40
0.0
 40
0.0
 40
0.0
 40
0.0
 40
0.0123993107
 40
0.0248058017
 40
0.037226633
 40
0.0496689231
 40
0.0621397304
 40
0.0746460318
 40
0.0871947065
 40
0.0997925154
 40
0.1124460857
 40
0.1251618961
 40
0.1508028931
 40
0.1767663133
 40
0.2030972655
 40
0.2298373747
 40
0.257024581
 40
0.2846930165
 40
0.3128729479
 40
0.3271639976
 40
0.3415924975
 40
0.3708708103
 40
0.4007284597
 40
0.43118068
 40
0.4622392216
 40
0.4939124996
 40
0.5262057502
 40
0.5591211916
 40
0.5926581845
 40
0.6268133913
 40
0.661580932
 40
0.6969525363
 40
0.7329176886
 40
0.7694637678
 40
0.8065761804
 40
0.8442384885
 40
0.8824325245
 40
0.9211385478
 40
0.9603352027
 40
1.0
 40
1.0
 40
1.0
 40
1.0
 10
16.081662914
 20
11.5466019133
 30
0.0
 10
16.0808103695
 20
11.5438430758
 30
0.0
 10
16.0790236245
 20
11.5383485085
 30
0.0
 10
16.0761014769
 20
11.5301852038
 30
0.0
 10
16.0729377566
 20
11.5221016217
 30
0.0
 10
16.0695334047
 20
11.5141001467
 30
0.0
 10
16.0658893692
 20
11.5061830303
 30
0.0
 10
16.0620067052
 20
11.4983525207
 30
0.0
 10
16.057886506
 20
11.4906108365
 30
0.0
 10
16.0535299638
 20
11.482960188
 30
0.0
 10
16.0489382703
 20
11.4754026771
 30
0.0
 10
16.0424869343
 20
11.4654262264
 30
0.0
 10
16.0338301105
 20
11.453192012
 30
0.0
 10
16.0225528315
 20
11.4389603637
 30
0.0
 10
16.0103701665
 20
11.4251524516
 30
0.0
 10
15.997296399
 20
11.4117841386
 30
0.0
 10
15.9833464739
 20
11.398870276
 30
0.0
 10
15.9685365767
 20
11.3864254508
 30
0.0
 10
15.9555534013
 20
11.3765037915
 30
0.0
 10
15.9447621246
 20
11.3688125169
 30
0.0
 10
15.9335935554
 20
11.3612153597
 30
0.0
 10
15.9191193319
 20
11.352040176
 30
0.0
 10
15.9010471507
 20
11.3416042842
 30
0.0
 10
15.8822081885
 20
11.3317009843
 30
0.0
 10
15.8626239567
 20
11.3223414468
 30
0.0
 10
15.8423165132
 20
11.3135360595
 30
0.0
 10
15.8213087939
 20
11.3052946509
 30
0.0
 10
15.7996244935
 20
11.2976264144
 30
0.0
 10
15.7772880696
 20
11.2905399153
 30
0.0
 10
15.7543247106
 20
11.2840430729
 30
0.0
 10
15.7307603112
 20
11.2781431541
 30
0.0
 10
15.7066214435
 20
11.272846763
 30
0.0
 10
15.6819353291
 20
11.2681598324
 30
0.0
 10
15.6567298083
 20
11.2640876158
 30
0.0
 10
15.6310333115
 20
11.26063468
 30
0.0
 10
15.6048748236
 20
11.2578048981
 30
0.0
 10
15.5782838641
 20
11.2556014425
 30
0.0
 10
15.5512904039
 20
11.2540267903
 30
0.0
 10
15.5239250647
 20
11.253082698
 30
0.0
 10
15.5055590082
 20
11.2528755758
 30
0.0
 10
15.4963218353
 20
11.2528755758
 30
0.0
  0
SPLINE
  5
37D
100
AcDbEntity
  8
LAYER_CHAMFER_FEAT
100
AcDbSpline
 62
7
  6
CONTINUOUS
 70
0
 71
3
 72
15
 73
11
 74
0
 42
0.0000001
 43
0.0000001
 44
0.0000000001
 40
0.0
 40
0.0
 40
0.0
 40
0.0
 40
0.1317629009
 40
0.2617726516
 40
0.3899189827
 40
0.5161208785
 40
0.640298916
 40
0.7623789527
 40
0.8822974713
 40
1.0
 40
1.0
 40
1.0
 40
1.0
 10
15.1340846187
 20
11.9910374131
 30
0.0
 10
15.1307651356
 20
11.9910374131
 30
0.0
 10
15.1241700006
 20
11.9909537232
 30
0.0
 10
15.1143531539
 20
11.9905717891
 30
0.0
 10
15.1046898398
 20
11.9899346917
 30
0.0
 10
15.0951941635
 20
11.9890433778
 30
0.0
 10
15.0858795306
 20
11.9878991556
 30
0.0
 10
15.0767592384
 20
11.9865035757
 30
0.0
 10
15.0678464695
 20
11.9848586754
 30
0.0
 10
15.0619958361
 20
11.9835853231
 30
0.0
 10
15.0591093244
 20
11.9829064784
 30
0.0
  0
SPLINE
  5
37E
100
AcDbEntity
  8
LAYER_CHAMFER_FEAT
100
AcDbSpline
 62
7
  6
CONTINUOUS
 70
0
 71
3
 72
35
 73
31
 74
0
 42
0.0000001
 43
0.0000001
 44
0.0000000001
 40
0.0
 40
0.0
 40
0.0
 40
0.0
 40
0.0305401743
 40
0.061460357
 40
0.0927281451
 40
0.1243148108
 40
0.1561886587
 40
0.188316915
 40
0.2206662847
 40
0.2532025738
 40
0.3186917197
 40
0.3845052326
 40
0.4503551413
 40
0.5159530044
 40
0.5485703403
 40
0.581018233
 40
0.6132621699
 40
0.6452683411
 40
0.6770037478
 40
0.7084363054
 40
0.7395350257
 40
0.7702701247
 40
0.8006131341
 40
0.8305371124
 40
0.8600167605
 40
0.8890285481
 40
0.9175509589
 40
0.9455646231
 40
0.9730524677
 40
1.0
 40
1.0
 40
1.0
 40
1.0
 10
15.1340846187
 20
11.9910374131
 30
0.0
 10
15.1376734265
 20
11.9910374131
 30
0.0
 10
15.1448960517
 20
11.990938334
 30
0.0
 10
15.1557849822
 20
11.9904996239
 30
0.0
 10
15.1667816177
 20
11.9897704704
 30
0.0
 10
15.1778677323
 20
11.9887521184
 30
0.0
 10
15.1890254546
 20
11.9874462304
 30
0.0
 10
15.2002365464
 20
11.9858549264
 30
0.0
 10
15.2114828031
 20
11.9839807792
 30
0.0
 10
15.2265317554
 20
11.9811028344
 30
0.0
 10
15.2453095055
 20
11.9768173789
 30
0.0
 10
15.2676405978
 20
11.9706177261
 30
0.0
 10
15.2896738433
 20
11.9633899098
 30
0.0
 10
15.3077020128
 20
11.9565359415
 30
0.0
 10
15.3218539958
 20
11.9505765947
 30
0.0
 10
15.3322855619
 20
11.945889883
 30
0.0
 10
15.3425369713
 20
11.9409854944
 30
0.0
 10
15.3525915973
 20
11.9358714041
 30
0.0
 10
15.3624330417
 20
11.9305559601
 30
0.0
 10
15.3720452599
 20
11.9250477928
 30
0.0
 10
15.3814126013
 20
11.9193558948
 30
0.0
 10
15.3905198111
 20
11.9134895418
 30
0.0
 10
15.3993520374
 20
11.9074582595
 30
0.0
 10
15.4078949069
 20
11.901271884
 30
0.0
 10
15.4161345125
 20
11.8949404902
 30
0.0
 10
15.4240574184
 20
11.8884743495
 30
0.0
 10
15.4316507282
 20
11.8818840029
 30
0.0
 10
15.4389021165
 20
11.8751801376
 30
0.0
 10
15.4457996395
 20
11.868373736
 30
0.0
 10
15.450199172
 20
11.8637280928
 30
0.0
 10
15.4523352965
 20
11.8613904585
 30
0.0
  0
SPLINE
  5
37F
100
AcDbEntity
  8
LAYER_FEATURE
100
AcDbSpline
 62
7
  6
CONTINUOUS
 70
0
 71
3
 72
80
 73
76
 74
0
 42
0.0000001
 43
0.0000001
 44
0.0000000001
 40
0.0
 40
0.0
 40
0.0
 40
0.0
 40
0.017178625
 40
0.0345301896
 40
0.0520439856
 40
0.0697095611
 40
0.0875157513
 40
0.105451206
 40
0.1235042502
 40
0.1416629551
 40
0.159915164
 40
0.1782485184
 40
0.1966504877
 40
0.2151083967
 40
0.2336094524
 40
0.2521407721
 40
0.2706894106
 40
0.2892423869
 40
0.3077867108
 40
0.3263094099
 40
0.3447975567
 40
0.3632382956
 40
0.3816188701
 40
0.3999266497
 40
0.4181491573
 40
0.4362740982
 40
0.4542893881
 40
0.4721831821
 40
0.4899439035
 40
0.5075602738
 40
0.5250213437
 40
0.5423165259
 40
0.5594356272
 40
0.5763688815
 40
0.5931069843
 40
0.6096411291
 40
0.6259630453
 40
0.6420650388
 40
0.6579400309
 40
0.673581601
 40
0.6889840307
 40
0.7041423508
 40
0.7190523912
 40
0.7337108317
 40
0.7481152531
 40
0.7622641923
 40
0.7761571984
 40
0.7897948916
 40
0.8031790229
 40
0.8163125314
 40
0.8291996012
 40
0.8418457167
 40
0.8542577138
 40
0.8603787793
 40
0.8664445248
 40
0.8784144197
 40
0.8901792221
 40
0.8959889949
 40
0.9017523402
 40
0.9131461931
 40
0.9243770779
 40
0.9299370835
 40
0.935462781
 40
0.9409564793
 40
0.9464205592
 40
0.9518574755
 40
0.9572697442
 40
0.9626599452
 40
0.9680307112
 40
0.9733847242
 40
0.9787247102
 40
0.9840534294
 40
0.9893736733
 40
0.9946882542
 40
1.0
 40
1.0
 40
1.0
 40
1.0
 10
15.16069827
 20
13.76873441
 30
0.0
 10
15.1740366897
 20
13.76873441
 30
0.0
 10
15.2008486648
 20
13.7684409154
 30
0.0
 10
15.2412402491
 20
13.7671368409
 30
0.0
 10
15.281973389
 20
13.7649679331
 30
0.0
 10
15.3230052725
 20
13.7619365314
 30
0.0
 10
15.3642934096
 20
13.7580457389
 30
0.0
 10
15.4057947523
 20
13.7532996287
 30
0.0
 10
15.4474661295
 20
13.7477031315
 30
0.0
 10
15.4892641636
 20
13.7412620802
 30
0.0
 10
15.5311453488
 20
13.7339831811
 30
0.0
 10
15.5730660918
 20
13.7258740107
 30
0.0
 10
15.614982756
 20
13.7169430086
 30
0.0
 10
15.6568517076
 20
13.7071994667
 30
0.0
 10
15.6986293623
 20
13.6966535304
 30
0.0
 10
15.7402722313
 20
13.6853161812
 30
0.0
 10
15.7817369649
 20
13.6731992217
 30
0.0
 10
15.8229803986
 20
13.6603152649
 30
0.0
 10
15.8639595972
 20
13.6466777202
 30
0.0
 10
15.9046319003
 20
13.6323007811
 30
0.0
 10
15.9449549699
 20
13.6171994183
 30
0.0
 10
15.9848868316
 20
13.6013893539
 30
0.0
 10
16.0243859182
 20
13.5848870455
 30
0.0
 10
16.063411113
 20
13.56770967
 30
0.0
 10
16.1019217916
 20
13.5498751034
 30
0.0
 10
16.1398778682
 20
13.5314019096
 30
0.0
 10
16.1772398381
 20
13.5123093195
 30
0.0
 10
16.213968815
 20
13.4926172049
 30
0.0
 10
16.2500265717
 20
13.4723460588
 30
0.0
 10
16.2853755795
 20
13.4515169741
 30
0.0
 10
16.3199790476
 20
13.4301516202
 30
0.0
 10
16.3538009677
 20
13.4082722296
 30
0.0
 10
16.3868061471
 20
13.3859015653
 30
0.0
 10
16.4189602428
 20
13.3630628969
 30
0.0
 10
16.4502297974
 20
13.3397799764
 30
0.0
 10
16.4805822731
 20
13.3160770118
 30
0.0
 10
16.5099860885
 20
13.2919786444
 30
0.0
 10
16.538410656
 20
13.2675099268
 30
0.0
 10
16.5658264053
 20
13.2426962874
 30
0.0
 10
16.5922048138
 20
13.2175635058
 30
0.0
 10
16.6175184343
 20
13.1921376853
 30
0.0
 10
16.6417409226
 20
13.1664452233
 30
0.0
 10
16.664847072
 20
13.1405127899
 30
0.0
 10
16.686812835
 20
13.114367296
 30
0.0
 10
16.7076153406
 20
13.0880358615
 30
0.0
 10
16.7272329161
 20
13.0615457893
 30
0.0
 10
16.7456451065
 20
13.0349245357
 30
0.0
 10
16.7628326933
 20
13.0081996848
 30
0.0
 10
16.7787777266
 20
12.9813989168
 30
0.0
 10
16.7934635128
 20
12.9545500139
 30
0.0
 10
16.8068746835
 20
12.9276806886
 30
0.0
 10
16.8189970042
 20
12.9008190967
 30
0.0
 10
16.8280559554
 20
12.878360554
 30
0.0
 10
16.834636452
 20
12.8604287303
 30
0.0
 10
16.8407201023
 20
12.8426848567
 30
0.0
 10
16.8475103248
 20
12.820556568
 30
0.0
 10
16.8532446145
 20
12.7983359356
 30
0.0
 10
16.857152654
 20
12.7806399897
 30
0.0
 10
16.8605839358
 20
12.7631389332
 30
0.0
 10
16.8640437536
 20
12.7413607174
 30
0.0
 10
16.8663993624
 20
12.7195936461
 30
0.0
 10
16.8675998065
 20
12.7023058374
 30
0.0
 10
16.8681589185
 20
12.6894433214
 30
0.0
 10
16.8683795883
 20
12.6766450896
 30
0.0
 10
16.8682617097
 20
12.6639143926
 30
0.0
 10
16.8678053713
 20
12.6512545806
 30
0.0
 10
16.8670106148
 20
12.6386689562
 30
0.0
 10
16.865877686
 20
12.6261608105
 30
0.0
 10
16.864406864
 20
12.6137334125
 30
0.0
 10
16.8625984958
 20
12.6013900187
 30
0.0
 10
16.860453109
 20
12.5891338466
 30
0.0
 10
16.8579711884
 20
12.576968125
 30
0.0
 10
16.8551534331
 20
12.564895993
 30
0.0
 10
16.8520005828
 20
12.5529207397
 30
0.0
 10
16.8496755281
 20
12.5450029044
 30
0.0
 10
16.8484578326
 20
12.5410624344
 30
0.0
  0
SPLINE
  5
380
100
AcDbEntity
  8
LAYER_FEATURE
100
AcDbSpline
 62
7
  6
CONTINUOUS
 70
0
 71
3
 72
50
 73
46
 74
0
 42
0.0000001
 43
0.0000001
 44
0.0000000001
 40
0.0
 40
0.0
 40
0.0
 40
0.0
 40
0.0396641793
 40
0.0788606661
 40
0.1175661307
 40
0.1557597858
 40
0.1934216622
 40
0.2305336657
 40
0.2670793388
 40
0.3030440904
 40
0.3384152998
 40
0.3731824522
 40
0.4073372782
 40
0.4408738985
 40
0.4737889752
 40
0.5060818677
 40
0.5377547925
 40
0.5688129867
 40
0.5992648666
 40
0.6291221833
 40
0.6584001714
 40
0.6728285106
 40
0.6871194029
 40
0.7152990215
 40
0.7429671481
 40
0.7566197094
 40
0.7701560775
 40
0.7835806402
 40
0.7968980187
 40
0.8101130807
 40
0.8232309096
 40
0.8362568292
 40
0.8491963692
 40
0.8620552768
 40
0.874839498
 40
0.8875551653
 40
0.9002085963
 40
0.9128062638
 40
0.9253547993
 40
0.9378609614
 40
0.9503316297
 40
0.9627737816
 40
0.9751944743
 40
0.9876008274
 40
1.0
 40
1.0
 40
1.0
 40
1.0
 10
14.9839898539
 20
13.196905766
 30
0.0
 10
14.9702470546
 20
13.196905766
 30
0.0
 10
14.9429224124
 20
13.196597604
 30
0.0
 10
14.9022088806
 20
13.195193026
 30
0.0
 10
14.8620485477
 20
13.1928502689
 30
0.0
 10
14.8224871414
 20
13.1895720306
 30
0.0
 10
14.7835691126
 20
13.1853619382
 30
0.0
 10
14.745338438
 20
13.1802247415
 30
0.0
 10
14.7078382226
 20
13.1741661896
 30
0.0
 10
14.6711107705
 20
13.1671930775
 30
0.0
 10
14.6351975011
 20
13.1593132224
 30
0.0
 10
14.6001389129
 20
13.1505354525
 30
0.0
 10
14.5659745385
 20
13.1408695941
 30
0.0
 10
14.5327429024
 20
13.1303264593
 30
0.0
 10
14.5004814797
 20
13.1189178306
 30
0.0
 10
14.4692266599
 20
13.1066564483
 30
0.0
 10
14.4390136978
 20
13.0935559872
 30
0.0
 10
14.4098767158
 20
13.0796310727
 30
0.0
 10
14.3818485286
 20
13.064897161
 30
0.0
 10
14.3549611413
 20
13.0493708727
 30
0.0
 10
14.3334267066
 20
13.0357202401
 30
0.0
 10
14.316810365
 20
13.0244173614
 30
0.0
 10
14.3007553119
 20
13.0129744365
 30
0.0
 10
14.2814394242
 20
12.9982133902
 30
0.0
 10
14.2629963739
 20
12.9827155474
 30
0.0
 10
14.2488954237
 20
12.9699686909
 30
0.0
 10
14.2386891261
 20
12.9602792002
 30
0.0
 10
14.2288088612
 20
12.9504212604
 30
0.0
 10
14.2192573981
 20
12.9403975648
 30
0.0
 10
14.2100374187
 20
12.9302110016
 30
0.0
 10
14.2011515939
 20
12.9198643874
 30
0.0
 10
14.1926023972
 20
12.9093606926
 30
0.0
 10
14.1843922983
 20
12.8987028483
 30
0.0
 10
14.1765236175
 20
12.8878938807
 30
0.0
 10
14.1689985831
 20
12.8769368519
 30
0.0
 10
14.1618193769
 20
12.8658348351
 30
0.0
 10
14.1549879852
 20
12.8545910107
 30
0.0
 10
14.1485064238
 20
12.8432085193
 30
0.0
 10
14.1423764759
 20
12.831690624
 30
0.0
 10
14.136599935
 20
12.8200405636
 30
0.0
 10
14.1311784293
 20
12.8082616503
 30
0.0
 10
14.1261134925
 20
12.7963572409
 30
0.0
 10
14.1214066016
 20
12.7843306586
 30
0.0
 10
14.1170590728
 20
12.7721854835
 30
0.0
 10
14.1144008062
 20
12.764010784
 30
0.0
 10
14.1131324102
 20
12.7599062467
 30
0.0
  0
SPLINE
  5
381
100
AcDbEntity
  8
LAYER_FEATURE
100
AcDbSpline
 62
7
  6
CONTINUOUS
 70
0
 71
3
 72
50
 73
46
 74
0
 42
0.0000001
 43
0.0000001
 44
0.0000000001
 40
0.0
 40
0.0
 40
0.0
 40
0.0
 40
0.0396641793
 40
0.0788606661
 40
0.1175661307
 40
0.1557597858
 40
0.1934216622
 40
0.2305336657
 40
0.2670793388
 40
0.3030440904
 40
0.3384152998
 40
0.3731824522
 40
0.4073372782
 40
0.4408738985
 40
0.4737889752
 40
0.5060818677
 40
0.5377547925
 40
0.5688129867
 40
0.5992648666
 40
0.6291221833
 40
0.6584001714
 40
0.6728285106
 40
0.6871194029
 40
0.7152990215
 40
0.7429671481
 40
0.7566197094
 40
0.7701560775
 40
0.7835806402
 40
0.7968980187
 40
0.8101130807
 40
0.8232309096
 40
0.8362568292
 40
0.8491963692
 40
0.8620552768
 40
0.874839498
 40
0.8875551653
 40
0.9002085963
 40
0.9128062638
 40
0.9253547993
 40
0.9378609614
 40
0.9503316297
 40
0.9627737816
 40
0.9751944743
 40
0.9876008274
 40
1.0
 40
1.0
 40
1.0
 40
1.0
 10
15.16069827
 20
13.76873441
 30
0.0
 10
15.1469554707
 20
13.76873441
 30
0.0
 10
15.1196308285
 20
13.768426248
 30
0.0
 10
15.0789172967
 20
13.7670216701
 30
0.0
 10
15.0387569638
 20
13.764678913
 30
0.0
 10
14.9991955575
 20
13.7614006746
 30
0.0
 10
14.9602775287
 20
13.7571905823
 30
0.0
 10
14.9220468541
 20
13.7520533855
 30
0.0
 10
14.8845466386
 20
13.7459948336
 30
0.0
 10
14.8478191866
 20
13.7390217216
 30
0.0
 10
14.8119059172
 20
13.7311418665
 30
0.0
 10
14.776847329
 20
13.7223640965
 30
0.0
 10
14.7426829546
 20
13.7126982382
 30
0.0
 10
14.7094513185
 20
13.7021551033
 30
0.0
 10
14.6771898958
 20
13.6907464746
 30
0.0
 10
14.645935076
 20
13.6784850923
 30
0.0
 10
14.6157221139
 20
13.6653846312
 30
0.0
 10
14.5865851319
 20
13.6514597167
 30
0.0
 10
14.5585569447
 20
13.636725805
 30
0.0
 10
14.5316695574
 20
13.6211995167
 30
0.0
 10
14.5101351227
 20
13.6075488841
 30
0.0
 10
14.4935187811
 20
13.5962460054
 30
0.0
 10
14.477463728
 20
13.5848030806
 30
0.0
 10
14.4581478403
 20
13.5700420343
 30
0.0
 10
14.43970479
 20
13.5545441915
 30
0.0
 10
14.4256038398
 20
13.5417973349
 30
0.0
 10
14.4153975422
 20
13.5321078442
 30
0.0
 10
14.4055172773
 20
13.5222499045
 30
0.0
 10
14.3959658142
 20
13.5122262088
 30
0.0
 10
14.3867458347
 20
13.5020396456
 30
0.0
 10
14.3778600099
 20
13.4916930314
 30
0.0
 10
14.3693108132
 20
13.4811893366
 30
0.0
 10
14.3611007144
 20
13.4705314924
 30
0.0
 10
14.3532320336
 20
13.4597225247
 30
0.0
 10
14.3457069992
 20
13.4487654959
 30
0.0
 10
14.338527793
 20
13.4376634791
 30
0.0
 10
14.3316964013
 20
13.4264196547
 30
0.0
 10
14.3252148399
 20
13.4150371633
 30
0.0
 10
14.319084892
 20
13.403519268
 30
0.0
 10
14.3133083511
 20
13.3918692076
 30
0.0
 10
14.3078868454
 20
13.3800902943
 30
0.0
 10
14.3028219086
 20
13.3681858849
 30
0.0
 10
14.2981150177
 20
13.3561593026
 30
0.0
 10
14.2937674889
 20
13.3440141276
 30
0.0
 10
14.2911092223
 20
13.335839428
 30
0.0
 10
14.2898408263
 20
13.3317348907
 30
0.0
  0
SPLINE
  5
382
100
AcDbEntity
  8
LAYER_FEATURE
100
AcDbSpline
 62
7
  6
CONTINUOUS
 70
0
 71
3
 72
80
 73
76
 74
0
 42
0.0000001
 43
0.0000001
 44
0.0000000001
 40
0.0
 40
0.0
 40
0.0
 40
0.0
 40
0.017178625
 40
0.0345301896
 40
0.0520439856
 40
0.0697095611
 40
0.0875157513
 40
0.105451206
 40
0.1235042502
 40
0.1416629551
 40
0.159915164
 40
0.1782485184
 40
0.1966504877
 40
0.2151083967
 40
0.2336094524
 40
0.2521407721
 40
0.2706894106
 40
0.2892423869
 40
0.3077867108
 40
0.3263094099
 40
0.3447975567
 40
0.3632382956
 40
0.3816188701
 40
0.3999266497
 40
0.4181491573
 40
0.4362740982
 40
0.4542893881
 40
0.4721831821
 40
0.4899439035
 40
0.5075602738
 40
0.5250213437
 40
0.5423165259
 40
0.5594356272
 40
0.5763688815
 40
0.5931069843
 40
0.6096411291
 40
0.6259630453
 40
0.6420650388
 40
0.6579400309
 40
0.673581601
 40
0.6889840307
 40
0.7041423508
 40
0.7190523912
 40
0.7337108317
 40
0.7481152531
 40
0.7622641923
 40
0.7761571984
 40
0.7897948916
 40
0.8031790229
 40
0.8163125314
 40
0.8291996012
 40
0.8418457167
 40
0.8542577138
 40
0.8603787793
 40
0.8664445248
 40
0.8784144197
 40
0.8901792221
 40
0.8959889949
 40
0.9017523402
 40
0.9131461931
 40
0.9243770779
 40
0.9299370835
 40
0.935462781
 40
0.9409564793
 40
0.9464205592
 40
0.9518574755
 40
0.9572697442
 40
0.9626599452
 40
0.9680307112
 40
0.9733847242
 40
0.9787247102
 40
0.9840534294
 40
0.9893736733
 40
0.9946882542
 40
1.0
 40
1.0
 40
1.0
 40
1.0
 10
14.9839898539
 20
13.196905766
 30
0.0
 10
14.9973282736
 20
13.196905766
 30
0.0
 10
15.0241402487
 20
13.1966122714
 30
0.0
 10
15.0645318331
 20
13.1953081969
 30
0.0
 10
15.1052649729
 20
13.193139289
 30
0.0
 10
15.1462968564
 20
13.1901078874
 30
0.0
 10
15.1875849935
 20
13.1862170949
 30
0.0
 10
15.2290863362
 20
13.1814709846
 30
0.0
 10
15.2707577134
 20
13.1758744874
 30
0.0
 10
15.3125557475
 20
13.1694334361
 30
0.0
 10
15.3544369327
 20
13.1621545371
 30
0.0
 10
15.3963576757
 20
13.1540453667
 30
0.0
 10
15.4382743399
 20
13.1451143645
 30
0.0
 10
15.4801432915
 20
13.1353708226
 30
0.0
 10
15.5219209463
 20
13.1248248864
 30
0.0
 10
15.5635638152
 20
13.1134875371
 30
0.0
 10
15.6050285488
 20
13.1013705777
 30
0.0
 10
15.6462719825
 20
13.0884866209
 30
0.0
 10
15.6872511811
 20
13.0748490762
 30
0.0
 10
15.7279234842
 20
13.060472137
 30
0.0
 10
15.7682465538
 20
13.0453707743
 30
0.0
 10
15.8081784155
 20
13.0295607098
 30
0.0
 10
15.8476775022
 20
13.0130584015
 30
0.0
 10
15.886702697
 20
12.995881026
 30
0.0
 10
15.9252133755
 20
12.9780464594
 30
0.0
 10
15.9631694522
 20
12.9595732655
 30
0.0
 10
16.000531422
 20
12.9404806755
 30
0.0
 10
16.0372603989
 20
12.9207885609
 30
0.0
 10
16.0733181556
 20
12.9005174148
 30
0.0
 10
16.1086671634
 20
12.8796883301
 30
0.0
 10
16.1432706315
 20
12.8583229762
 30
0.0
 10
16.1770925516
 20
12.8364435855
 30
0.0
 10
16.210097731
 20
12.8140729212
 30
0.0
 10
16.2422518267
 20
12.7912342528
 30
0.0
 10
16.2735213813
 20
12.7679513323
 30
0.0
 10
16.303873857
 20
12.7442483677
 30
0.0
 10
16.3332776724
 20
12.7201500004
 30
0.0
 10
16.3617022399
 20
12.6956812828
 30
0.0
 10
16.3891179892
 20
12.6708676434
 30
0.0
 10
16.4154963977
 20
12.6457348617
 30
0.0
 10
16.4408100182
 20
12.6203090413
 30
0.0
 10
16.4650325065
 20
12.5946165792
 30
0.0
 10
16.4881386559
 20
12.5686841459
 30
0.0
 10
16.5101044189
 20
12.542538652
 30
0.0
 10
16.5309069245
 20
12.5162072175
 30
0.0
 10
16.5505245
 20
12.4897171453
 30
0.0
 10
16.5689366904
 20
12.4630958917
 30
0.0
 10
16.5861242772
 20
12.4363710408
 30
0.0
 10
16.6020693105
 20
12.4095702728
 30
0.0
 10
16.6167550967
 20
12.3827213698
 30
0.0
 10
16.6301662674
 20
12.3558520446
 30
0.0
 10
16.6422885881
 20
12.3289904527
 30
0.0
 10
16.6513475393
 20
12.3065319099
 30
0.0
 10
16.6579280359
 20
12.2886000862
 30
0.0
 10
16.6640116862
 20
12.2708562126
 30
0.0
 10
16.6708019087
 20
12.248727924
 30
0.0
 10
16.6765361985
 20
12.2265072916
 30
0.0
 10
16.6804442379
 20
12.2088113456
 30
0.0
 10
16.6838755197
 20
12.1913102891
 30
0.0
 10
16.6873353375
 20
12.1695320734
 30
0.0
 10
16.6896909463
 20
12.1477650021
 30
0.0
 10
16.6908913904
 20
12.1304771934
 30
0.0
 10
16.6914505024
 20
12.1176146773
 30
0.0
 10
16.6916711722
 20
12.1048164455
 30
0.0
 10
16.6915532936
 20
12.0920857486
 30
0.0
 10
16.6910969553
 20
12.0794259365
 30
0.0
 10
16.6903021987
 20
12.0668403122
 30
0.0
 10
16.6891692699
 20
12.0543321664
 30
0.0
 10
16.6876984479
 20
12.0419047685
 30
0.0
 10
16.6858900797
 20
12.0295613747
 30
0.0
 10
16.6837446929
 20
12.0173052026
 30
0.0
 10
16.6812627723
 20
12.005139481
 30
0.0
 10
16.6784450171
 20
11.993067349
 30
0.0
 10
16.6752921667
 20
11.9810920957
 30
0.0
 10
16.672967112
 20
11.9731742604
 30
0.0
 10
16.6717494166
 20
11.9692337903
 30
0.0
  0
SPLINE
  5
383
100
AcDbEntity
  8
LAYER_FEATURE
100
AcDbSpline
 62
7
  6
CONTINUOUS
 70
0
 71
3
 72
81
 73
77
 74
0
 42
0.0000001
 43
0.0000001
 44
0.0000000001
 40
0.0
 40
0.0
 40
0.0
 40
0.0
 40
0.00535409
 40
0.0107128691
 40
0.0160810068
 40
0.021463131
 40
0.0268638117
 40
0.032287538
 40
0.0377387059
 40
0.0432215955
 40
0.0487403633
 40
0.0542990199
 40
0.0599014283
 40
0.0655512816
 40
0.0712521075
 40
0.0770072469
 40
0.0828198628
 40
0.0886929208
 40
0.1006300276
 40
0.1128397956
 40
0.1190528522
 40
0.125340106
 40
0.1381425012
 40
0.1446613589
 40
0.1512598124
 40
0.1646981005
 40
0.178463593
 40
0.1925590422
 40
0.2069848334
 40
0.2217391432
 40
0.2368180944
 40
0.2522159049
 40
0.2679250304
 40
0.283936299
 40
0.3002390394
 40
0.3168212013
 40
0.3336694697
 40
0.350769373
 40
0.3681053853
 40
0.3856610239
 40
0.4034189427
 40
0.4213610212
 40
0.4394684508
 40
0.4577218176
 40
0.4761011834
 40
0.494586164
 40
0.5131560063
 40
0.531789664
 40
0.5504658718
 40
0.5691632196
 40
0.5878602253
 40
0.6065354079
 40
0.6251673607
 40
0.6437348244
 40
0.6622167607
 40
0.6805924272
 40
0.6988414528
 40
0.7169439145
 40
0.7348804167
 40
0.7526321711
 40
0.7701810808
 40
0.7875098256
 40
0.8046019519
 40
0.8214419659
 40
0.838015431
 40
0.8543090709
 40
0.8703108775
 40
0.8860102251
 40
0.9013979919
 40
0.9164666873
 40
0.9312105878
 40
0.9456258792
 40
0.959710806
 40
0.9734658265
 40
0.9868937705
 40
1.0
 40
1.0
 40
1.0
 40
1.0
 10
14.3850439883
 20
12.637263316
 30
0.0
 10
14.3862592875
 20
12.641196029
 30
0.0
 10
14.3888333622
 20
12.6490217003
 30
0.0
 10
14.3931184489
 20
12.6606210818
 30
0.0
 10
14.3978265451
 20
12.6720787741
 30
0.0
 10
14.402955464
 20
12.683389679
 30
0.0
 10
14.4085030855
 20
12.694548946
 30
0.0
 10
14.4144669192
 20
12.7055518063
 30
0.0
 10
14.420844463
 20
12.7163934939
 30
0.0
 10
14.4276328758
 20
12.7270694045
 30
0.0
 10
14.4348292953
 20
12.7375749127
 30
0.0
 10
14.4424305341
 20
12.7479055735
 30
0.0
 10
14.4504333785
 20
12.758056914
 30
0.0
 10
14.4588343019
 20
12.7680246525
 30
0.0
 10
14.4676297525
 20
12.7778044804
 30
0.0
 10
14.4768158513
 20
12.7873922665
 30
0.0
 10
14.4863887964
 20
12.7967839401
 30
0.0
 10
14.4997341383
 20
12.8091052028
 30
0.0
 10
14.5173858324
 20
12.823995413
 30
0.0
 10
14.5360625508
 20
12.838015039
 30
0.0
 10
14.5517058323
 20
12.8487969302
 30
0.0
 10
14.5680110346
 20
12.8594091412
 30
0.0
 10
14.5849267898
 20
12.8695016039
 30
0.0
 10
14.6024042454
 20
12.8790766511
 30
0.0
 10
14.6205415516
 20
12.8884531578
 30
0.0
 10
14.6440434914
 20
12.8995664069
 30
0.0
 10
14.6733341273
 20
12.9118460683
 30
0.0
 10
14.7038332788
 20
12.9231293757
 30
0.0
 10
14.735488527
 20
12.9333971949
 30
0.0
 10
14.7682460467
 20
12.9426323239
 30
0.0
 10
14.8020499888
 20
12.9508192025
 30
0.0
 10
14.8368427614
 20
12.9579440361
 30
0.0
 10
14.8725650682
 20
12.9639948004
 30
0.0
 10
14.9091560211
 20
12.9689612752
 30
0.0
 10
14.9465532374
 20
12.9728350654
 30
0.0
 10
14.9846929459
 20
12.9756096207
 30
0.0
 10
15.0235100957
 20
12.9772802511
 30
0.0
 10
15.0629384667
 20
12.9778441384
 30
0.0
 10
15.1029107835
 20
12.977300344
 30
0.0
 10
15.1433588308
 20
12.9756498133
 30
0.0
 10
15.1842135708
 20
12.9728953756
 30
0.0
 10
15.2254052624
 20
12.9690417414
 30
0.0
 10
15.2668635808
 20
12.9640954955
 30
0.0
 10
15.3085177387
 20
12.9580650869
 30
0.0
 10
15.3502966088
 20
12.9509608151
 30
0.0
 10
15.3921288452
 20
12.942794813
 30
0.0
 10
15.4339430071
 20
12.9335810271
 30
0.0
 10
15.4756676814
 20
12.9233351932
 30
0.0
 10
15.5172316054
 20
12.9120748105
 30
0.0
 10
15.5585637894
 20
12.8998191112
 30
0.0
 10
15.5995936389
 20
12.8865890276
 30
0.0
 10
15.6402510758
 20
12.8724071566
 30
0.0
 10
15.6804666588
 20
12.8572977203
 30
0.0
 10
15.7201717027
 20
12.8412865246
 30
0.0
 10
15.7592983965
 20
12.8244009145
 30
0.0
 10
15.7977799197
 20
12.8066697266
 30
0.0
 10
15.835550557
 20
12.7881232395
 30
0.0
 10
15.8725458112
 20
12.7687931209
 30
0.0
 10
15.9087025136
 20
12.7487123724
 30
0.0
 10
15.9439589326
 20
12.7279152722
 30
0.0
 10
15.9782548787
 20
12.7064373148
 30
0.0
 10
16.0115318082
 20
12.6843151488
 30
0.0
 10
16.0437329224
 20
12.6615865127
 30
0.0
 10
16.0748032643
 20
12.6382901675
 30
0.0
 10
16.1046898118
 20
12.614465829
 30
0.0
 10
16.1333415667
 20
12.5901540965
 30
0.0
 10
16.1607096397
 20
12.5653963808
 30
0.0
 10
16.1867473314
 20
12.5402348298
 30
0.0
 10
16.2114102077
 20
12.5147122544
 30
0.0
 10
16.2346561713
 20
12.4888720493
 30
0.0
 10
16.2564455233
 20
12.4627581249
 30
0.0
 10
16.2767410371
 20
12.4364147987
 30
0.0
 10
16.2955079562
 20
12.4098868338
 30
0.0
 10
16.3127142418
 20
12.3832189491
 30
0.0
 10
16.3283298864
 20
12.356457243
 30
0.0
 10
16.3377756224
 20
12.338365882
 30
0.0
 10
16.3422145456
 20
12.3293203076
 30
0.0
  0
SPLINE
  5
384
100
AcDbEntity
  8
LAYER_CUT_FEAT
100
AcDbSpline
 62
7
  6
CONTINUOUS
 70
0
 71
3
 72
81
 73
77
 74
0
 42
0.0000001
 43
0.0000001
 44
0.0000000001
 40
0.0
 40
0.0
 40
0.0
 40
0.0
 40
0.00535409
 40
0.0107128691
 40
0.0160810068
 40
0.021463131
 40
0.0268638117
 40
0.032287538
 40
0.0377387059
 40
0.0432215955
 40
0.0487403633
 40
0.0542990199
 40
0.0599014283
 40
0.0655512816
 40
0.0712521075
 40
0.0770072469
 40
0.0828198628
 40
0.0886929208
 40
0.1006300276
 40
0.1128397956
 40
0.1190528522
 40
0.125340106
 40
0.1381425012
 40
0.1446613589
 40
0.1512598124
 40
0.1646981005
 40
0.178463593
 40
0.1925590422
 40
0.2069848334
 40
0.2217391432
 40
0.2368180944
 40
0.2522159049
 40
0.2679250304
 40
0.283936299
 40
0.3002390394
 40
0.3168212013
 40
0.3336694697
 40
0.350769373
 40
0.3681053853
 40
0.3856610239
 40
0.4034189427
 40
0.4213610212
 40
0.4394684508
 40
0.4577218176
 40
0.4761011834
 40
0.494586164
 40
0.5131560063
 40
0.531789664
 40
0.5504658718
 40
0.5691632196
 40
0.5878602253
 40
0.6065354079
 40
0.6251673607
 40
0.6437348244
 40
0.6622167607
 40
0.6805924272
 40
0.6988414528
 40
0.7169439145
 40
0.7348804167
 40
0.7526321711
 40
0.7701810808
 40
0.7875098256
 40
0.8046019519
 40
0.8214419659
 40
0.838015431
 40
0.8543090709
 40
0.8703108775
 40
0.8860102251
 40
0.9013979919
 40
0.9164666873
 40
0.9312105878
 40
0.9456258792
 40
0.959710806
 40
0.9734658265
 40
0.9868937705
 40
1.0
 40
1.0
 40
1.0
 40
1.0
 10
14.376571667
 20
12.6098468742
 30
0.0
 10
14.3777869662
 20
12.6137795872
 30
0.0
 10
14.3803610409
 20
12.6216052585
 30
0.0
 10
14.3846461276
 20
12.6332046399
 30
0.0
 10
14.3893542238
 20
12.6446623322
 30
0.0
 10
14.3944831426
 20
12.6559732371
 30
0.0
 10
14.4000307642
 20
12.6671325041
 30
0.0
 10
14.4059945979
 20
12.6781353645
 30
0.0
 10
14.4123721417
 20
12.6889770521
 30
0.0
 10
14.4191605545
 20
12.6996529627
 30
0.0
 10
14.4263569739
 20
12.7101584709
 30
0.0
 10
14.4339582127
 20
12.7204891317
 30
0.0
 10
14.4419610572
 20
12.7306404722
 30
0.0
 10
14.4503619805
 20
12.7406082107
 30
0.0
 10
14.4591574312
 20
12.7503880386
 30
0.0
 10
14.46834353
 20
12.7599758246
 30
0.0
 10
14.4779164751
 20
12.7693674983
 30
0.0
 10
14.491261817
 20
12.7816887609
 30
0.0
 10
14.5089135111
 20
12.7965789712
 30
0.0
 10
14.5275902295
 20
12.8105985971
 30
0.0
 10
14.543233511
 20
12.8213804883
 30
0.0
 10
14.5595387133
 20
12.8319926993
 30
0.0
 10
14.5764544685
 20
12.8420851621
 30
0.0
 10
14.5939319241
 20
12.8516602093
 30
0.0
 10
14.6120692302
 20
12.861036716
 30
0.0
 10
14.6355711701
 20
12.8721499651
 30
0.0
 10
14.664861806
 20
12.8844296264
 30
0.0
 10
14.6953609575
 20
12.8957129339
 30
0.0
 10
14.7270162057
 20
12.9059807531
 30
0.0
 10
14.7597737254
 20
12.915215882
 30
0.0
 10
14.7935776675
 20
12.9234027606
 30
0.0
 10
14.8283704401
 20
12.9305275942
 30
0.0
 10
14.8640927469
 20
12.9365783586
 30
0.0
 10
14.9006836998
 20
12.9415448334
 30
0.0
 10
14.938080916
 20
12.9454186235
 30
0.0
 10
14.9762206246
 20
12.9481931789
 30
0.0
 10
15.0150377744
 20
12.9498638093
 30
0.0
 10
15.0544661454
 20
12.9504276966
 30
0.0
 10
15.0944384622
 20
12.9498839022
 30
0.0
 10
15.1348865094
 20
12.9482333715
 30
0.0
 10
15.1757412495
 20
12.9454789337
 30
0.0
 10
15.2169329411
 20
12.9416252995
 30
0.0
 10
15.2583912594
 20
12.9366790537
 30
0.0
 10
15.3000454174
 20
12.9306486451
 30
0.0
 10
15.3418242874
 20
12.9235443732
 30
0.0
 10
15.3836565239
 20
12.9153783712
 30
0.0
 10
15.4254706858
 20
12.9061645852
 30
0.0
 10
15.4671953601
 20
12.8959187514
 30
0.0
 10
15.5087592841
 20
12.8846583687
 30
0.0
 10
15.5500914681
 20
12.8724026693
 30
0.0
 10
15.5911213176
 20
12.8591725858
 30
0.0
 10
15.6317787545
 20
12.8449907148
 30
0.0
 10
15.6719943374
 20
12.8298812785
 30
0.0
 10
15.7116993813
 20
12.8138700828
 30
0.0
 10
15.7508260751
 20
12.7969844726
 30
0.0
 10
15.7893075983
 20
12.7792532848
 30
0.0
 10
15.8270782357
 20
12.7607067977
 30
0.0
 10
15.8640734899
 20
12.7413766791
 30
0.0
 10
15.9002301923
 20
12.7212959306
 30
0.0
 10
15.9354866113
 20
12.7004988304
 30
0.0
 10
15.9697825574
 20
12.679020873
 30
0.0
 10
16.0030594869
 20
12.656898707
 30
0.0
 10
16.0352606011
 20
12.6341700708
 30
0.0
 10
16.066330943
 20
12.6108737257
 30
0.0
 10
16.0962174905
 20
12.5870493872
 30
0.0
 10
16.1248692454
 20
12.5627376547
 30
0.0
 10
16.1522373184
 20
12.5379799389
 30
0.0
 10
16.1782750101
 20
12.512818388
 30
0.0
 10
16.2029378864
 20
12.4872958126
 30
0.0
 10
16.22618385
 20
12.4614556074
 30
0.0
 10
16.247973202
 20
12.4353416831
 30
0.0
 10
16.2682687158
 20
12.4089983569
 30
0.0
 10
16.2870356349
 20
12.382470392
 30
0.0
 10
16.3042419204
 20
12.3558025072
 30
0.0
 10
16.319857565
 20
12.3290408012
 30
0.0
 10
16.3293033011
 20
12.3109494401
 30
0.0
 10
16.3337422242
 20
12.3019038657
 30
0.0
  0
SPLINE
  5
385
100
AcDbEntity
  8
LAYER_FEATURE
100
AcDbSpline
 62
7
  6
CONTINUOUS
 70
0
 71
3
 72
18
 73
14
 74
0
 42
0.0000001
 43
0.0000001
 44
0.0000000001
 40
0.0
 40
0.0
 40
0.0
 40
0.0
 40
0.0594368324
 40
0.1190556117
 40
0.178912967
 40
0.2390637518
 40
0.2995608409
 40
0.3604546226
 40
0.4835928294
 40
0.6088526984
 40
0.7365267256
 40
0.8668501672
 40
1.0
 40
1.0
 40
1.0
 40
1.0
 10
14.8824139021
 20
12.5314530244
 30
0.0
 10
14.8819534907
 20
12.5326750643
 30
0.0
 10
14.881086972
 20
12.5351442869
 30
0.0
 10
14.8799543034
 20
12.5389098118
 30
0.0
 10
14.8789883594
 20
12.5427377686
 30
0.0
 10
14.878190137
 20
12.546623822
 30
0.0
 10
14.8775605731
 20
12.5505638503
 30
0.0
 10
14.8769445676
 20
12.5559024155
 30
0.0
 10
14.8766035925
 20
12.5626982916
 30
0.0
 10
14.8768782634
 20
12.5709654055
 30
0.0
 10
14.8778332792
 20
12.5793405953
 30
0.0
 10
14.8794638273
 20
12.5877863992
 30
0.0
 10
14.8809798395
 20
12.5933793328
 30
0.0
 10
14.8818435717
 20
12.596174371
 30
0.0
  0
SPLINE
  5
386
100
AcDbEntity
  8
02___PRT_ALL_AXES
100
AcDbSpline
 62
7
  6
CONTINUOUS
 70
0
 71
3
 72
44
 73
40
 74
0
 42
0.0000001
 43
0.0000001
 44
0.0000000001
 40
0.0
 40
0.0
 40
0.0
 40
0.0
 40
0.011600848
 40
0.0232517799
 40
0.0349729411
 40
0.0467836898
 40
0.0587024222
 40
0.0707464221
 40
0.082931669
 40
0.0952728069
 40
0.1077829422
 40
0.1204737421
 40
0.1464305479
 40
0.173210615
 40
0.2008509197
 40
0.2293653058
 40
0.2587466426
 40
0.2889693435
 40
0.3199921615
 40
0.3517609781
 40
0.3842115703
 40
0.4172721809
 40
0.4508658492
 40
0.4849124957
 40
0.519330646
 40
0.5540389408
 40
0.5889572835
 40
0.6240078394
 40
0.6591157529
 40
0.6942097885
 40
0.7292227923
 40
0.7640921395
 40
0.7987600787
 40
0.8331740953
 40
0.8672872117
 40
0.9010582605
 40
0.9344522593
 40
0.9674401807
 40
1.0
 40
1.0
 40
1.0
 40
1.0
 10
14.8787984403
 20
12.5379272891
 30
0.0
 10
14.8782583814
 20
12.5390278211
 30
0.0
 10
14.8772321882
 20
12.5412617485
 30
0.0
 10
14.8758614098
 20
12.5446954494
 30
0.0
 10
14.874657706
 20
12.5482147493
 30
0.0
 10
14.8736221309
 20
12.5518165278
 30
0.0
 10
14.8727555019
 20
12.5554976681
 30
0.0
 10
14.8720585092
 20
12.5592548675
 30
0.0
 10
14.8715316279
 20
12.5630846873
 30
0.0
 10
14.8711752287
 20
12.5669835138
 30
0.0
 10
14.8709894357
 20
12.5709476688
 30
0.0
 10
14.8709690614
 20
12.576355038
 30
0.0
 10
14.8713797255
 20
12.5832651719
 30
0.0
 10
14.8725473574
 20
12.5916862187
 30
0.0
 10
14.8743863343
 20
12.6002627319
 30
0.0
 10
14.8768869276
 20
12.6089557982
 30
0.0
 10
14.8800367501
 20
12.6177251828
 30
0.0
 10
14.8838208335
 20
12.6265288744
 30
0.0
 10
14.888221725
 20
12.6353236219
 30
0.0
 10
14.8932196313
 20
12.6440652515
 30
0.0
 10
14.8987925926
 20
12.6527090611
 30
0.0
 10
14.9049166688
 20
12.6612101837
 30
0.0
 10
14.911566122
 20
12.669523927
 30
0.0
 10
14.918713574
 20
12.6776060727
 30
0.0
 10
14.9263301328
 20
12.6854131414
 30
0.0
 10
14.9343854693
 20
12.6929026207
 30
0.0
 10
14.9428478568
 20
12.7000331735
 30
0.0
 10
14.9516841582
 20
12.7067648341
 30
0.0
 10
14.9608597894
 20
12.7130592091
 30
0.0
 10
14.9703386513
 20
12.7188796923
 30
0.0
 10
14.9800830635
 20
12.7241917073
 30
0.0
 10
14.990053702
 20
12.7289629785
 30
0.0
 10
15.0002095708
 20
12.7331638369
 30
0.0
 10
15.0105080086
 20
12.7367675499
 30
0.0
 10
15.0209047784
 20
12.7397506642
 30
0.0
 10
15.0313541382
 20
12.7420933673
 30
0.0
 10
15.0418092902
 20
12.7437797741
 30
0.0
 10
15.0522217259
 20
12.7447982913
 30
0.0
 10
15.0591503707
 20
12.7450287911
 30
0.0
 10
15.0625910785
 20
12.7450287911
 30
0.0
  0
SPLINE
  5
387
100
AcDbEntity
  8
LAYER_FEATURE
100
AcDbSpline
 62
7
  6
CONTINUOUS
 70
0
 71
3
 72
11
 73
7
 74
0
 42
0.0000001
 43
0.0000001
 44
0.0000000001
 40
0.0
 40
0.0
 40
0.0
 40
0.0
 40
0.2480296921
 40
0.4986840329
 40
0.7499964052
 40
1.0
 40
1.0
 40
1.0
 40
1.0
 10
16.5589874283
 20
12.7533553934
 30
0.0
 10
16.5605288549
 20
12.7526173093
 30
0.0
 10
16.5636771678
 20
12.7512338403
 30
0.0
 10
16.5685322368
 20
12.7494541615
 30
0.0
 10
16.5735010292
 20
12.7479740491
 30
0.0
 10
16.5768689006
 20
12.7471944111
 30
0.0
 10
16.5785586427
 20
12.7468594345
 30
0.0
  0
LINE
  5
388
100
AcDbEntity
  8
LAYER_FEATURE
100
AcDbLine
 62
7
  6
CONTINUOUS
 10
16.5269025793
 20
12.906881376
 11
16.5271670645
 21
12.9084948581
  0
SPLINE
  5
389
100
AcDbEntity
  8
LAYER_FEATURE
100
AcDbSpline
 62
7
  6
CONTINUOUS
 70
0
 71
3
 72
15
 73
11
 74
0
 42
0.0000001
 43
0.0000001
 44
0.0000000001
 40
0.0
 40
0.0
 40
0.0
 40
0.0
 40
0.1208313844
 40
0.244304776
 40
0.3697257784
 40
0.4963640601
 40
0.6234670779
 40
0.7502749413
 40
0.8760304335
 40
1.0
 40
1.0
 40
1.0
 40
1.0
 10
16.5099914209
 20
12.8522200816
 30
0.0
 10
16.5112077755
 20
12.8514574543
 30
0.0
 10
16.5137155072
 20
12.8499915203
 30
0.0
 10
16.5176326983
 20
12.8479982816
 30
0.0
 10
16.5217188087
 20
12.8462002489
 30
0.0
 10
16.5259374848
 20
12.8446134567
 30
0.0
 10
16.5302514108
 20
12.8432519178
 30
0.0
 10
16.5346224068
 20
12.8421277099
 30
0.0
 10
16.5390115834
 20
12.8412507862
 30
0.0
 10
16.5419509608
 20
12.8408323804
 30
0.0
 10
16.5434146405
 20
12.8406674203
 30
0.0
  0
SPLINE
  5
38A
100
AcDbEntity
  8
LAYER_FEATURE
100
AcDbSpline
 62
7
  6
CONTINUOUS
 70
0
 71
3
 72
11
 73
7
 74
0
 42
0.0000001
 43
0.0000001
 44
0.0000000001
 40
0.0
 40
0.0
 40
0.0
 40
0.0
 40
0.2434057355
 40
0.4895268767
 40
0.740974874
 40
1.0
 40
1.0
 40
1.0
 40
1.0
 10
16.4577672935
 20
13.0002338859
 30
0.0
 10
16.4578428009
 20
13.0004782343
 30
0.0
 10
16.4579627049
 20
13.0009801679
 30
0.0
 10
16.4580448675
 20
13.0017563973
 30
0.0
 10
16.4580295237
 20
13.0025531251
 30
0.0
 10
16.4579557856
 20
13.0030857706
 30
0.0
 10
16.457903893
 20
13.003352938
 30
0.0
  0
SPLINE
  5
38B
100
AcDbEntity
  8
LAYER_FEATURE
100
AcDbSpline
 62
7
  6
CONTINUOUS
 70
0
 71
3
 72
23
 73
19
 74
0
 42
0.0000001
 43
0.0000001
 44
0.0000000001
 40
0.0
 40
0.0
 40
0.0
 40
0.0
 40
0.0577024997
 40
0.1168420368
 40
0.1772767061
 40
0.2388508703
 40
0.3013972588
 40
0.36473914
 40
0.4286922989
 40
0.4930668542
 40
0.5576690354
 40
0.6223030865
 40
0.6867728621
 40
0.7508838752
 40
0.8144450245
 40
0.8772680884
 40
0.9391797048
 40
1.0
 40
1.0
 40
1.0
 40
1.0
 10
16.4425805853
 20
12.9511572765
 30
0.0
 10
16.4433240439
 20
12.9505503114
 30
0.0
 10
16.4448605692
 20
12.949358897
 30
0.0
 10
16.447273888
 20
12.947663014
 30
0.0
 10
16.4498151839
 20
12.9460425036
 30
0.0
 10
16.4524729579
 20
12.944504708
 30
0.0
 10
16.4552352748
 20
12.943056518
 30
0.0
 10
16.4580896982
 20
12.9417044471
 30
0.0
 10
16.4610233843
 20
12.9404545783
 30
0.0
 10
16.4640231302
 20
12.9393125452
 30
0.0
 10
16.4670754299
 20
12.9382834883
 30
0.0
 10
16.4701665373
 20
12.937372036
 30
0.0
 10
16.4732825343
 20
12.9365822893
 30
0.0
 10
16.4764093997
 20
12.9359178079
 30
0.0
 10
16.4795330272
 20
12.9353816041
 30
0.0
 10
16.4826394448
 20
12.9349760364
 30
0.0
 10
16.4857145152
 20
12.934703008
 30
0.0
 10
16.4877545088
 20
12.9346092006
 30
0.0
 10
16.4887658445
 20
12.9345853506
 30
0.0
  0
SPLINE
  5
38C
100
AcDbEntity
  8
LAYER_FEATURE
100
AcDbSpline
 62
7
  6
CONTINUOUS
 70
0
 71
3
 72
14
 73
10
 74
0
 42
0.0000001
 43
0.0000001
 44
0.0000000001
 40
0.0
 40
0.0
 40
0.0
 40
0.0
 40
0.1180886464
 40
0.236894066
 40
0.3571143648
 40
0.4794042972
 40
0.6043589207
 40
0.7325187201
 40
1.0
 40
1.0
 40
1.0
 40
1.0
 10
16.3711289676
 20
13.0904871226
 30
0.0
 10
16.3711844169
 20
13.0906665499
 30
0.0
 10
16.371278489
 20
13.0910320544
 30
0.0
 10
16.3713672937
 20
13.091593809
 30
0.0
 10
16.371403778
 20
13.0921680884
 30
0.0
 10
16.3713878667
 20
13.0927530208
 30
0.0
 10
16.3713196574
 20
13.0933468939
 30
0.0
 10
16.3711571406
 20
13.0941594199
 30
0.0
 10
16.3709599416
 20
13.0947601836
 30
0.0
 10
16.3708002971
 20
13.0951544738
 30
0.0
  0
SPLINE
  5
38D
100
AcDbEntity
  8
LAYER_FEATURE
100
AcDbSpline
 62
7
  6
CONTINUOUS
 70
0
 71
3
 72
23
 73
19
 74
0
 42
0.0000001
 43
0.0000001
 44
0.0000000001
 40
0.0
 40
0.0
 40
0.0
 40
0.0
 40
0.0547369217
 40
0.1117364797
 40
0.1708227103
 40
0.2317774249
 40
0.2943475888
 40
0.3582519737
 40
0.4231872514
 40
0.4888336805
 40
0.5548605072
 40
0.6209311849
 40
0.6867085062
 40
0.7518597106
 40
0.8160617049
 40
0.8790063171
 40
0.9404061265
 40
1.0
 40
1.0
 40
1.0
 40
1.0
 10
16.3580566517
 20
13.0482274837
 30
0.0
 10
16.3588371013
 20
13.0473755565
 30
0.0
 10
16.3604981758
 20
13.0456977311
 30
0.0
 10
16.3632089764
 20
13.0433164296
 30
0.0
 10
16.3661715474
 20
13.0410347282
 30
0.0
 10
16.3693633746
 20
13.0388699439
 30
0.0
 10
16.3727604433
 20
13.0368382942
 30
0.0
 10
16.3763370975
 20
13.0349551089
 30
0.0
 10
16.380066323
 20
13.0332346002
 30
0.0
 10
16.3839199296
 20
13.031689772
 30
0.0
 10
16.3878687757
 20
13.0303323061
 30
0.0
 10
16.3918829922
 20
13.0291724704
 30
0.0
 10
16.3959322134
 20
13.0282190383
 30
0.0
 10
16.3999858203
 20
13.0274792204
 30
0.0
 10
16.4040131518
 20
13.026958611
 30
0.0
 10
16.4079838442
 20
13.0266611513
 30
0.0
 10
16.4118677144
 20
13.0265890901
 30
0.0
 10
16.414421396
 20
13.0266934181
 30
0.0
 10
16.4156759314
 20
13.0267852197
 30
0.0
  0
SPLINE
  5
38E
100
AcDbEntity
  8
LAYER_FEATURE
100
AcDbSpline
 62
7
  6
CONTINUOUS
 70
0
 71
3
 72
15
 73
11
 74
0
 42
0.0000001
 43
0.0000001
 44
0.0000000001
 40
0.0
 40
0.0
 40
0.0
 40
0.0
 40
0.1140100054
 40
0.2292214068
 40
0.3467731559
 40
0.467690063
 40
0.5928502115
 40
0.7229564553
 40
0.8585627942
 40
1.0
 40
1.0
 40
1.0
 40
1.0
 10
16.2686739368
 20
13.1758844036
 30
0.0
 10
16.2687471301
 20
13.1761212593
 30
0.0
 10
16.268864284
 20
13.1766073243
 30
0.0
 10
16.2689482652
 20
13.1773585001
 30
0.0
 10
16.2689407023
 20
13.1781293396
 30
0.0
 10
16.2688418026
 20
13.1789154711
 30
0.0
 10
16.2686523701
 20
13.17971274
 30
0.0
 10
16.2683736357
 20
13.1805170635
 30
0.0
 10
16.2680072458
 20
13.1813242348
 30
0.0
 10
16.2677122166
 20
13.181850351
 30
0.0
 10
16.2675516492
 20
13.1821126532
 30
0.0
  0
SPLINE
  5
38F
100
AcDbEntity
  8
LAYER_FEATURE
100
AcDbSpline
 62
7
  6
CONTINUOUS
 70
0
 71
3
 72
28
 73
24
 74
0
 42
0.0000001
 43
0.0000001
 44
0.0000000001
 40
0.0
 40
0.0
 40
0.0
 40
0.0
 40
0.0512597896
 40
0.0780660666
 40
0.1056373134
 40
0.1339541623
 40
0.1629903326
 40
0.1927136483
 40
0.2230862306
 40
0.2855939011
 40
0.3501339693
 40
0.4162615832
 40
0.4834923356
 40
0.5513154678
 40
0.6192064646
 40
0.6866392581
 40
0.7530983704
 40
0.8180913304
 40
0.8811620666
 40
0.9118521604
 40
0.9419143453
 40
0.9713111154
 40
1.0
 40
1.0
 40
1.0
 40
1.0
 10
16.258045819
 20
13.1416173732
 30
0.0
 10
16.2587381912
 20
13.1405198687
 30
0.0
 10
16.2598922966
 20
13.1389093987
 30
0.0
 10
16.2616088935
 20
13.1368581139
 30
0.0
 10
16.263028462
 20
13.1353183441
 30
0.0
 10
16.2645564892
 20
13.1338050794
 30
0.0
 10
16.2661886639
 20
13.1323224951
 30
0.0
 10
16.267920299
 20
13.1308748874
 30
0.0
 10
16.2703784564
 20
13.1289789135
 30
0.0
 10
16.2736707289
 20
13.1267265636
 30
0.0
 10
16.2778931858
 20
13.1242524889
 30
0.0
 10
16.282376872
 20
13.122009628
 30
0.0
 10
16.2870702919
 20
13.1200237453
 30
0.0
 10
16.2919197304
 20
13.1183175505
 30
0.0
 10
16.2968695957
 20
13.1169106037
 30
0.0
 10
16.3018631414
 20
13.1158190298
 30
0.0
 10
16.3068432136
 20
13.1150553403
 30
0.0
 10
16.3117526074
 20
13.114628299
 30
0.0
 10
16.3157746175
 20
13.1145563853
 30
0.0
 10
16.318907595
 20
13.114675387
 30
0.0
 10
16.3211836856
 20
13.1148496857
 30
0.0
 10
16.3234005955
 20
13.1151093286
 30
0.0
 10
16.3248531188
 20
13.1153416952
 30
0.0
 10
16.3255675131
 20
13.115472462
 30
0.0
  0
SPLINE
  5
390
100
AcDbEntity
  8
LAYER_FEATURE
100
AcDbSpline
 62
7
  6
CONTINUOUS
 70
0
 71
3
 72
38
 73
34
 74
0
 42
0.0000001
 43
0.0000001
 44
0.0000000001
 40
0.0
 40
0.0
 40
0.0
 40
0.0
 40
0.0475199474
 40
0.0726724455
 40
0.0987809077
 40
0.1258531513
 40
0.1538811724
 40
0.1828427568
 40
0.2127029829
 40
0.2434158473
 40
0.2749256118
 40
0.3071679354
 40
0.340071023
 40
0.3735567812
 40
0.4075417592
 40
0.4419380045
 40
0.4766540189
 40
0.51159563
 40
0.5466667669
 40
0.5817702726
 40
0.6168087545
 40
0.6516853466
 40
0.6863044928
 40
0.720572829
 40
0.7543999838
 40
0.7876993978
 40
0.8203892774
 40
0.8523935136
 40
0.8836428553
 40
0.9140756198
 40
0.9436383907
 40
0.9722917673
 40
1.0
 40
1.0
 40
1.0
 40
1.0
 10
16.1445959427
 20
13.2296409906
 30
0.0
 10
16.1450421225
 20
13.2283226116
 30
0.0
 10
16.1459061411
 20
13.2263642466
 30
0.0
 10
16.1473564765
 20
13.2238594245
 30
0.0
 10
16.1486411511
 20
13.2219561099
 30
0.0
 10
16.1500961952
 20
13.2200727059
 30
0.0
 10
16.1517157929
 20
13.2182164248
 30
0.0
 10
16.1534932258
 20
13.2163949366
 30
0.0
 10
16.1554211888
 20
13.2146156195
 30
0.0
 10
16.1574917543
 20
13.2128857485
 30
0.0
 10
16.1596964236
 20
13.2112124072
 30
0.0
 10
16.1620261368
 20
13.2096024579
 30
0.0
 10
16.1644713083
 20
13.2080624987
 30
0.0
 10
16.1670218831
 20
13.2065988568
 30
0.0
 10
16.169667374
 20
13.2052175606
 30
0.0
 10
16.1723968906
 20
13.2039242892
 30
0.0
 10
16.1751991931
 20
13.2027243583
 30
0.0
 10
16.178062745
 20
13.2016227107
 30
0.0
 10
16.1809757584
 20
13.2006238942
 30
0.0
 10
16.1839262327
 20
13.1997320126
 30
0.0
 10
16.1869020159
 20
13.1989507346
 30
0.0
 10
16.1898908548
 20
13.1982832835
 30
0.0
 10
16.192880443
 20
13.1977324158
 30
0.0
 10
16.19585847
 20
13.1973003878
 30
0.0
 10
16.1988126787
 20
13.1969889765
 30
0.0
 10
16.2017309143
 20
13.1967994752
 30
0.0
 10
16.2046011728
 20
13.19673267
 30
0.0
 10
16.2074116576
 20
13.1967888267
 30
0.0
 10
16.2101508278
 20
13.1969677306
 30
0.0
 10
16.212807406
 20
13.1972686781
 30
0.0
 10
16.2153705989
 20
13.1976904391
 30
0.0
 10
16.2178296886
 20
13.1982313357
 30
0.0
 10
16.2194202378
 20
13.1986775148
 30
0.0
 10
16.2201944475
 20
13.1989208813
 30
0.0
  0
SPLINE
  5
391
100
AcDbEntity
  8
LAYER_FEATURE
100
AcDbSpline
 62
7
  6
CONTINUOUS
 70
0
 71
3
 72
11
 73
7
 74
0
 42
0.0000001
 43
0.0000001
 44
0.0000000001
 40
0.0
 40
0.0
 40
0.0
 40
0.0
 40
0.2480077083
 40
0.4968266482
 40
0.7472524233
 40
1.0
 40
1.0
 40
1.0
 40
1.0
 10
16.024059119
 20
13.3225152908
 30
0.0
 10
16.024175725
 20
13.3228926238
 30
0.0
 10
16.0243830786
 20
13.3236569166
 30
0.0
 10
16.0246145017
 20
13.324825086
 30
0.0
 10
16.0247661386
 20
13.326013861
 30
0.0
 10
16.0248136681
 20
13.3268144301
 30
0.0
 10
16.0248242978
 20
13.3272167771
 30
0.0
  0
SPLINE
  5
392
100
AcDbEntity
  8
02___PRT_ALL_AXES
100
AcDbSpline
 62
7
  6
CONTINUOUS
 70
0
 71
3
 72
45
 73
41
 74
0
 42
0.0000001
 43
0.0000001
 44
0.0000000001
 40
0.0
 40
0.0
 40
0.0
 40
0.0
 40
0.0396647973
 40
0.0788614522
 40
0.1175674755
 40
0.1557615115
 40
0.1934238196
 40
0.2305362322
 40
0.2670823114
 40
0.3030474637
 40
0.338419068
 40
0.3731866087
 40
0.4073418155
 40
0.4408788084
 40
0.4737942498
 40
0.5060875004
 40
0.5377607784
 40
0.56881932
 40
0.5992715403
 40
0.6291291897
 40
0.6584075025
 40
0.6728360024
 40
0.6871270521
 40
0.7153069835
 40
0.742975419
 40
0.7701626253
 40
0.7969027345
 40
0.8232336867
 40
0.8491971069
 40
0.8748381039
 40
0.8875539143
 40
0.9002074846
 40
0.9128052935
 40
0.9253539682
 40
0.9378602696
 40
0.9503310769
 40
0.962773367
 40
0.9751941983
 40
0.9876006893
 40
1.0
 40
1.0
 40
1.0
 40
1.0
 10
14.9472464754
 20
12.3717735187
 30
0.0
 10
14.9380093026
 20
12.3717735187
 30
0.0
 10
14.919643246
 20
12.3715663964
 30
0.0
 10
14.8922779069
 20
12.3706223042
 30
0.0
 10
14.8652844467
 20
12.3690476519
 30
0.0
 10
14.8386934871
 20
12.3668441963
 30
0.0
 10
14.8125349992
 20
12.3640144145
 30
0.0
 10
14.7868385024
 20
12.3605614787
 30
0.0
 10
14.7616329817
 20
12.356489262
 30
0.0
 10
14.7369468672
 20
12.3518023314
 30
0.0
 10
14.7128079995
 20
12.3465059403
 30
0.0
 10
14.6892436001
 20
12.3406060215
 30
0.0
 10
14.6662802412
 20
12.3341091792
 30
0.0
 10
14.6439438172
 20
12.32702268
 30
0.0
 10
14.6222595168
 20
12.3193544435
 30
0.0
 10
14.6012517975
 20
12.3111130349
 30
0.0
 10
14.580944354
 20
12.3023076476
 30
0.0
 10
14.5613601222
 20
12.2929481102
 30
0.0
 10
14.54252116
 20
12.2830448102
 30
0.0
 10
14.5244489788
 20
12.2726089184
 30
0.0
 10
14.5099747553
 20
12.2634337347
 30
0.0
 10
14.4988061862
 20
12.2558365776
 30
0.0
 10
14.4880149094
 20
12.2481453029
 30
0.0
 10
14.475031734
 20
12.2382236436
 30
0.0
 10
14.4602218368
 20
12.2257788184
 30
0.0
 10
14.4462719117
 20
12.2128649559
 30
0.0
 10
14.4331981442
 20
12.1994966429
 30
0.0
 10
14.4210154793
 20
12.1856887307
 30
0.0
 10
14.4097382002
 20
12.1714570824
 30
0.0
 10
14.4010813764
 20
12.1592228681
 30
0.0
 10
14.3946300404
 20
12.1492464173
 30
0.0
 10
14.3900383469
 20
12.1416889064
 30
0.0
 10
14.3856818047
 20
12.134038258
 30
0.0
 10
14.3815616055
 20
12.1262965738
 30
0.0
 10
14.3776789415
 20
12.1184660641
 30
0.0
 10
14.374034906
 20
12.1105489477
 30
0.0
 10
14.3706305541
 20
12.1025474727
 30
0.0
 10
14.3674668338
 20
12.0944638907
 30
0.0
 10
14.3645446863
 20
12.086300586
 30
0.0
 10
14.3627579412
 20
12.0808060187
 30
0.0
 10
14.3619053967
 20
12.0780471812
 30
0.0
  0
SPLINE
  5
393
100
AcDbEntity
  8
LAYER_FEATURE
100
AcDbSpline
 62
7
  6
CONTINUOUS
 70
0
 71
3
 72
40
 73
36
 74
0
 42
0.0000001
 43
0.0000001
 44
0.0000000001
 40
0.0
 40
0.0
 40
0.0
 40
0.0
 40
0.0108576573
 40
0.0218813635
 40
0.0445048745
 40
0.0680321397
 40
0.0925792825
 40
0.1182271016
 40
0.1450232708
 40
0.1729853814
 40
0.2021042801
 40
0.2323473346
 40
0.2636614819
 40
0.2959760057
 40
0.3292050441
 40
0.3632498491
 40
0.3980008719
 40
0.4333396849
 40
0.4691407628
 40
0.5052731687
 40
0.5416021704
 40
0.577990812
 40
0.6143014667
 40
0.6503973876
 40
0.6861442587
 40
0.7214117696
 40
0.7560752415
 40
0.7900173222
 40
0.8231297876
 40
0.8553155033
 40
0.8864904367
 40
0.9165862886
 40
0.9455519025
 40
0.9733591428
 40
1.0
 40
1.0
 40
1.0
 40
1.0
 10
16.0202663417
 20
13.3103819601
 30
0.0
 10
16.0202735957
 20
13.3100238542
 30
0.0
 10
16.020310469
 20
13.309302421
 30
0.0
 10
16.0204725494
 20
13.3078425508
 30
0.0
 10
16.0208439426
 20
13.3059889538
 30
0.0
 10
16.0215451652
 20
13.3037604916
 30
0.0
 10
16.0225011415
 20
13.3015203044
 30
0.0
 10
16.0237060217
 20
13.2992808899
 30
0.0
 10
16.025152751
 20
13.297054383
 30
0.0
 10
16.0268330579
 20
13.2948529607
 30
0.0
 10
16.0287374598
 20
13.2926886857
 30
0.0
 10
16.0308552756
 20
13.2905734789
 30
0.0
 10
16.0331746588
 20
13.2885190387
 30
0.0
 10
16.0356826451
 20
13.2865367692
 30
0.0
 10
16.0383652139
 20
13.2846377076
 30
0.0
 10
16.0412073584
 20
13.2828324491
 30
0.0
 10
16.0441931691
 20
13.2811310819
 30
0.0
 10
16.0473059238
 20
13.2795431262
 30
0.0
 10
16.0505281816
 20
13.2780774758
 30
0.0
 10
16.0538418819
 20
13.2767423453
 30
0.0
 10
16.057228446
 20
13.2755452214
 30
0.0
 10
16.0606688836
 20
13.2744928197
 30
0.0
 10
16.0641438999
 20
13.2735910409
 30
0.0
 10
16.0676340076
 20
13.2728449401
 30
0.0
 10
16.0711196396
 20
13.2722586995
 30
0.0
 10
16.07458126
 20
13.271835606
 30
0.0
 10
16.0779994765
 20
13.2715780334
 30
0.0
 10
16.0813551514
 20
13.2714874323
 30
0.0
 10
16.0846295133
 20
13.2715643251
 30
0.0
 10
16.0878042601
 20
13.2718083064
 30
0.0
 10
16.0908616851
 20
13.2722180469
 30
0.0
 10
16.093784706
 20
13.2727913363
 30
0.0
 10
16.0965571627
 20
13.2735250851
 30
0.0
 10
16.0991633291
 20
13.2744153015
 30
0.0
 10
16.1008157636
 20
13.2751251923
 30
0.0
 10
16.1016077015
 20
13.275506249
 30
0.0
  0
SPLINE
  5
394
100
AcDbEntity
  8
02___PRT_ALL_AXES
100
AcDbSpline
 62
7
  6
CONTINUOUS
 70
0
 71
3
 72
40
 73
36
 74
0
 42
0.0000001
 43
0.0000001
 44
0.0000000001
 40
0.0
 40
0.0
 40
0.0
 40
0.0
 40
0.0248034546
 40
0.049664248
 40
0.0746390663
 40
0.0997833135
 40
0.1251505275
 40
0.1507918574
 40
0.1767556158
 40
0.2030869115
 40
0.2298273685
 40
0.2570149276
 40
0.2846837213
 40
0.3128640179
 40
0.3271552563
 40
0.3415839409
 40
0.3708626359
 40
0.4007206744
 40
0.4311732902
 40
0.4622322343
 40
0.4939059225
 40
0.5261995923
 40
0.5591154628
 40
0.5926528929
 40
0.6268085439
 40
0.6615765358
 40
0.6969485987
 40
0.7329142173
 40
0.7694607716
 40
0.8065736704
 40
0.8442364555
 40
0.8824310358
 40
0.9211374221
 40
0.960334881
 40
1.0
 40
1.0
 40
1.0
 40
1.0
 10
14.5131968479
 20
12.5676265
 30
0.0
 10
14.5149022461
 20
12.5731451789
 30
0.0
 10
14.5186427384
 20
12.5840976292
 30
0.0
 10
14.5252184415
 20
12.6001977573
 30
0.0
 10
14.5327544685
 20
12.6159599212
 30
0.0
 10
14.5412417681
 20
12.6313652855
 30
0.0
 10
14.5506704737
 20
12.6463964458
 30
0.0
 10
14.5610295563
 20
12.6610362403
 30
0.0
 10
14.5723069579
 20
12.6752680934
 30
0.0
 10
14.584489593
 20
12.6890759472
 30
0.0
 10
14.5975633704
 20
12.7024442749
 30
0.0
 10
14.6115132917
 20
12.7153581341
 30
0.0
 10
14.6263231885
 20
12.7278029604
 30
0.0
 10
14.639306359
 20
12.7377246261
 30
0.0
 10
14.6500976429
 20
12.7454158904
 30
0.0
 10
14.6612662056
 20
12.7530130578
 30
0.0
 10
14.6757404341
 20
12.7621882338
 30
0.0
 10
14.6938126153
 20
12.7726241264
 30
0.0
 10
14.7126515776
 20
12.7825274258
 30
0.0
 10
14.732235808
 20
12.7918869645
 30
0.0
 10
14.75254325
 20
12.8006923534
 30
0.0
 10
14.7735509688
 20
12.808933763
 30
0.0
 10
14.7952352704
 20
12.8166019977
 30
0.0
 10
14.8175716955
 20
12.8236884954
 30
0.0
 10
14.8405350548
 20
12.8301853371
 30
0.0
 10
14.8640994536
 20
12.8360852565
 30
0.0
 10
14.8882383202
 20
12.8413816488
 30
0.0
 10
14.9129244339
 20
12.8460685808
 30
0.0
 10
14.9381299554
 20
12.8501407975
 30
0.0
 10
14.9638264505
 20
12.8535937301
 30
0.0
 10
14.9899849472
 20
12.8564235157
 30
0.0
 10
15.0165758831
 20
12.8586269607
 30
0.0
 10
15.0435693895
 20
12.8602016308
 30
0.0
 10
15.0709347201
 20
12.8611457073
 30
0.0
 10
15.0893007998
 20
12.8613528372
 30
0.0
 10
15.0985379275
 20
12.8613528372
 30
0.0
  0
SPLINE
  5
395
100
AcDbEntity
  8
LAYER_CHAMFER_FEAT
100
AcDbSpline
 62
7
  6
CONTINUOUS
 70
0
 71
3
 72
45
 73
41
 74
0
 42
0.0000001
 43
0.0000001
 44
0.0000000001
 40
0.0
 40
0.0
 40
0.0
 40
0.0
 40
0.0106260328
 40
0.0212747086
 40
0.0319684393
 40
0.0427291583
 40
0.0535781301
 40
0.0645357284
 40
0.0756212976
 40
0.0868529841
 40
0.098247652
 40
0.1098207803
 40
0.1215864235
 40
0.1335571754
 40
0.1581516048
 40
0.1836817515
 40
0.210196947
 40
0.2377257355
 40
0.2662776595
 40
0.2958451244
 40
0.3264052225
 40
0.3579214516
 40
0.3903453056
 40
0.4236177331
 40
0.4576704728
 40
0.4924272822
 40
0.5278050737
 40
0.5637149767
 40
0.600063338
 40
0.6367526755
 40
0.6736825944
 40
0.7107506783
 40
0.747853361
 40
0.784886791
 40
0.821747688
 40
0.8583342184
 40
0.8945468424
 40
0.9302893024
 40
0.9654693127
 40
1.0
 40
1.0
 40
1.0
 40
1.0
 10
14.9920064332
 20
11.9155111486
 30
0.0
 10
14.9915516574
 20
11.914039478
 30
0.0
 10
14.990724087
 20
11.9110666303
 30
0.0
 10
14.9897340199
 20
11.9065371533
 30
0.0
 10
14.9889956735
 20
11.9019400038
 30
0.0
 10
14.9885097958
 20
11.8972802531
 30
0.0
 10
14.9882768948
 20
11.8925627817
 30
0.0
 10
14.9882971225
 20
11.8877925892
 30
0.0
 10
14.9885704331
 20
11.8829746977
 30
0.0
 10
14.9890964494
 20
11.878114169
 30
0.0
 10
14.9898745739
 20
11.8732160894
 30
0.0
 10
14.9909039121
 20
11.8682855977
 30
0.0
 10
14.9921833589
 20
11.8633277419
 30
0.0
 10
14.9942391701
 20
11.8566280967
 30
0.0
 10
14.9974456068
 20
11.8482047139
 30
0.0
 10
15.0022298346
 20
11.8381659957
 30
0.0
 10
15.007964416
 20
11.8281458142
 30
0.0
 10
15.0146247365
 20
11.8181855598
 30
0.0
 10
15.0221828485
 20
11.8083256446
 30
0.0
 10
15.0306072016
 20
11.7986064053
 30
0.0
 10
15.0398627894
 20
11.7890676548
 30
0.0
 10
15.049911219
 20
11.779748592
 30
0.0
 10
15.0607108405
 20
11.7706876013
 30
0.0
 10
15.0722168945
 20
11.7619220814
 30
0.0
 10
15.0843816838
 20
11.7534882718
 30
0.0
 10
15.0971547626
 20
11.7454210868
 30
0.0
 10
15.1104831424
 20
11.7377539581
 30
0.0
 10
15.1243115112
 20
11.7305186848
 30
0.0
 10
15.1385824632
 20
11.7237452935
 30
0.0
 10
15.1532367399
 20
11.7174619058
 30
0.0
 10
15.1682134783
 20
11.7116946172
 30
0.0
 10
15.1834504674
 20
11.7064673843
 30
0.0
 10
15.1988844096
 20
11.7018019221
 30
0.0
 10
15.2144511882
 20
11.6977176127
 30
0.0
 10
15.2300861354
 20
11.6942314215
 30
0.0
 10
15.2457243151
 20
11.6913578315
 30
0.0
 10
15.2613007586
 20
11.6891087734
 30
0.0
 10
15.2767508898
 20
11.6874935989
 30
0.0
 10
15.2920102085
 20
11.6865190104
 30
0.0
 10
15.3021165848
 20
11.6862968143
 30
0.0
 10
15.3071221092
 20
11.6862968143
 30
0.0
  0
SPLINE
  5
396
100
AcDbEntity
  8
02___PRT_ALL_AXES
100
AcDbSpline
 62
7
  6
CONTINUOUS
 70
0
 71
3
 72
72
 73
68
 74
0
 42
0.0000001
 43
0.0000001
 44
0.0000000001
 40
0.0
 40
0.0
 40
0.0
 40
0.0
 40
0.0171787517
 40
0.0345304647
 40
0.0520443931
 40
0.0697101079
 40
0.0875164383
 40
0.1054520335
 40
0.1235052196
 40
0.1416640668
 40
0.1599164188
 40
0.178249917
 40
0.196652031
 40
0.2151100848
 40
0.2336112856
 40
0.2521427506
 40
0.2706915347
 40
0.2892446567
 40
0.3077891261
 40
0.3263119704
 40
0.3448002623
 40
0.3632411461
 40
0.381621865
 40
0.399929788
 40
0.4181524382
 40
0.4362775214
 40
0.4542929531
 40
0.472186888
 40
0.4899477485
 40
0.5075642561
 40
0.5250254628
 40
0.5423207814
 40
0.559440018
 40
0.5763734053
 40
0.5931116383
 40
0.6096459119
 40
0.6259679567
 40
0.6420700777
 40
0.6579451952
 40
0.6735868871
 40
0.6889894362
 40
0.704147875
 40
0.7190580337
 40
0.7337165906
 40
0.7481211248
 40
0.7622701734
 40
0.7761632875
 40
0.7898010885
 40
0.8031853264
 40
0.8163189386
 40
0.8292061084
 40
0.8418523217
 40
0.8542644161
 40
0.8603855312
 40
0.866451324
 40
0.878421314
 40
0.8901862084
 40
0.9017586001
 40
0.9131525417
 40
0.9243835152
 40
0.9354683778
 40
0.9464252807
 40
0.9572735599
 40
0.9680335958
 40
0.9787266445
 40
0.989374644
 40
1.0
 40
1.0
 40
1.0
 40
1.0
 10
15.0985379275
 20
12.8613528372
 30
0.0
 10
15.1075032539
 20
12.8613528372
 30
0.0
 10
15.1255247479
 20
12.8611555659
 30
0.0
 10
15.1526736839
 20
12.8602790421
 30
0.0
 10
15.1800521987
 20
12.858821224
 30
0.0
 10
15.207631506
 20
12.8567836884
 30
0.0
 10
15.235383055
 20
12.8541685182
 30
0.0
 10
15.2632779082
 20
12.8509784501
 30
0.0
 10
15.2912870489
 20
12.8472168014
 30
0.0
 10
15.3193813213
 20
12.8428874918
 30
0.0
 10
15.3475314831
 20
12.8379950289
 30
0.0
 10
15.3757082336
 20
12.8325445043
 30
0.0
 10
15.4038822422
 20
12.8265415888
 30
0.0
 10
15.432024181
 20
12.8199925301
 30
0.0
 10
15.4601047556
 20
12.8129041493
 30
0.0
 10
15.488094735
 20
12.8052838263
 30
0.0
 10
15.515964982
 20
12.7971394933
 30
0.0
 10
15.5436864833
 20
12.7884796266
 30
0.0
 10
15.5712303798
 20
12.779313238
 30
0.0
 10
15.5985679994
 20
12.7696498734
 30
0.0
 10
15.6256708847
 20
12.7594995937
 30
0.0
 10
15.6525108225
 20
12.7488729651
 30
0.0
 10
15.679059873
 20
12.7377810485
 30
0.0
 10
15.7052903982
 20
12.7262353862
 30
0.0
 10
15.731175095
 20
12.7142479983
 30
0.0
 10
15.7566870217
 20
12.7018313643
 30
0.0
 10
15.7817996244
 20
12.6889984081
 30
0.0
 10
15.8064867648
 20
12.6757624851
 30
0.0
 10
15.8307227465
 20
12.662137367
 30
0.0
 10
15.8544823457
 20
12.648137232
 30
0.0
 10
15.8777408378
 20
12.6337766507
 30
0.0
 10
15.9004740199
 20
12.6190705648
 30
0.0
 10
15.9226582355
 20
12.6040342728
 30
0.0
 10
15.9442703986
 20
12.5886834131
 30
0.0
 10
15.9652880196
 20
12.5730339488
 30
0.0
 10
15.985689233
 20
12.5571021561
 30
0.0
 10
16.0054528149
 20
12.5409045993
 30
0.0
 10
16.0245582035
 20
12.5244581145
 30
0.0
 10
16.0429855205
 20
12.5077797923
 30
0.0
 10
16.0607155905
 20
12.4908869574
 30
0.0
 10
16.0777299686
 20
12.4737971576
 30
0.0
 10
16.0940109537
 20
12.4565281392
 30
0.0
 10
16.1095416033
 20
12.4390978274
 30
0.0
 10
16.1243057499
 20
12.4215243083
 30
0.0
 10
16.1382880158
 20
12.4038258082
 30
0.0
 10
16.151473834
 20
12.3860206791
 30
0.0
 10
16.1638494626
 20
12.3681273783
 30
0.0
 10
16.1754019885
 20
12.3501644477
 30
0.0
 10
16.1861193429
 20
12.3321504901
 30
0.0
 10
16.1959902995
 20
12.314104178
 30
0.0
 10
16.2050045239
 20
12.2960441373
 30
0.0
 10
16.2131524576
 20
12.2779892946
 30
0.0
 10
16.2192413664
 20
12.2628939343
 30
0.0
 10
16.2236644171
 20
12.2508411764
 30
0.0
 10
16.2277534933
 20
12.2389147655
 30
0.0
 10
16.2323175352
 20
12.2240412378
 30
0.0
 10
16.2369234336
 20
12.2061932825
 30
0.0
 10
16.2406290767
 20
12.188443427
 30
0.0
 10
16.2434303095
 20
12.1708103612
 30
0.0
 10
16.2453239875
 20
12.1533124536
 30
0.0
 10
16.2463078854
 20
12.1359680435
 30
0.0
 10
16.246380737
 20
12.1187953502
 30
0.0
 10
16.2455422484
 20
12.1018124548
 30
0.0
 10
16.2437931353
 20
12.0850373481
 30
0.0
 10
16.2411350346
 20
12.0684876175
 30
0.0
 10
16.2375708524
 20
12.0521814882
 30
0.0
 10
16.2345915735
 20
12.0414792413
 30
0.0
 10
16.2329543671
 20
12.0361812315
 30
0.0
  0
SPLINE
  5
397
100
AcDbEntity
  8
LAYER_CHAMFER_FEAT
100
AcDbSpline
 62
7
  6
CONTINUOUS
 70
0
 71
3
 72
28
 73
24
 74
0
 42
0.0000001
 43
0.0000001
 44
0.0000000001
 40
0.0
 40
0.0
 40
0.0
 40
0.0
 40
0.0248059849
 40
0.0496693121
 40
0.0746466828
 40
0.0997934886
 40
0.1251633001
 40
0.1508072364
 40
0.1767736535
 40
0.2031076249
 40
0.2298508173
 40
0.257041145
 40
0.3128809649
 40
0.3708704111
 40
0.4311753294
 40
0.4939038002
 40
0.5591105877
 40
0.6268021591
 40
0.6969418232
 40
0.7694545098
 40
0.8442317173
 40
0.9211345749
 40
1.0
 40
1.0
 40
1.0
 40
1.0
 10
15.4697168518
 20
11.767887464
 30
0.0
 10
15.4692431339
 20
11.7663544965
 30
0.0
 10
15.4682040882
 20
11.7633121565
 30
0.0
 10
15.4663775316
 20
11.7588398874
 30
0.0
 10
15.464284165
 20
11.7544615212
 30
0.0
 10
15.4619266069
 20
11.7501822392
 30
0.0
 10
15.4593074974
 20
11.7460069324
 30
0.0
 10
15.4564299956
 20
11.741940309
 30
0.0
 10
15.4532973632
 20
11.7379870271
 30
0.0
 10
15.4499133275
 20
11.7341515122
 30
0.0
 10
15.4462816531
 20
11.7304380504
 30
0.0
 10
15.4410694441
 20
11.7256128847
 30
0.0
 10
15.4339324785
 20
11.7199096051
 30
0.0
 10
15.4245308472
 20
11.7136829088
 30
0.0
 10
15.4142583242
 20
11.7080381581
 30
0.0
 10
15.4031620348
 20
11.7029998863
 30
0.0
 10
15.3912917422
 20
11.69858944
 30
0.0
 10
15.3787007148
 20
11.6948258122
 30
0.0
 10
15.3654453209
 20
11.6917252752
 30
0.0
 10
15.351584945
 20
11.6893013132
 30
0.0
 10
15.3371816259
 20
11.6875645467
 30
0.0
 10
15.3223003349
 20
11.6865225561
 30
0.0
 10
15.3122232583
 20
11.6862968143
 30
0.0
 10
15.3071221092
 20
11.6862968143
 30
0.0
  0
SPLINE
  5
398
100
AcDbEntity
  8
LAYER_CUT_FEAT
100
AcDbSpline
 62
7
  6
CONTINUOUS
 70
0
 71
3
 72
22
 73
18
 74
0
 42
0.0000001
 43
0.0000001
 44
0.0000000001
 40
0.0
 40
0.0
 40
0.0
 40
0.0
 40
0.138119746
 40
0.2053664285
 40
0.2714549226
 40
0.3364371368
 40
0.4003725798
 40
0.4633278425
 40
0.5253764101
 40
0.5865986145
 40
0.6470813095
 40
0.7069174418
 40
0.7662055029
 40
0.8250488587
 40
0.8835549592
 40
0.9418344156
 40
1.0
 40
1.0
 40
1.0
 40
1.0
 10
16.3337422242
 20
12.3019038657
 30
0.0
 10
16.3401848379
 20
12.2887751995
 30
0.0
 10
16.3490622558
 20
12.2688944197
 30
0.0
 10
16.3591872261
 20
12.2419887724
 30
0.0
 10
16.3657709836
 20
12.2220426825
 30
0.0
 10
16.3714046218
 20
12.202172066
 30
0.0
 10
16.3760828215
 20
12.182395351
 30
0.0
 10
16.3798008444
 20
12.1627315952
 30
0.0
 10
16.3825549162
 20
12.1431995891
 30
0.0
 10
16.3843421525
 20
12.1238180965
 30
0.0
 10
16.3851606318
 20
12.1046057667
 30
0.0
 10
16.3850093594
 20
12.0855811399
 30
0.0
 10
16.3838882742
 20
12.0667626065
 30
0.0
 10
16.3817982881
 20
12.0481684675
 30
0.0
 10
16.3787412484
 20
12.029816608
 30
0.0
 10
16.3747202365
 20
12.0117255654
 30
0.0
 10
16.371397867
 20
11.999844945
 30
0.0
 10
16.369579548
 20
11.9939608573
 30
0.0
  0
SPLINE
  5
399
100
AcDbEntity
  8
02___PRT_ALL_AXES
100
AcDbSpline
 62
7
  6
CONTINUOUS
 70
0
 71
3
 72
29
 73
25
 74
0
 42
0.0000001
 43
0.0000001
 44
0.0000000001
 40
0.0
 40
0.0
 40
0.0
 40
0.0
 40
0.0683179523
 40
0.1021577332
 40
0.1357786171
 40
0.2023578052
 40
0.2680658625
 40
0.3006004283
 40
0.3329219116
 40
0.3969275372
 40
0.4601182576
 40
0.5225282587
 40
0.5841986036
 40
0.6451769047
 40
0.6754281507
 40
0.7055271177
 40
0.7354815162
 40
0.7652993932
 40
0.8245493703
 40
0.8833594
 40
0.9126289872
 40
0.9418184119
 40
0.9709383936
 40
1.0
 40
1.0
 40
1.0
 40
1.0
 10
15.0625910785
 20
12.7450287911
 30
0.0
 10
15.0656426656
 20
12.7450287911
 30
0.0
 10
15.070207429
 20
12.7448940938
 30
0.0
 10
15.0762558351
 20
12.7444379695
 30
0.0
 10
15.0822102702
 20
12.7438041929
 30
0.0
 10
15.0895399473
 20
12.7426770138
 30
0.0
 10
15.0967359184
 20
12.7410959731
 30
0.0
 10
15.102364851
 20
12.7395669944
 30
0.0
 10
15.1078677792
 20
12.737876285
 30
0.0
 10
15.1145720411
 20
12.735446357
 30
0.0
 10
15.122326842
 20
12.7320258324
 30
0.0
 10
15.1297356096
 20
12.7281275852
 30
0.0
 10
15.1367687711
 20
12.723771682
 30
0.0
 10
15.1423091458
 20
12.7197671375
 30
0.0
 10
15.1465227702
 20
12.7163573871
 30
0.0
 10
15.1495644114
 20
12.71370664
 30
0.0
 10
15.1524924735
 20
12.710959138
 30
0.0
 10
15.1562327801
 20
12.7071795643
 30
0.0
 10
15.1606143192
 20
12.702227863
 30
0.0
 10
15.1645948767
 20
12.6969788811
 30
0.0
 10
15.1675159793
 20
12.6926296099
 30
0.0
 10
15.1695713428
 20
12.6892999488
 30
0.0
 10
15.1714920792
 20
12.6859016417
 30
0.0
 10
15.1726825501
 20
12.683590649
 30
0.0
 10
15.173254419
 20
12.6824252958
 30
0.0
  0
SPLINE
  5
39A
100
AcDbEntity
  8
LAYER_FEATURE
100
AcDbSpline
 62
7
  6
CONTINUOUS
 70
0
 71
3
 72
40
 73
36
 74
0
 42
0.0000001
 43
0.0000001
 44
0.0000000001
 40
0.0
 40
0.0
 40
0.0
 40
0.0
 40
0.0475533836
 40
0.0938226825
 40
0.138749777
 40
0.1822938521
 40
0.2244187238
 40
0.2650921749
 40
0.3042902565
 40
0.3419970541
 40
0.3782059451
 40
0.4129201222
 40
0.4461546773
 40
0.4779377497
 40
0.5083122147
 40
0.5373380122
 40
0.5650934923
 40
0.5785276709
 40
0.5916833682
 40
0.617218648
 40
0.6418495731
 40
0.6657441702
 40
0.6890916574
 40
0.7120987791
 40
0.7349838199
 40
0.7579694301
 40
0.7812747098
 40
0.8051077306
 40
0.8296596417
 40
0.8551006878
 40
0.8815779522
 40
0.9092154679
 40
0.9381144308
 40
0.9683554722
 40
1.0
 40
1.0
 40
1.0
 40
1.0
 10
16.0863632831
 20
12.1386694343
 30
0.0
 10
16.0867996436
 20
12.1400814972
 30
0.0
 10
16.087693872
 20
12.1428573559
 30
0.0
 10
16.0891203989
 20
12.1469273845
 30
0.0
 10
16.0906118471
 20
12.1508410787
 30
0.0
 10
16.0921655264
 20
12.1545914791
 30
0.0
 10
16.0937787578
 20
12.1581721966
 30
0.0
 10
16.0954487937
 20
12.1615770267
 30
0.0
 10
16.0971727023
 20
12.1648000731
 30
0.0
 10
16.098947568
 20
12.1678357516
 30
0.0
 10
16.100770307
 20
12.1706788539
 30
0.0
 10
16.1026378626
 20
12.1733244573
 30
0.0
 10
16.1045470656
 20
12.1757680138
 30
0.0
 10
16.1064947164
 20
12.1780053036
 30
0.0
 10
16.1084776499
 20
12.180032438
 30
0.0
 10
16.110492482
 20
12.1818458302
 30
0.0
 10
16.11221393
 20
12.1831905555
 30
0.0
 10
16.1136030607
 20
12.1841520804
 30
0.0
 10
16.1149710011
 20
12.1850206388
 30
0.0
 10
16.1166963933
 20
12.1859727065
 30
0.0
 10
16.1188060334
 20
12.1869014707
 30
0.0
 10
16.1209306198
 20
12.1876030578
 30
0.0
 10
16.1230661794
 20
12.1880755927
 30
0.0
 10
16.1252085499
 20
12.1883178498
 30
0.0
 10
16.1273533649
 20
12.1883290166
 30
0.0
 10
16.1294961687
 20
12.1881091535
 30
0.0
 10
16.131632572
 20
12.1876588393
 30
0.0
 10
16.1337583871
 20
12.1869793737
 30
0.0
 10
16.1358696838
 20
12.186072501
 30
0.0
 10
16.137962747
 20
12.1849403052
 30
0.0
 10
16.1400341095
 20
12.183585254
 30
0.0
 10
16.1420803374
 20
12.1820099619
 30
0.0
 10
16.144098189
 20
12.1802174131
 30
0.0
 10
16.1460842842
 20
12.1782108656
 30
0.0
 10
16.1473557676
 20
12.1767661233
 30
0.0
 10
16.1479859935
 20
12.1760110756
 30
0.0
  0
SPLINE
  5
39B
100
AcDbEntity
  8
02___PRT_ALL_AXES
100
AcDbSpline
 62
7
  6
CONTINUOUS
 70
0
 71
3
 72
65
 73
61
 74
0
 42
0.0000001
 43
0.0000001
 44
0.0000000001
 40
0.0
 40
0.0
 40
0.0
 40
0.0
 40
0.0142364958
 40
0.0288835084
 40
0.0439359846
 40
0.0593896837
 40
0.0752380405
 40
0.091472149
 40
0.1080815749
 40
0.1250544403
 40
0.1423773206
 40
0.1600354873
 40
0.178012968
 40
0.1962926505
 40
0.2148563929
 40
0.233685056
 40
0.2527586324
 40
0.2720562576
 40
0.3112350914
 40
0.3510418935
 40
0.391285389
 40
0.4317656067
 40
0.4722750527
 40
0.5126000221
 40
0.5525220507
 40
0.5918198449
 40
0.6302715429
 40
0.6491116612
 40
0.6676582749
 40
0.6858848364
 40
0.7037654154
 40
0.7212747148
 40
0.7383883748
 40
0.7550828891
 40
0.7713359705
 40
0.7871265351
 40
0.8024348549
 40
0.8172428713
 40
0.8315340779
 40
0.8452940382
 40
0.858510247
 40
0.8711725872
 40
0.8832735191
 40
0.894808279
 40
0.9057755076
 40
0.9161773609
 40
0.9260204493
 40
0.9353162417
 40
0.9440820781
 40
0.9523422007
 40
0.960128814
 40
0.967483561
 40
0.9744584843
 40
0.9811170649
 40
0.9843520108
 40
0.9875368524
 40
0.9906825106
 40
0.9938003853
 40
0.9969022283
 40
1.0
 40
1.0
 40
1.0
 40
1.0
 10
16.1660836531
 20
12.1855798197
 30
0.0
 10
16.1667382077
 20
12.1842459776
 30
0.0
 10
16.1680116293
 20
12.1815127433
 30
0.0
 10
16.1697911172
 20
12.1772857012
 30
0.0
 10
16.1714646657
 20
12.1728794544
 30
0.0
 10
16.1730301714
 20
12.1683010671
 30
0.0
 10
16.1744859991
 20
12.1635575458
 30
0.0
 10
16.1758307178
 20
12.1586562169
 30
0.0
 10
16.1770634001
 20
12.1536046917
 30
0.0
 10
16.1781833132
 20
12.1484107288
 30
0.0
 10
16.1791902054
 20
12.1430822972
 30
0.0
 10
16.1800840552
 20
12.1376275132
 30
0.0
 10
16.1808651923
 20
12.1320546414
 30
0.0
 10
16.1815342859
 20
12.1263720726
 30
0.0
 10
16.1820922053
 20
12.120588294
 30
0.0
 10
16.18254021
 20
12.1147119011
 30
0.0
 10
16.1828797072
 20
12.1087515374
 30
0.0
 10
16.1831915252
 20
12.1006636631
 30
0.0
 10
16.1833150875
 20
12.0904049187
 30
0.0
 10
16.1830623253
 20
12.0779622044
 30
0.0
 10
16.1824295647
 20
12.065397185
 30
0.0
 10
16.1814393546
 20
12.0527819435
 30
0.0
 10
16.1801158622
 20
12.0401889071
 30
0.0
 10
16.1784844055
 20
12.0276909317
 30
0.0
 10
16.1765709703
 20
12.0153610401
 30
0.0
 10
16.1744017328
 20
12.0032722441
 30
0.0
 10
16.1723891011
 20
11.9933935858
 30
0.0
 10
16.1706700605
 20
11.9856674832
 30
0.0
 10
16.1693411054
 20
11.9800174425
 30
0.0
 10
16.1679667532
 20
11.9744814033
 30
0.0
 10
16.1665498725
 20
11.9690679209
 30
0.0
 10
16.165093254
 20
11.9637853755
 30
0.0
 10
16.1635995485
 20
11.9586419615
 30
0.0
 10
16.1620713042
 20
11.9536456353
 30
0.0
 10
16.160510918
 20
11.9488041181
 30
0.0
 10
16.1589206564
 20
11.9441248577
 30
0.0
 10
16.1573026379
 20
11.9396150109
 30
0.0
 10
16.1556588277
 20
11.9352814386
 30
0.0
 10
16.1539910425
 20
11.9311306623
 30
0.0
 10
16.1523009404
 20
11.9271688842
 30
0.0
 10
16.1505900278
 20
11.9234019464
 30
0.0
 10
16.1488596538
 20
11.9198353445
 30
0.0
 10
16.1471110241
 20
11.9164742091
 30
0.0
 10
16.1453451759
 20
11.9133233083
 30
0.0
 10
16.1435630271
 20
11.9103870445
 30
0.0
 10
16.1417653109
 20
11.9076694624
 30
0.0
 10
16.1399526457
 20
11.9051742472
 30
0.0
 10
16.1381254739
 20
11.9029047446
 30
0.0
 10
16.1362840825
 20
11.9008639929
 30
0.0
 10
16.1344286177
 20
11.8990547252
 30
0.0
 10
16.1325590437
 20
11.8974795084
 30
0.0
 10
16.1306751997
 20
11.8961406823
 30
0.0
 10
16.1287770995
 20
11.8950406853
 30
0.0
 10
16.127167633
 20
11.8943179855
 30
0.0
 10
16.1258787296
 20
11.8938668424
 30
0.0
 10
16.12491828
 20
11.8935923628
 30
0.0
 10
16.1239549982
 20
11.8933787533
 30
0.0
 10
16.122988928
 20
11.8932261194
 30
0.0
 10
16.1220202229
 20
11.8931345257
 30
0.0
 10
16.1213730149
 20
11.8931142077
 30
0.0
 10
16.121049716
 20
11.8931142067
 30
0.0
  0
SPLINE
  5
39C
100
AcDbEntity
  8
02___PRT_ALL_AXES
100
AcDbSpline
 62
7
  6
CONTINUOUS
 70
0
 71
3
 72
72
 73
68
 74
0
 42
0.0000001
 43
0.0000001
 44
0.0000000001
 40
0.0
 40
0.0
 40
0.0
 40
0.0
 40
0.017178851
 40
0.0345304108
 40
0.0520444107
 40
0.0697101032
 40
0.0875164389
 40
0.1054520336
 40
0.1235052188
 40
0.1416640662
 40
0.1599164184
 40
0.1782499169
 40
0.1966520308
 40
0.2151100845
 40
0.2336112852
 40
0.2521427504
 40
0.2706915345
 40
0.2892446564
 40
0.3077891257
 40
0.3263119702
 40
0.3448002622
 40
0.3632411459
 40
0.3816218645
 40
0.3999297875
 40
0.4181524381
 40
0.4362775215
 40
0.4542929532
 40
0.4721868876
 40
0.4899477479
 40
0.5075642559
 40
0.525025463
 40
0.5423207815
 40
0.5594400176
 40
0.5763734046
 40
0.5931116382
 40
0.6096459125
 40
0.6259679572
 40
0.6420700775
 40
0.6579451942
 40
0.6735868865
 40
0.6889894364
 40
0.7041478757
 40
0.7190580341
 40
0.7337165901
 40
0.7481211242
 40
0.7622701735
 40
0.7761632881
 40
0.7898010888
 40
0.8031853259
 40
0.8163189378
 40
0.8292061084
 40
0.8418523225
 40
0.8542644169
 40
0.860385531
 40
0.866451324
 40
0.8784213132
 40
0.8901862079
 40
0.9017586003
 40
0.9131525422
 40
0.9243835154
 40
0.9354683776
 40
0.9464252805
 40
0.95727356
 40
0.968033596
 40
0.9787266446
 40
0.989374644
 40
1.0
 40
1.0
 40
1.0
 40
1.0
 10
14.9472464754
 20
12.3717735187
 30
0.0
 10
14.9562118536
 20
12.3717735187
 30
0.0
 10
14.9742333196
 20
12.371576256
 30
0.0
 10
15.0013822644
 20
12.3706997158
 30
0.0
 10
15.0287607258
 20
12.3692419156
 30
0.0
 10
15.0563400609
 20
12.3672043678
 30
0.0
 10
15.0840916008
 20
12.3645891994
 30
0.0
 10
15.1119864562
 20
12.3613991313
 30
0.0
 10
15.1399955966
 20
12.3576374854
 30
0.0
 10
15.168089869
 20
12.3533081772
 30
0.0
 10
15.196240031
 20
12.348415713
 30
0.0
 10
15.2244167813
 20
12.3429651857
 30
0.0
 10
15.2525907898
 20
12.3369622694
 30
0.0
 10
15.280732729
 20
12.3304132128
 30
0.0
 10
15.308813304
 20
12.3233248334
 30
0.0
 10
15.3368032835
 20
12.3157045101
 30
0.0
 10
15.3646735301
 20
12.3075601754
 30
0.0
 10
15.392395031
 20
12.2989003075
 30
0.0
 10
15.4199389282
 20
12.2897339209
 30
0.0
 10
15.4472765485
 20
12.2800705577
 30
0.0
 10
15.4743794338
 20
12.2699202778
 30
0.0
 10
15.5012193709
 20
12.2592936474
 30
0.0
 10
15.5277684203
 20
12.2482017286
 30
0.0
 10
15.5539989461
 20
12.2366560674
 30
0.0
 10
15.5798836444
 20
12.2246686817
 30
0.0
 10
15.6053955719
 20
12.2122520487
 30
0.0
 10
15.6305081741
 20
12.1994190916
 30
0.0
 10
15.6551953129
 20
12.1861831664
 30
0.0
 10
15.6794312942
 20
12.1725580478
 30
0.0
 10
15.7031908948
 20
12.1585579145
 30
0.0
 10
15.7264493879
 20
12.1441973341
 30
0.0
 10
15.7491825697
 20
12.1294912478
 30
0.0
 10
15.7713667838
 20
12.1144549542
 30
0.0
 10
15.7929789462
 20
12.0991040937
 30
0.0
 10
15.8139965692
 20
12.0834546312
 30
0.0
 10
15.8343977844
 20
12.0675228396
 30
0.0
 10
15.8541613661
 20
12.0513252825
 30
0.0
 10
15.8732667526
 20
12.0348787964
 30
0.0
 10
15.8916940672
 20
12.0182004725
 30
0.0
 10
15.9094241384
 20
12.0013076386
 30
0.0
 10
15.9264385193
 20
11.9842178401
 30
0.0
 10
15.9427195057
 20
11.9669488222
 30
0.0
 10
15.9582501542
 20
11.9495185098
 30
0.0
 10
15.9730142982
 20
11.9319449893
 30
0.0
 10
15.9869965638
 20
11.9142464891
 30
0.0
 10
16.0001823845
 20
11.8964413612
 30
0.0
 10
16.0125580144
 20
11.8785480606
 30
0.0
 10
16.0241105393
 20
11.8605851296
 30
0.0
 10
16.0348278908
 20
11.8425711712
 30
0.0
 10
16.0446988461
 20
11.8245248585
 30
0.0
 10
16.0537130745
 20
11.806464819
 30
0.0
 10
16.0618610102
 20
11.7884099763
 30
0.0
 10
16.0679499214
 20
11.7733146168
 30
0.0
 10
16.072372965
 20
11.7612618568
 30
0.0
 10
16.076462044
 20
11.7493354477
 30
0.0
 10
16.0810260804
 20
11.7344619184
 30
0.0
 10
16.0856319817
 20
11.7166139638
 30
0.0
 10
16.0893376282
 20
11.6988641083
 30
0.0
 10
16.0921388623
 20
11.6812310423
 30
0.0
 10
16.0940325386
 20
11.6637331346
 30
0.0
 10
16.095016433
 20
11.6463887246
 30
0.0
 10
16.0950892851
 20
11.6292160315
 30
0.0
 10
16.0942508001
 20
11.6122331356
 30
0.0
 10
16.0925016881
 20
11.5954580285
 30
0.0
 10
16.0898435858
 20
11.578908298
 30
0.0
 10
16.0862793988
 20
11.56260217
 30
0.0
 10
16.0833001212
 20
11.5518999228
 30
0.0
 10
16.081662914
 20
11.5466019133
 30
0.0
  0
SPLINE
  5
39D
100
AcDbEntity
  8
LAYER_FEATURE
100
AcDbSpline
 62
7
  6
CONTINUOUS
 70
0
 71
3
 72
63
 73
59
 74
0
 42
0.0000001
 43
0.0000001
 44
0.0000000001
 40
0.0
 40
0.0
 40
0.0
 40
0.0
 40
0.0176370354
 40
0.0357029489
 40
0.0541720361
 40
0.0730214824
 40
0.0922269035
 40
0.111762006
 40
0.1517107941
 40
0.1926445413
 40
0.2343271505
 40
0.2765146458
 40
0.3189578032
 40
0.361404778
 40
0.4036036896
 40
0.4453052013
 40
0.4862651318
 40
0.5063935874
 40
0.5262488296
 40
0.545802974
 40
0.5650290675
 40
0.5839010088
 40
0.6023938547
 40
0.620483753
 40
0.6381481786
 40
0.655366046
 40
0.672117762
 40
0.688385581
 40
0.7041535189
 40
0.7194078434
 40
0.7341370599
 40
0.7483323306
 40
0.7619877634
 40
0.7751006561
 40
0.7876721504
 40
0.7997074138
 40
0.8112165107
 40
0.8222147795
 40
0.8327236724
 40
0.8427714698
 40
0.8476342193
 40
0.8523957802
 40
0.8616367452
 40
0.8705485475
 40
0.8791919663
 40
0.8876354771
 40
0.8959539493
 40
0.9042265399
 40
0.9125340325
 40
0.9209559554
 40
0.9295679229
 40
0.938439367
 40
0.9476321588
 40
0.9571997997
 40
0.9671872784
 40
0.9776314879
 40
0.9885615925
 40
1.0
 40
1.0
 40
1.0
 40
1.0
 10
16.0863632831
 20
12.1386694343
 30
0.0
 10
16.0859147164
 20
12.1372178719
 30
0.0
 10
16.0850426909
 20
12.1342682055
 30
0.0
 10
16.083823014
 20
12.1297635412
 30
0.0
 10
16.082677715
 20
12.1251317305
 30
0.0
 10
16.0816088153
 20
12.1203810636
 30
0.0
 10
16.0806181332
 20
12.1155197205
 30
0.0
 10
16.0793948327
 20
12.1088521922
 30
0.0
 10
16.0780774034
 20
12.1003007353
 30
0.0
 10
16.07684393
 20
12.0898129194
 30
0.0
 10
16.0759550572
 20
12.0790967944
 30
0.0
 10
16.0754170455
 20
12.0682272481
 30
0.0
 10
16.0752336895
 20
12.0572801127
 30
0.0
 10
16.0754062796
 20
12.0463318272
 30
0.0
 10
16.0759335964
 20
12.0354587912
 30
0.0
 10
16.07681193
 20
12.0247369997
 30
0.0
 10
16.0778370638
 20
12.0159399988
 30
0.0
 10
16.078830792
 20
12.0090381938
 30
0.0
 10
16.079654914
 20
12.0039758132
 30
0.0
 10
16.0805607146
 20
11.9990064006
 30
0.0
 10
16.0815465784
 20
11.9941386232
 30
0.0
 10
16.0826108166
 20
11.9893809984
 30
0.0
 10
16.0837515277
 20
11.9847418338
 30
0.0
 10
16.0849667385
 20
11.9802292372
 30
0.0
 10
16.086254314
 20
11.9758510874
 30
0.0
 10
16.0876119886
 20
11.9716150235
 30
0.0
 10
16.0890374193
 20
11.9675284419
 30
0.0
 10
16.0905280727
 20
11.9635984559
 30
0.0
 10
16.0920813961
 20
11.9598319238
 30
0.0
 10
16.0936946429
 20
11.9562353877
 30
0.0
 10
16.0953650364
 20
11.9528151072
 30
0.0
 10
16.0970896781
 20
11.9495770194
 30
0.0
 10
16.0988655737
 20
11.9465267295
 30
0.0
 10
16.100689713
 20
11.9436695386
 30
0.0
 10
16.102558931
 20
11.9410103622
 30
0.0
 10
16.1044701202
 20
11.9385538307
 30
0.0
 10
16.1064200217
 20
11.9363041783
 30
0.0
 10
16.1084054537
 20
11.9342653221
 30
0.0
 10
16.1104230581
 20
11.9324409252
 30
0.0
 10
16.1121470529
 20
11.9310874404
 30
0.0
 10
16.1135383767
 20
11.9301193306
 30
0.0
 10
16.1149084089
 20
11.9292446435
 30
0.0
 10
16.1166364961
 20
11.9282853372
 30
0.0
 10
16.1187497041
 20
11.9273485727
 30
0.0
 10
16.1208780127
 20
11.9266397855
 30
0.0
 10
16.1230174404
 20
11.926160864
 30
0.0
 10
16.1251638123
 20
11.9259131333
 30
0.0
 10
16.1273127297
 20
11.9258972897
 30
0.0
 10
16.1294597073
 20
11.9261134553
 30
0.0
 10
16.1316003405
 20
11.9265608935
 30
0.0
 10
16.1337303912
 20
11.9272384342
 30
0.0
 10
16.135845915
 20
11.9281442557
 30
0.0
 10
16.1379431827
 20
11.9292762683
 30
0.0
 10
16.1400186645
 20
11.9306320456
 30
0.0
 10
16.1420689803
 20
11.9322088653
 30
0.0
 10
16.144090776
 20
11.9340038367
 30
0.0
 10
16.1460807533
 20
11.9360135812
 30
0.0
 10
16.147354594
 20
11.937460895
 30
0.0
 10
16.1479859933
 20
11.9382173385
 30
0.0
  0
SPLINE
  5
39E
100
AcDbEntity
  8
LAYER_FEATURE
100
AcDbSpline
 62
7
  6
CONTINUOUS
 70
0
 71
3
 72
12
 73
8
 74
0
 42
0.0000001
 43
0.0000001
 44
0.0000000001
 40
0.0
 40
0.0
 40
0.0
 40
0.0
 40
0.2724036162
 40
0.5291029852
 40
0.6519055567
 40
0.7712036261
 40
1.0
 40
1.0
 40
1.0
 40
1.0
 10
16.123175498
 20
11.9084931163
 30
0.0
 10
16.1221529134
 20
11.9072680005
 30
0.0
 10
16.1200850704
 20
11.9049547217
 30
0.0
 10
16.117320609
 20
11.9023129452
 30
0.0
 10
16.1150759156
 20
11.9004404824
 30
0.0
 10
16.1128762928
 20
11.8987746595
 30
0.0
 10
16.1111602351
 20
11.8976639279
 30
0.0
 10
16.1099953943
 20
11.8970008574
 30
0.0
  0
SPLINE
  5
39F
100
AcDbEntity
  8
LAYER_CHAMFER_FEAT
100
AcDbSpline
 62
7
  6
CONTINUOUS
 70
0
 71
3
 72
73
 73
69
 74
0
 42
0.0000001
 43
0.0000001
 44
0.0000000001
 40
0.0
 40
0.0
 40
0.0
 40
0.0
 40
0.0157581792
 40
0.0311478662
 40
0.0461653865
 40
0.0608098076
 40
0.0750831744
 40
0.0889907477
 40
0.1025411984
 40
0.1091868333
 40
0.1157481233
 40
0.1286249886
 40
0.1411931613
 40
0.153476711
 40
0.1655037221
 40
0.1773061992
 40
0.1889198182
 40
0.2003835286
 40
0.2117390192
 40
0.2230300435
 40
0.2343016134
 40
0.2455991253
 40
0.2569674642
 40
0.2684501305
 40
0.2800884619
 40
0.2919209738
 40
0.303982834
 40
0.3163054897
 40
0.3289164616
 40
0.3353382876
 40
0.3418406525
 40
0.3550947267
 40
0.368695621
 40
0.3826550997
 40
0.3969813384
 40
0.4116791079
 40
0.4267500149
 40
0.4421927334
 40
0.4580032103
 40
0.4741748572
 40
0.4906987764
 40
0.5075639536
 40
0.5247574178
 40
0.5422644052
 40
0.5600685393
 40
0.5781519764
 40
0.5964955284
 40
0.6150788047
 40
0.6338803525
 40
0.6528777713
 40
0.6720478185
 40
0.6913665366
 40
0.7108093655
 40
0.7303512427
 40
0.7499667068
 40
0.7696300104
 40
0.7893152193
 40
0.8089963099
 40
0.8286472768
 40
0.8482422338
 40
0.867755512
 40
0.8871617689
 40
0.9064360722
 40
0.9255540794
 40
0.9444920388
 40
0.9632267129
 40
0.981736926
 40
1.0
 40
1.0
 40
1.0
 40
1.0
 10
15.0591093244
 20
11.9829064784
 30
0.0
 10
15.055797433
 20
11.9821275936
 30
0.0
 10
15.0492797418
 20
11.980462577
 30
0.0
 10
15.0397279109
 20
11.977605362
 30
0.0
 10
15.0305331232
 20
11.9744230238
 30
0.0
 10
15.0217136029
 20
11.9709217355
 30
0.0
 10
15.0132865576
 20
11.9671081796
 30
0.0
 10
15.0052686975
 20
11.9629897937
 30
0.0
 10
14.9989002007
 20
11.9592864814
 30
0.0
 10
14.9940304278
 20
11.9561772937
 30
0.0
 10
14.9893706567
 20
11.9530137039
 30
0.0
 10
14.9838227073
 20
11.9488866446
 30
0.0
 10
14.9775907063
 20
11.943633123
 30
0.0
 10
14.9718383835
 20
11.9381196304
 30
0.0
 10
14.9665775022
 20
11.9323568911
 30
0.0
 10
14.9618187514
 20
11.9263560947
 30
0.0
 10
14.9575719169
 20
11.9201290259
 30
0.0
 10
14.9538458113
 20
11.9136880104
 30
0.0
 10
14.9506482333
 20
11.9070459199
 30
0.0
 10
14.9479858368
 20
11.9002161716
 30
0.0
 10
14.9458641279
 20
11.893212646
 30
0.0
 10
14.9442874378
 20
11.8860496224
 30
0.0
 10
14.9432588864
 20
11.8787417125
 30
0.0
 10
14.9427803248
 20
11.8713037877
 30
0.0
 10
14.9428524306
 20
11.8637508871
 30
0.0
 10
14.9434747385
 20
11.8560981883
 30
0.0
 10
14.9446456626
 20
11.8483609054
 30
0.0
 10
14.9463624442
 20
11.8405545051
 30
0.0
 10
14.9482335842
 20
11.8340436336
 30
0.0
 10
14.9499935738
 20
11.8288182693
 30
0.0
 10
14.9519549032
 20
11.8235167342
 30
0.0
 10
14.9547459235
 20
11.8168730814
 30
0.0
 10
14.958598812
 20
11.808943558
 30
0.0
 10
14.9629689177
 20
11.8010216532
 30
0.0
 10
14.9678474788
 20
11.7931229739
 30
0.0
 10
14.973224835
 20
11.7852628309
 30
0.0
 10
14.9790903569
 20
11.77745654
 30
0.0
 10
14.9854325035
 20
11.7697193142
 30
0.0
 10
14.992238816
 20
11.7620662585
 30
0.0
 10
14.999495908
 20
11.7545123033
 30
0.0
 10
15.0071895296
 20
11.7470722091
 30
0.0
 10
15.0153045915
 20
11.7397605357
 30
0.0
 10
15.0238251724
 20
11.7325915991
 30
0.0
 10
15.0327345388
 20
11.7255794276
 30
0.0
 10
15.0420152068
 20
11.7187377621
 30
0.0
 10
15.0516489718
 20
11.7120800285
 30
0.0
 10
15.0616169207
 20
11.7056192828
 30
0.0
 10
15.0718994767
 20
11.6993681912
 30
0.0
 10
15.0824764533
 20
11.693339024
 30
0.0
 10
15.0933270899
 20
11.6875436316
 30
0.0
 10
15.1044300714
 20
11.6819933837
 30
0.0
 10
15.1157635872
 20
11.6766991731
 30
0.0
 10
15.1273053797
 20
11.6716714029
 30
0.0
 10
15.1390327826
 20
11.6669199618
 30
0.0
 10
15.1509227519
 20
11.6624541695
 30
0.0
 10
15.1629519286
 20
11.6582827952
 30
0.0
 10
15.1750966845
 20
11.6544140428
 30
0.0
 10
15.1873331622
 20
11.6508555204
 30
0.0
 10
15.1996373178
 20
11.6476142038
 30
0.0
 10
15.2119849795
 20
11.6446964592
 30
0.0
 10
15.2243518942
 20
11.6421080316
 30
0.0
 10
15.2367137655
 20
11.6398540076
 30
0.0
 10
15.249046313
 20
11.6379387962
 30
0.0
 10
15.2613253221
 20
11.6363661658
 30
0.0
 10
15.2735266217
 20
11.6351392344
 30
0.0
 10
15.2856264337
 20
11.6342603508
 30
0.0
 10
15.2976006788
 20
11.6337313352
 30
0.0
 10
15.305540629
 20
11.6336116813
 30
0.0
 10
15.309483692
 20
11.6336116813
 30
0.0
  0
SPLINE
  5
3A0
100
AcDbEntity
  8
LAYER_FEATURE
100
AcDbSpline
 62
7
  6
CONTINUOUS
 70
0
 71
3
 72
54
 73
50
 74
0
 42
0.0000001
 43
0.0000001
 44
0.0000000001
 40
0.0
 40
0.0
 40
0.0
 40
0.0
 40
0.0146678075
 40
0.0291027343
 40
0.0433122489
 40
0.0573094381
 40
0.0711087731
 40
0.0847274542
 40
0.0981852669
 40
0.1115042037
 40
0.1247083385
 40
0.1378234925
 40
0.15087687
 40
0.1638966672
 40
0.1769116227
 40
0.189950553
 40
0.2030418847
 40
0.2162132028
 40
0.2294908383
 40
0.2428994859
 40
0.2564618727
 40
0.2701985176
 40
0.2841275339
 40
0.2982644658
 40
0.312622228
 40
0.3272110873
 40
0.3420386483
 40
0.3571098994
 40
0.3879819373
 40
0.4037894971
 40
0.4198365113
 40
0.4526133615
 40
0.4862461322
 40
0.520634106
 40
0.5556548794
 40
0.5911688407
 40
0.6270235045
 40
0.6630577351
 40
0.6991059315
 40
0.7350021472
 40
0.7705842096
 40
0.8056978834
 40
0.8402011041
 40
0.8739682652
 40
0.9068947052
 40
0.9389011615
 40
0.9545470252
 40
0.9699469578
 40
1.0
 40
1.0
 40
1.0
 40
1.0
 10
14.902048999
 20
12.6165631779
 30
0.0
 10
14.9015336138
 20
12.6148953905
 30
0.0
 10
14.900597302
 20
12.6115588324
 30
0.0
 10
14.8994760122
 20
12.6065251383
 30
0.0
 10
14.8986520867
 20
12.6015148991
 30
0.0
 10
14.8981276098
 20
12.5965404897
 30
0.0
 10
14.8979039448
 20
12.5916137596
 30
0.0
 10
14.8979817273
 20
12.5867466481
 30
0.0
 10
14.898360873
 20
12.581950935
 30
0.0
 10
14.8990405834
 20
12.5772382543
 30
0.0
 10
14.9000192663
 20
12.5726200615
 30
0.0
 10
14.9012946184
 20
12.5681076025
 30
0.0
 10
14.90286362
 20
12.5637118938
 30
0.0
 10
14.9047224588
 20
12.5594436595
 30
0.0
 10
14.9068666059
 20
12.5553133116
 30
0.0
 10
14.9092908464
 20
12.5513309348
 30
0.0
 10
14.9119892385
 20
12.5475062258
 30
0.0
 10
14.9149551443
 20
12.5438484584
 30
0.0
 10
14.9181813029
 20
12.5403664954
 30
0.0
 10
14.9216598262
 20
12.5370687546
 30
0.0
 10
14.925382189
 20
12.5339631454
 30
0.0
 10
14.9293393136
 20
12.5310571089
 30
0.0
 10
14.9335215885
 20
12.5283576113
 30
0.0
 10
14.9379188466
 20
12.5258710716
 30
0.0
 10
14.9425204437
 20
12.5236033858
 30
0.0
 10
14.9473152185
 20
12.5215599646
 30
0.0
 10
14.952291779
 20
12.5197456107
 30
0.0
 10
14.9592075586
 20
12.5176209386
 30
0.0
 10
14.9663884204
 20
12.5159950093
 30
0.0
 10
14.9737680727
 20
12.5148566962
 30
0.0
 10
14.981417673
 20
12.5140299334
 30
0.0
 10
14.9912356245
 20
12.5136259136
 30
0.0
 10
15.0032335982
 20
12.514132615
 30
0.0
 10
15.0154182882
 20
12.5156218394
 30
0.0
 10
15.0276728361
 20
12.5180789088
 30
0.0
 10
15.0398804523
 20
12.5214800397
 30
0.0
 10
15.0519244892
 20
12.525792562
 30
0.0
 10
15.0636898884
 20
12.5309751018
 30
0.0
 10
15.0750641554
 20
12.5369781201
 30
0.0
 10
15.0859385469
 20
12.5437442124
 30
0.0
 10
15.0962090501
 20
12.5512087963
 30
0.0
 10
15.1057774064
 20
12.5593007175
 30
0.0
 10
15.114552039
 20
12.5679428428
 30
0.0
 10
15.1224489397
 20
12.5770532084
 30
0.0
 10
15.1293920087
 20
12.58654472
 30
0.0
 10
15.1343655092
 20
12.5947603264
 30
0.0
 10
15.1377944692
 20
12.601437854
 30
0.0
 10
15.1408040578
 20
12.6080590812
 30
0.0
 10
15.1426794249
 20
12.6131460288
 30
0.0
 10
15.1437354039
 20
12.6165631779
 30
0.0
  0
SPLINE
  5
3A1
100
AcDbEntity
  8
LAYER_FEATURE
100
AcDbSpline
 62
7
  6
CONTINUOUS
 70
0
 71
3
 72
15
 73
11
 74
0
 42
0.0000001
 43
0.0000001
 44
0.0000000001
 40
0.0
 40
0.0
 40
0.0
 40
0.0
 40
0.1111314518
 40
0.2256122876
 40
0.343806931
 40
0.4660320957
 40
0.5925575351
 40
0.7236100968
 40
0.8593745787
 40
1.0
 40
1.0
 40
1.0
 40
1.0
 10
16.1074170766
 20
12.2185528436
 30
0.0
 10
16.108106395
 20
12.2182362811
 30
0.0
 10
16.1094830694
 20
12.2175429981
 30
0.0
 10
16.1115047999
 20
12.2163485187
 30
0.0
 10
16.1135098479
 20
12.2149864719
 30
0.0
 10
16.1154960302
 20
12.2134584419
 30
0.0
 10
16.1174614101
 20
12.2117661145
 30
0.0
 10
16.119403974
 20
12.2099112748
 30
0.0
 10
16.1213217661
 20
12.2078959802
 30
0.0
 10
16.1225604292
 20
12.2064721747
 30
0.0
 10
16.1231754975
 20
12.2057352938
 30
0.0
  0
SPLINE
  5
3A2
100
AcDbEntity
  8
02___PRT_ALL_AXES
100
AcDbSpline
 62
7
  6
CONTINUOUS
 70
0
 71
3
 72
24
 73
20
 74
0
 42
0.0000001
 43
0.0000001
 44
0.0000000001
 40
0.0
 40
0.0
 40
0.0
 40
0.0
 40
0.0534403558
 40
0.1069841599
 40
0.160914757
 40
0.2155100848
 40
0.2710374954
 40
0.3277491311
 40
0.385878213
 40
0.4456364811
 40
0.4761911203
 40
0.5072216912
 40
0.5707798048
 40
0.6364605344
 40
0.7043807342
 40
0.7746328283
 40
0.8472889983
 40
0.9224049059
 40
1.0
 40
1.0
 40
1.0
 40
1.0
 10
16.121049716
 20
12.2211142062
 30
0.0
 10
16.1221271061
 20
12.2211142083
 30
0.0
 10
16.124285213
 20
12.2210184135
 30
0.0
 10
16.1275045329
 20
12.2205861878
 30
0.0
 10
16.1306959905
 20
12.2198661299
 30
0.0
 10
16.1338507346
 20
12.2188594291
 30
0.0
 10
16.1369605791
 20
12.2175678708
 30
0.0
 10
16.1400174727
 20
12.2159936387
 30
0.0
 10
16.1430136313
 20
12.2141395892
 30
0.0
 10
16.1454357684
 20
12.2123770587
 30
0.0
 10
16.1473352604
 20
12.2108347932
 30
0.0
 10
16.1492381451
 20
12.2091774933
 30
0.0
 10
16.1515657105
 20
12.2069327419
 30
0.0
 10
16.1542482375
 20
12.2039963058
 30
0.0
 10
16.1568363601
 20
12.2008008477
 30
0.0
 10
16.1593243553
 20
12.1973521472
 30
0.0
 10
16.1617069563
 20
12.1936561554
 30
0.0
 10
16.163979149
 20
12.1897196851
 30
0.0
 10
16.1653944838
 20
12.186984199
 30
0.0
 10
16.1660836531
 20
12.1855798197
 30
0.0
  0
SPLINE
  5
3A3
100
AcDbEntity
  8
LAYER_FEATURE
100
AcDbSpline
 62
7
  6
CONTINUOUS
 70
0
 71
3
 72
28
 73
24
 74
0
 42
0.0000001
 43
0.0000001
 44
0.0000000001
 40
0.0
 40
0.0
 40
0.0
 40
0.0
 40
0.0272344782
 40
0.0549175092
 40
0.0830495783
 40
0.111630886
 40
0.1700990247
 40
0.1999781093
 40
0.2302613386
 40
0.2919459064
 40
0.3233119283
 40
0.3549868464
 40
0.4191311635
 40
0.4841311026
 40
0.549704929
 40
0.6155563881
 40
0.6813823343
 40
0.7468802544
 40
0.8117557979
 40
0.8757303985
 40
0.9073049568
 40
0.9385606267
 40
1.0
 40
1.0
 40
1.0
 40
1.0
 10
14.8818435717
 20
12.596174371
 30
0.0
 10
14.8824983798
 20
12.5982933307
 30
0.0
 10
14.8839325322
 20
12.6025318445
 30
0.0
 10
14.8864247914
 20
12.608821844
 30
0.0
 10
14.8892698418
 20
12.6150812711
 30
0.0
 10
14.8935557947
 20
12.623427671
 30
0.0
 10
14.8984949425
 20
12.6315865162
 30
0.0
 10
14.9040250982
 20
12.6395103508
 30
0.0
 10
14.9100456983
 20
12.6474008452
 30
0.0
 10
14.9166327107
 20
12.6549999849
 30
0.0
 10
14.9237265631
 20
12.6622718667
 30
0.0
 10
14.931241844
 20
12.6694022158
 30
0.0
 10
14.9412517401
 20
12.6778675266
 30
0.0
 10
14.954089578
 20
12.6871980347
 30
0.0
 10
14.9676826479
 20
12.6956557049
 30
0.0
 10
14.981900467
 20
12.7031594642
 30
0.0
 10
14.9966071943
 20
12.7096376392
 30
0.0
 10
15.0116623394
 20
12.7150283119
 30
0.0
 10
15.0269214934
 20
12.7192796466
 30
0.0
 10
15.0397437757
 20
12.7218505527
 30
0.0
 10
15.0499708607
 20
12.7232958425
 30
0.0
 10
15.0600403481
 20
12.7243210977
 30
0.0
 10
15.0675931614
 20
12.7246399841
 30
0.0
 10
15.0725964517
 20
12.7246399841
 30
0.0
  0
SPLINE
  5
3A4
100
AcDbEntity
  8
LAYER_FEATURE
100
AcDbSpline
 62
7
  6
CONTINUOUS
 70
0
 71
3
 72
22
 73
18
 74
0
 42
0.0000001
 43
0.0000001
 44
0.0000000001
 40
0.0
 40
0.0
 40
0.0
 40
0.0
 40
0.1404903569
 40
0.2090245811
 40
0.2763563436
 40
0.3424658984
 40
0.4073498823
 40
0.471020599
 40
0.5335073017
 40
0.5948566393
 40
0.6551330022
 40
0.7144184921
 40
0.7728124902
 40
0.8304307483
 40
0.8874039463
 40
0.9438756949
 40
1.0
 40
1.0
 40
1.0
 40
1.0
 10
15.0725964517
 20
12.7246399841
 30
0.0
 10
15.0782304599
 20
12.7246399841
 30
0.0
 10
15.0866219165
 20
12.7242411303
 30
0.0
 10
15.0976212179
 20
12.7228552807
 30
0.0
 10
15.1055961984
 20
12.7214151905
 30
0.0
 10
15.1133368917
 20
12.7195704802
 30
0.0
 10
15.1208187341
 20
12.7173269436
 30
0.0
 10
15.1280174644
 20
12.7146916391
 30
0.0
 10
15.1349098289
 20
12.7116728797
 30
0.0
 10
15.1414734847
 20
12.7082802052
 30
0.0
 10
15.1476871101
 20
12.7045243677
 30
0.0
 10
15.1535304522
 20
12.7004173095
 30
0.0
 10
15.1589844043
 20
12.6959721282
 30
0.0
 10
15.1640310393
 20
12.6912031108
 30
0.0
 10
15.1686538045
 20
12.6861254973
 30
0.0
 10
15.1728371438
 20
12.6807562143
 30
0.0
 10
15.1753298539
 20
12.6769846993
 30
0.0
 10
15.1764960343
 20
12.6750596605
 30
0.0
  0
SPLINE
  5
3A5
100
AcDbEntity
  8
LAYER_FEATURE
100
AcDbSpline
 62
7
  6
CONTINUOUS
 70
0
 71
3
 72
54
 73
50
 74
0
 42
0.0000001
 43
0.0000001
 44
0.0000000001
 40
0.0
 40
0.0
 40
0.0
 40
0.0
 40
0.0300530422
 40
0.0454529748
 40
0.0610988385
 40
0.0931052948
 40
0.1260317348
 40
0.1597988959
 40
0.1943021166
 40
0.2294157904
 40
0.2649978528
 40
0.3008940685
 40
0.3369422649
 40
0.3729764955
 40
0.4088311593
 40
0.4443451206
 40
0.479365894
 40
0.5137538678
 40
0.5473866385
 40
0.5801634887
 40
0.5962105029
 40
0.6120180627
 40
0.6428901006
 40
0.6579613517
 40
0.6727889127
 40
0.687377772
 40
0.7017355342
 40
0.7158724661
 40
0.7298014824
 40
0.7435381273
 40
0.7571005141
 40
0.7705091617
 40
0.7837867972
 40
0.7969581153
 40
0.810049447
 40
0.8230883773
 40
0.8361033328
 40
0.84912313
 40
0.8621765075
 40
0.8752916615
 40
0.8884957963
 40
0.9018147331
 40
0.9152725458
 40
0.9288912269
 40
0.9426905619
 40
0.9566877511
 40
0.9708972657
 40
0.9853321925
 40
1.0
 40
1.0
 40
1.0
 40
1.0
 10
14.902048999
 20
12.6165631779
 30
0.0
 10
14.903104978
 20
12.619980327
 30
0.0
 10
14.9049803452
 20
12.6250672746
 30
0.0
 10
14.9079899338
 20
12.6316885018
 30
0.0
 10
14.9114188937
 20
12.6383660295
 30
0.0
 10
14.9163923942
 20
12.6465816359
 30
0.0
 10
14.9233354632
 20
12.6560731474
 30
0.0
 10
14.9312323639
 20
12.665183513
 30
0.0
 10
14.9400069965
 20
12.6738256383
 30
0.0
 10
14.9495753528
 20
12.6819175595
 30
0.0
 10
14.959845856
 20
12.6893821434
 30
0.0
 10
14.9707202475
 20
12.6961482357
 30
0.0
 10
14.9820945145
 20
12.7021512541
 30
0.0
 10
14.9938599137
 20
12.7073337939
 30
0.0
 10
15.0059039506
 20
12.7116463161
 30
0.0
 10
15.0181115669
 20
12.715047447
 30
0.0
 10
15.0303661147
 20
12.7175045164
 30
0.0
 10
15.0425508047
 20
12.7189937409
 30
0.0
 10
15.0545487784
 20
12.7195004422
 30
0.0
 10
15.0643667299
 20
12.7190964224
 30
0.0
 10
15.0720163302
 20
12.7182696597
 30
0.0
 10
15.0793959826
 20
12.7171313466
 30
0.0
 10
15.0865768443
 20
12.7155054172
 30
0.0
 10
15.0934926239
 20
12.7133807451
 30
0.0
 10
15.0984691844
 20
12.7115663913
 30
0.0
 10
15.1032639592
 20
12.70952297
 30
0.0
 10
15.1078655563
 20
12.7072552842
 30
0.0
 10
15.1122628144
 20
12.7047687445
 30
0.0
 10
15.1164450894
 20
12.702069247
 30
0.0
 10
15.1204022139
 20
12.6991632104
 30
0.0
 10
15.1241245767
 20
12.6960576012
 30
0.0
 10
15.1276031001
 20
12.6927598604
 30
0.0
 10
15.1308292586
 20
12.6892778974
 30
0.0
 10
15.1337951645
 20
12.6856201301
 30
0.0
 10
15.1364935565
 20
12.6817954211
 30
0.0
 10
15.1389177971
 20
12.6778130443
 30
0.0
 10
15.1410619441
 20
12.6736826963
 30
0.0
 10
15.1429207829
 20
12.6694144621
 30
0.0
 10
15.1444897845
 20
12.6650187533
 30
0.0
 10
15.1457651366
 20
12.6605062943
 30
0.0
 10
15.1467438195
 20
12.6558881015
 30
0.0
 10
15.14742353
 20
12.6511754208
 30
0.0
 10
15.1478026756
 20
12.6463797078
 30
0.0
 10
15.1478804582
 20
12.6415125962
 30
0.0
 10
15.1476567932
 20
12.6365858661
 30
0.0
 10
15.1471323162
 20
12.6316114567
 30
0.0
 10
15.1463083907
 20
12.6266012175
 30
0.0
 10
15.145187101
 20
12.6215675235
 30
0.0
 10
15.1442507892
 20
12.6182309653
 30
0.0
 10
15.1437354039
 20
12.6165631779
 30
0.0
  0
SPLINE
  5
3A6
100
AcDbEntity
  8
LAYER_FEATURE
100
AcDbSpline
 62
7
  6
CONTINUOUS
 70
0
 71
3
 72
22
 73
18
 74
0
 42
0.0000001
 43
0.0000001
 44
0.0000000001
 40
0.0
 40
0.0
 40
0.0
 40
0.0
 40
0.138119746
 40
0.2053664285
 40
0.2714549226
 40
0.3364371368
 40
0.4003725798
 40
0.4633278425
 40
0.5253764101
 40
0.5865986145
 40
0.6470813095
 40
0.7069174418
 40
0.7662055029
 40
0.8250488587
 40
0.8835549592
 40
0.9418344156
 40
1.0
 40
1.0
 40
1.0
 40
1.0
 10
16.3422145456
 20
12.3293203076
 30
0.0
 10
16.3486571592
 20
12.3161916414
 30
0.0
 10
16.3575345772
 20
12.2963108616
 30
0.0
 10
16.3676595474
 20
12.2694052143
 30
0.0
 10
16.3742433049
 20
12.2494591243
 30
0.0
 10
16.3798769431
 20
12.2295885078
 30
0.0
 10
16.3845551428
 20
12.2098117928
 30
0.0
 10
16.3882731658
 20
12.190148037
 30
0.0
 10
16.3910272375
 20
12.1706160309
 30
0.0
 10
16.3928144738
 20
12.1512345383
 30
0.0
 10
16.3936329531
 20
12.1320222085
 30
0.0
 10
16.3934816807
 20
12.1129975818
 30
0.0
 10
16.3923605955
 20
12.0941790483
 30
0.0
 10
16.3902706094
 20
12.0755849093
 30
0.0
 10
16.3872135697
 20
12.0572330498
 30
0.0
 10
16.3831925579
 20
12.0391420072
 30
0.0
 10
16.3798701883
 20
12.0272613869
 30
0.0
 10
16.3780518693
 20
12.0213772991
 30
0.0
  0
SPLINE
  5
3A7
100
AcDbEntity
  8
LAYER_FEATURE
100
AcDbSpline
 62
7
  6
CONTINUOUS
 70
0
 71
3
 72
50
 73
46
 74
0
 42
0.0000001
 43
0.0000001
 44
0.0000000001
 40
0.0
 40
0.0
 40
0.0
 40
0.0
 40
0.0396641793
 40
0.0788606661
 40
0.1175661307
 40
0.1557597858
 40
0.1934216622
 40
0.2305336657
 40
0.2670793388
 40
0.3030440904
 40
0.3384152998
 40
0.3731824522
 40
0.4073372782
 40
0.4408738985
 40
0.4737889752
 40
0.5060818677
 40
0.5377547925
 40
0.5688129867
 40
0.5992648666
 40
0.6291221833
 40
0.6584001714
 40
0.6728285106
 40
0.6871194029
 40
0.7152990215
 40
0.7429671481
 40
0.7566197094
 40
0.7701560775
 40
0.7835806402
 40
0.7968980187
 40
0.8101130807
 40
0.8232309096
 40
0.8362568292
 40
0.8491963692
 40
0.8620552768
 40
0.874839498
 40
0.8875551653
 40
0.9002085963
 40
0.9128062638
 40
0.9253547993
 40
0.9378609614
 40
0.9503316297
 40
0.9627737816
 40
0.9751944743
 40
0.9876008274
 40
1.0
 40
1.0
 40
1.0
 40
1.0
 10
14.9646245481
 20
13.1342396132
 30
0.0
 10
14.9508817488
 20
13.1342396132
 30
0.0
 10
14.9235571065
 20
13.1339314512
 30
0.0
 10
14.8828435747
 20
13.1325268733
 30
0.0
 10
14.8426832419
 20
13.1301841162
 30
0.0
 10
14.8031218356
 20
13.1269058778
 30
0.0
 10
14.7642038068
 20
13.1226957855
 30
0.0
 10
14.7259731322
 20
13.1175585887
 30
0.0
 10
14.6884729167
 20
13.1115000368
 30
0.0
 10
14.6517454646
 20
13.1045269248
 30
0.0
 10
14.6158321953
 20
13.0966470697
 30
0.0
 10
14.5807736071
 20
13.0878692997
 30
0.0
 10
14.5466092326
 20
13.0782034414
 30
0.0
 10
14.5133775965
 20
13.0676603065
 30
0.0
 10
14.4811161739
 20
13.0562516778
 30
0.0
 10
14.4498613541
 20
13.0439902955
 30
0.0
 10
14.419648392
 20
13.0308898344
 30
0.0
 10
14.39051141
 20
13.0169649199
 30
0.0
 10
14.3624832227
 20
13.0022310082
 30
0.0
 10
14.3355958354
 20
12.9867047199
 30
0.0
 10
14.3140614008
 20
12.9730540873
 30
0.0
 10
14.2974450592
 20
12.9617512086
 30
0.0
 10
14.281390006
 20
12.9503082838
 30
0.0
 10
14.2620741183
 20
12.9355472375
 30
0.0
 10
14.243631068
 20
12.9200493947
 30
0.0
 10
14.2295301178
 20
12.9073025381
 30
0.0
 10
14.2193238202
 20
12.8976130474
 30
0.0
 10
14.2094435553
 20
12.8877551077
 30
0.0
 10
14.1998920922
 20
12.877731412
 30
0.0
 10
14.1906721128
 20
12.8675448488
 30
0.0
 10
14.181786288
 20
12.8571982346
 30
0.0
 10
14.1732370913
 20
12.8466945398
 30
0.0
 10
14.1650269924
 20
12.8360366956
 30
0.0
 10
14.1571583116
 20
12.8252277279
 30
0.0
 10
14.1496332773
 20
12.8142706991
 30
0.0
 10
14.142454071
 20
12.8031686823
 30
0.0
 10
14.1356226794
 20
12.7919248579
 30
0.0
 10
14.1291411179
 20
12.7805423665
 30
0.0
 10
14.12301117
 20
12.7690244712
 30
0.0
 10
14.1172346292
 20
12.7573744108
 30
0.0
 10
14.1118131234
 20
12.7455954975
 30
0.0
 10
14.1067481866
 20
12.7336910881
 30
0.0
 10
14.1020412957
 20
12.7216645058
 30
0.0
 10
14.097693767
 20
12.7095193308
 30
0.0
 10
14.0950355003
 20
12.7013446312
 30
0.0
 10
14.0937671043
 20
12.6972400939
 30
0.0
  0
SPLINE
  5
3A8
100
AcDbEntity
  8
LAYER_FEATURE
100
AcDbSpline
 62
7
  6
CONTINUOUS
 70
0
 71
3
 72
80
 73
76
 74
0
 42
0.0000001
 43
0.0000001
 44
0.0000000001
 40
0.0
 40
0.0
 40
0.0
 40
0.0
 40
0.017178625
 40
0.0345301896
 40
0.0520439856
 40
0.0697095611
 40
0.0875157513
 40
0.105451206
 40
0.1235042502
 40
0.1416629551
 40
0.159915164
 40
0.1782485184
 40
0.1966504877
 40
0.2151083967
 40
0.2336094524
 40
0.2521407721
 40
0.2706894106
 40
0.2892423869
 40
0.3077867108
 40
0.3263094099
 40
0.3447975567
 40
0.3632382956
 40
0.3816188701
 40
0.3999266497
 40
0.4181491573
 40
0.4362740982
 40
0.4542893881
 40
0.4721831821
 40
0.4899439035
 40
0.5075602738
 40
0.5250213437
 40
0.5423165259
 40
0.5594356272
 40
0.5763688815
 40
0.5931069843
 40
0.6096411291
 40
0.6259630453
 40
0.6420650388
 40
0.6579400309
 40
0.673581601
 40
0.6889840307
 40
0.7041423508
 40
0.7190523912
 40
0.7337108317
 40
0.7481152531
 40
0.7622641923
 40
0.7761571984
 40
0.7897948916
 40
0.8031790229
 40
0.8163125314
 40
0.8291996012
 40
0.8418457167
 40
0.8542577138
 40
0.8603787793
 40
0.8664445248
 40
0.8784144197
 40
0.8901792221
 40
0.8959889949
 40
0.9017523402
 40
0.9131461931
 40
0.9243770779
 40
0.9299370835
 40
0.935462781
 40
0.9409564793
 40
0.9464205592
 40
0.9518574755
 40
0.9572697442
 40
0.9626599452
 40
0.9680307112
 40
0.9733847242
 40
0.9787247102
 40
0.9840534294
 40
0.9893736733
 40
0.9946882542
 40
1.0
 40
1.0
 40
1.0
 40
1.0
 10
15.1413329642
 20
13.7060682573
 30
0.0
 10
15.1546713838
 20
13.7060682573
 30
0.0
 10
15.1814833589
 20
13.7057747626
 30
0.0
 10
15.2218749433
 20
13.7044706881
 30
0.0
 10
15.2626080831
 20
13.7023017803
 30
0.0
 10
15.3036399666
 20
13.6992703786
 30
0.0
 10
15.3449281037
 20
13.6953795861
 30
0.0
 10
15.3864294464
 20
13.6906334759
 30
0.0
 10
15.4281008237
 20
13.6850369787
 30
0.0
 10
15.4698988577
 20
13.6785959274
 30
0.0
 10
15.5117800429
 20
13.6713170283
 30
0.0
 10
15.5537007859
 20
13.6632078579
 30
0.0
 10
15.5956174502
 20
13.6542768558
 30
0.0
 10
15.6374864017
 20
13.6445333139
 30
0.0
 10
15.6792640565
 20
13.6339873776
 30
0.0
 10
15.7209069254
 20
13.6226500284
 30
0.0
 10
15.762371659
 20
13.6105330689
 30
0.0
 10
15.8036150927
 20
13.5976491122
 30
0.0
 10
15.8445942913
 20
13.5840115674
 30
0.0
 10
15.8852665944
 20
13.5696346283
 30
0.0
 10
15.925589664
 20
13.5545332656
 30
0.0
 10
15.9655215257
 20
13.5387232011
 30
0.0
 10
16.0050206124
 20
13.5222208927
 30
0.0
 10
16.0440458072
 20
13.5050435172
 30
0.0
 10
16.0825564857
 20
13.4872089506
 30
0.0
 10
16.1205125624
 20
13.4687357568
 30
0.0
 10
16.1578745323
 20
13.4496431668
 30
0.0
 10
16.1946035091
 20
13.4299510521
 30
0.0
 10
16.2306612658
 20
13.409679906
 30
0.0
 10
16.2660102736
 20
13.3888508213
 30
0.0
 10
16.3006137417
 20
13.3674854675
 30
0.0
 10
16.3344356619
 20
13.3456060768
 30
0.0
 10
16.3674408412
 20
13.3232354125
 30
0.0
 10
16.3995949369
 20
13.3003967441
 30
0.0
 10
16.4308644915
 20
13.2771138236
 30
0.0
 10
16.4612169672
 20
13.253410859
 30
0.0
 10
16.4906207826
 20
13.2293124916
 30
0.0
 10
16.5190453501
 20
13.204843774
 30
0.0
 10
16.5464610995
 20
13.1800301346
 30
0.0
 10
16.5728395079
 20
13.154897353
 30
0.0
 10
16.5981531284
 20
13.1294715326
 30
0.0
 10
16.6223756167
 20
13.1037790705
 30
0.0
 10
16.6454817661
 20
13.0778466371
 30
0.0
 10
16.6674475291
 20
13.0517011432
 30
0.0
 10
16.6882500348
 20
13.0253697088
 30
0.0
 10
16.7078676102
 20
12.9988796366
 30
0.0
 10
16.7262798006
 20
12.9722583829
 30
0.0
 10
16.7434673874
 20
12.945533532
 30
0.0
 10
16.7594124207
 20
12.918732764
 30
0.0
 10
16.7740982069
 20
12.8918838611
 30
0.0
 10
16.7875093777
 20
12.8650145358
 30
0.0
 10
16.7996316983
 20
12.838152944
 30
0.0
 10
16.8086906495
 20
12.8156944012
 30
0.0
 10
16.8152711461
 20
12.7977625775
 30
0.0
 10
16.8213547964
 20
12.7800187039
 30
0.0
 10
16.8281450189
 20
12.7578904153
 30
0.0
 10
16.8338793087
 20
12.7356697828
 30
0.0
 10
16.8377873481
 20
12.7179738369
 30
0.0
 10
16.8412186299
 20
12.7004727804
 30
0.0
 10
16.8446784477
 20
12.6786945646
 30
0.0
 10
16.8470340565
 20
12.6569274933
 30
0.0
 10
16.8482345006
 20
12.6396396846
 30
0.0
 10
16.8487936127
 20
12.6267771686
 30
0.0
 10
16.8490142824
 20
12.6139789368
 30
0.0
 10
16.8488964038
 20
12.6012482398
 30
0.0
 10
16.8484400655
 20
12.5885884278
 30
0.0
 10
16.8476453089
 20
12.5760028034
 30
0.0
 10
16.8465123802
 20
12.5634946577
 30
0.0
 10
16.8450415581
 20
12.5510672597
 30
0.0
 10
16.8432331899
 20
12.5387238659
 30
0.0
 10
16.8410878031
 20
12.5264676939
 30
0.0
 10
16.8386058825
 20
12.5143019723
 30
0.0
 10
16.8357881273
 20
12.5022298403
 30
0.0
 10
16.8326352769
 20
12.490254587
 30
0.0
 10
16.8303102222
 20
12.4823367516
 30
0.0
 10
16.8290925268
 20
12.4783962816
 30
0.0
  0
SPLINE
  5
3A9
100
AcDbEntity
  8
LAYER_CHAMFER_FEAT
100
AcDbSpline
 62
7
  6
CONTINUOUS
 70
0
 71
3
 72
51
 73
47
 74
0
 42
0.0000001
 43
0.0000001
 44
0.0000000001
 40
0.0
 40
0.0
 40
0.0
 40
0.0
 40
0.035732916
 40
0.0703696458
 40
0.1039007483
 40
0.1363313197
 40
0.1676824394
 40
0.1979925936
 40
0.2273189698
 40
0.2557384695
 40
0.2696409025
 40
0.2833547734
 40
0.2968953171
 40
0.3102790073
 40
0.3235233825
 40
0.3366470575
 40
0.3496695338
 40
0.362611143
 40
0.3754928474
 40
0.3883361211
 40
0.4011627481
 40
0.4139946601
 40
0.4268537397
 40
0.4397616444
 40
0.4527396216
 40
0.4658083516
 40
0.4789877777
 40
0.4922969976
 40
0.505754107
 40
0.5193761581
 40
0.533179013
 40
0.5471773751
 40
0.5613846475
 40
0.5758130321
 40
0.6053700543
 40
0.6359263966
 40
0.6675346366
 40
0.7002289432
 40
0.734026415
 40
0.7689285142
 40
0.804922517
 40
0.8419828737
 40
0.8800726059
 40
0.9191442824
 40
0.9591417358
 40
1.0
 40
1.0
 40
1.0
 40
1.0
 10
15.4523352965
 20
11.8613904585
 30
0.0
 10
15.4553141953
 20
11.8581305474
 30
0.0
 10
15.4610225164
 20
11.8515636785
 30
0.0
 10
15.4689194706
 20
11.8414308698
 30
0.0
 10
15.4759940906
 20
11.8311990018
 30
0.0
 10
15.4822223502
 20
11.8209019371
 30
0.0
 10
15.4875832415
 20
11.810573375
 30
0.0
 10
15.4920583925
 20
11.8002469957
 30
0.0
 10
15.4956320393
 20
11.789957234
 30
0.0
 10
15.4978644977
 20
11.7813773833
 30
0.0
 10
15.4991765444
 20
11.7745758843
 30
0.0
 10
15.4999219145
 20
11.7695427835
 30
0.0
 10
15.5004349005
 20
11.7645451663
 30
0.0
 10
15.5007151647
 20
11.7595871459
 30
0.0
 10
15.5007623131
 20
11.7546729025
 30
0.0
 10
15.5005763753
 20
11.749806571
 30
0.0
 10
15.5001573699
 20
11.7449922602
 30
0.0
 10
15.4995057137
 20
11.7402340329
 30
0.0
 10
15.498621849
 20
11.7355359267
 30
0.0
 10
15.4975065784
 20
11.730901911
 30
0.0
 10
15.4961607775
 20
11.7263359274
 30
0.0
 10
15.4945856303
 20
11.7218418345
 30
0.0
 10
15.4927824465
 20
11.7174234483
 30
0.0
 10
15.4907527833
 20
11.7130845008
 30
0.0
 10
15.4884983755
 20
11.7088286544
 30
0.0
 10
15.4860211431
 20
11.7046595008
 30
0.0
 10
15.4833232287
 20
11.7005805262
 30
0.0
 10
15.4804069042
 20
11.6965951719
 30
0.0
 10
15.4772746987
 20
11.6927067323
 30
0.0
 10
15.4739292271
 20
11.6889184918
 30
0.0
 10
15.4703733785
 20
11.6852335421
 30
0.0
 10
15.4666101196
 20
11.6816550138
 30
0.0
 10
15.4626426193
 20
11.6781857537
 30
0.0
 10
15.4570402835
 20
11.6736738986
 30
0.0
 10
15.4495276783
 20
11.6683256138
 30
0.0
 10
15.4398277553
 20
11.6624427836
 30
0.0
 10
15.4294029329
 20
11.6570618741
 30
0.0
 10
15.4182884002
 20
11.652200402
 30
0.0
 10
15.406520988
 20
11.6478738436
 30
0.0
 10
15.3941397653
 20
11.6440961422
 30
0.0
 10
15.3811857681
 20
11.6408794962
 30
0.0
 10
15.3677019296
 20
11.6382343331
 30
0.0
 10
15.3537329901
 20
11.6361692699
 30
0.0
 10
15.339325196
 20
11.6346910217
 30
0.0
 10
15.3245266954
 20
11.6338044404
 30
0.0
 10
15.314533075
 20
11.6336116813
 30
0.0
 10
15.309483692
 20
11.6336116813
 30
0.0
  0
SPLINE
  5
3AA
100
AcDbEntity
  8
LAYER_FEATURE
100
AcDbSpline
 62
7
  6
CONTINUOUS
 70
0
 71
3
 72
50
 73
46
 74
0
 42
0.0000001
 43
0.0000001
 44
0.0000000001
 40
0.0
 40
0.0
 40
0.0
 40
0.0
 40
0.0396641793
 40
0.0788606661
 40
0.1175661307
 40
0.1557597858
 40
0.1934216622
 40
0.2305336657
 40
0.2670793388
 40
0.3030440904
 40
0.3384152998
 40
0.3731824522
 40
0.4073372782
 40
0.4408738985
 40
0.4737889752
 40
0.5060818677
 40
0.5377547925
 40
0.5688129867
 40
0.5992648666
 40
0.6291221833
 40
0.6584001714
 40
0.6728285106
 40
0.6871194029
 40
0.7152990215
 40
0.7429671481
 40
0.7566197094
 40
0.7701560775
 40
0.7835806402
 40
0.7968980187
 40
0.8101130807
 40
0.8232309096
 40
0.8362568292
 40
0.8491963692
 40
0.8620552768
 40
0.874839498
 40
0.8875551653
 40
0.9002085963
 40
0.9128062638
 40
0.9253547993
 40
0.9378609614
 40
0.9503316297
 40
0.9627737816
 40
0.9751944743
 40
0.9876008274
 40
1.0
 40
1.0
 40
1.0
 40
1.0
 10
15.1413329642
 20
13.7060682573
 30
0.0
 10
15.1275901648
 20
13.7060682573
 30
0.0
 10
15.1002655226
 20
13.7057600953
 30
0.0
 10
15.0595519908
 20
13.7043555173
 30
0.0
 10
15.019391658
 20
13.7020127602
 30
0.0
 10
14.9798302516
 20
13.6987345219
 30
0.0
 10
14.9409122228
 20
13.6945244295
 30
0.0
 10
14.9026815482
 20
13.6893872327
 30
0.0
 10
14.8651813328
 20
13.6833286808
 30
0.0
 10
14.8284538807
 20
13.6763555688
 30
0.0
 10
14.7925406113
 20
13.6684757137
 30
0.0
 10
14.7574820232
 20
13.6596979437
 30
0.0
 10
14.7233176487
 20
13.6500320854
 30
0.0
 10
14.6900860126
 20
13.6394889505
 30
0.0
 10
14.6578245899
 20
13.6280803218
 30
0.0
 10
14.6265697701
 20
13.6158189396
 30
0.0
 10
14.596356808
 20
13.6027184784
 30
0.0
 10
14.5672198261
 20
13.5887935639
 30
0.0
 10
14.5391916388
 20
13.5740596522
 30
0.0
 10
14.5123042515
 20
13.558533364
 30
0.0
 10
14.4907698169
 20
13.5448827313
 30
0.0
 10
14.4741534753
 20
13.5335798526
 30
0.0
 10
14.4580984221
 20
13.5221369278
 30
0.0
 10
14.4387825344
 20
13.5073758815
 30
0.0
 10
14.4203394841
 20
13.4918780387
 30
0.0
 10
14.4062385339
 20
13.4791311822
 30
0.0
 10
14.3960322363
 20
13.4694416914
 30
0.0
 10
14.3861519714
 20
13.4595837517
 30
0.0
 10
14.3766005083
 20
13.449560056
 30
0.0
 10
14.3673805289
 20
13.4393734929
 30
0.0
 10
14.3584947041
 20
13.4290268786
 30
0.0
 10
14.3499455074
 20
13.4185231839
 30
0.0
 10
14.3417354085
 20
13.4078653396
 30
0.0
 10
14.3338667277
 20
13.3970563719
 30
0.0
 10
14.3263416934
 20
13.3860993431
 30
0.0
 10
14.3191624871
 20
13.3749973263
 30
0.0
 10
14.3123310955
 20
13.3637535019
 30
0.0
 10
14.305849534
 20
13.3523710105
 30
0.0
 10
14.2997195861
 20
13.3408531152
 30
0.0
 10
14.2939430453
 20
13.3292030549
 30
0.0
 10
14.2885215395
 20
13.3174241416
 30
0.0
 10
14.2834566027
 20
13.3055197321
 30
0.0
 10
14.2787497118
 20
13.2934931498
 30
0.0
 10
14.274402183
 20
13.2813479748
 30
0.0
 10
14.2717439164
 20
13.2731732752
 30
0.0
 10
14.2704755204
 20
13.2690687379
 30
0.0
  0
SPLINE
  5
3AB
100
AcDbEntity
  8
LAYER_FEATURE
100
AcDbSpline
 62
7
  6
CONTINUOUS
 70
0
 71
3
 72
94
 73
90
 74
0
 42
0.0000001
 43
0.0000001
 44
0.0000000001
 40
0.0
 40
0.0
 40
0.0
 40
0.0
 40
0.0182632735
 40
0.0367722904
 40
0.0555061321
 40
0.0744427103
 40
0.0935591691
 40
0.1128318715
 40
0.1322365494
 40
0.1517484012
 40
0.1713421992
 40
0.1909923925
 40
0.2106732097
 40
0.2303587603
 40
0.2500231351
 40
0.2696405077
 40
0.2891852349
 40
0.3086319592
 40
0.327955711
 40
0.3471320142
 40
0.366136992
 40
0.3849474774
 40
0.4035411246
 40
0.4218965262
 40
0.4399933338
 40
0.457812384
 40
0.4753358312
 40
0.4925472866
 40
0.5094319658
 40
0.5259768455
 40
0.5421708289
 40
0.5580049224
 40
0.5734724221
 40
0.5885691121
 40
0.6032934714
 40
0.6105168412
 40
0.617647909
 40
0.6246873383
 40
0.6316360072
 40
0.6452644501
 40
0.6519482701
 40
0.6585470507
 40
0.6714964039
 40
0.6778531313
 40
0.6841343527
 40
0.6903430779
 40
0.6964825615
 40
0.702556314
 40
0.7085680854
 40
0.7145218715
 40
0.7204218973
 40
0.7262726126
 40
0.7320786784
 40
0.7378449511
 40
0.743576469
 40
0.7492784286
 40
0.7549561684
 40
0.7606151412
 40
0.7662608921
 40
0.771899031
 40
0.7775352051
 40
0.7831750719
 40
0.7888242701
 40
0.7944883923
 40
0.800172959
 40
0.8058833895
 40
0.8116249823
 40
0.8174028871
 40
0.8232220888
 40
0.829087386
 40
0.8350033756
 40
0.8409744417
 40
0.8470047379
 40
0.853098188
 40
0.859258467
 40
0.8717914627
 40
0.8846298079
 40
0.8977939421
 40
0.911300371
 40
0.9251617992
 40
0.9393873071
 40
0.9466389815
 40
0.9539835223
 40
0.9614211412
 40
0.9689518565
 40
0.9765755152
 40
0.9842917818
 40
0.9921001634
 40
1.0
 40
1.0
 40
1.0
 40
1.0
 10
15.0002455955
 20
13.1063327679
 30
0.0
 10
15.0173519476
 20
13.1063327679
 30
0.0
 10
15.0517968435
 20
13.1058149091
 30
0.0
 10
15.1037431069
 20
13.1035247565
 30
0.0
 10
15.1562330221
 20
13.0997202961
 30
0.0
 10
15.2091634239
 20
13.0944089452
 30
0.0
 10
15.2624309473
 20
13.0876011187
 30
0.0
 10
15.3159314073
 20
13.0793101231
 30
0.0
 10
15.3695601894
 20
13.0695521783
 30
0.0
 10
15.42321241
 20
13.058346367
 30
0.0
 10
15.4767831356
 20
13.0457146056
 30
0.0
 10
15.5301675864
 20
13.0316815996
 30
0.0
 10
15.5832613442
 20
13.0162747982
 30
0.0
 10
15.6359605579
 20
12.9995243378
 30
0.0
 10
15.6881621479
 20
12.9814629829
 30
0.0
 10
15.7397640092
 20
12.9621260614
 30
0.0
 10
15.790665212
 20
12.9415513951
 30
0.0
 10
15.8407662011
 20
12.9197792245
 30
0.0
 10
15.8899689908
 20
12.8968521292
 30
0.0
 10
15.9381773583
 20
12.8728149428
 30
0.0
 10
15.9852970331
 20
12.8477146642
 30
0.0
 10
16.0312358832
 20
12.8216003648
 30
0.0
 10
16.0759040947
 20
12.794523088
 30
0.0
 10
16.1192143479
 20
12.7665357462
 30
0.0
 10
16.1610819878
 20
12.7376930144
 30
0.0
 10
16.201425189
 20
12.7080512193
 30
0.0
 10
16.2401651143
 20
12.6776682243
 30
0.0
 10
16.2772260666
 20
12.646603312
 30
0.0
 10
16.312535634
 20
12.6149170605
 30
0.0
 10
16.3460248242
 20
12.5826712252
 30
0.0
 10
16.3776282062
 20
12.5499285931
 30
0.0
 10
16.4072839782
 20
12.5167529209
 30
0.0
 10
16.4349342489
 20
12.4832085563
 30
0.0
 10
16.4605245092
 20
12.4493612064
 30
0.0
 10
16.4802159047
 20
12.4207763833
 30
0.0
 10
16.4948728982
 20
12.3978170657
 30
0.0
 10
16.5052509716
 20
12.3806729295
 30
0.0
 10
16.5150789985
 20
12.3635032701
 30
0.0
 10
16.5273627986
 20
12.3407366985
 30
0.0
 10
16.5386226706
 20
12.3178036045
 30
0.0
 10
16.5487974284
 20
12.2947390773
 30
0.0
 10
16.5580858175
 20
12.2719895459
 30
0.0
 10
16.5662989961
 20
12.2491403724
 30
0.0
 10
16.5733772332
 20
12.2262399647
 30
0.0
 10
16.5780699304
 20
12.2092192238
 30
0.0
 10
16.5821765697
 20
12.1922570397
 30
0.0
 10
16.585695104
 20
12.1753614727
 30
0.0
 10
16.5886238176
 20
12.1585408757
 30
0.0
 10
16.5909611559
 20
12.1418034617
 30
0.0
 10
16.5927059841
 20
12.1251574569
 30
0.0
 10
16.593857354
 20
12.1086110265
 30
0.0
 10
16.5944146672
 20
12.0921723055
 30
0.0
 10
16.5943776149
 20
12.0758493796
 30
0.0
 10
16.5937461309
 20
12.0596502868
 30
0.0
 10
16.5925205483
 20
12.0435830085
 30
0.0
 10
16.5907013548
 20
12.0276554758
 30
0.0
 10
16.5882895013
 20
12.0118755424
 30
0.0
 10
16.5852860725
 20
11.9962510135
 30
0.0
 10
16.5816925963
 20
11.9807895991
 30
0.0
 10
16.577510794
 20
11.9654989492
 30
0.0
 10
16.5727427397
 20
11.9503866194
 30
0.0
 10
16.5673908057
 20
11.9354600714
 30
0.0
 10
16.5614576034
 20
11.9207266946
 30
0.0
 10
16.5549461401
 20
11.9061937353
 30
0.0
 10
16.5478595773
 20
11.8918683962
 30
0.0
 10
16.5402015152
 20
11.877757697
 30
0.0
 10
16.5319756924
 20
11.8638686203
 30
0.0
 10
16.5231862506
 20
11.8502079625
 30
0.0
 10
16.5138375237
 20
11.8367824502
 30
0.0
 10
16.5039341591
 20
11.8235986618
 30
0.0
 10
16.4934810831
 20
11.810663043
 30
0.0
 10
16.4824834277
 20
11.7979819435
 30
0.0
 10
16.4709467194
 20
11.7855615468
 30
0.0
 10
16.4588764529
 20
11.7734078494
 30
0.0
 10
16.4419840071
 20
11.7574763155
 30
0.0
 10
16.419529223
 20
11.7382590089
 30
0.0
 10
16.3907088441
 20
11.7164947228
 30
0.0
 10
16.3599154805
 20
11.6959350524
 30
0.0
 10
16.3272105145
 20
11.6766198888
 30
0.0
 10
16.2926584363
 20
11.6585860693
 30
0.0
 10
16.2625764087
 20
11.6447437277
 30
0.0
 10
16.2376682728
 20
11.6343288606
 30
0.0
 10
16.2184474879
 20
11.6268076184
 30
0.0
 10
16.1988172743
 20
11.6196304995
 30
0.0
 10
16.1787870805
 20
11.6128008806
 30
0.0
 10
16.1583667425
 20
11.6063221708
 30
0.0
 10
16.1375662258
 20
11.6001974537
 30
0.0
 10
16.1163958012
 20
11.5944297977
 30
0.0
 10
16.1021248228
 20
11.5908452568
 30
0.0
 10
16.0949312439
 20
11.5891121551
 30
0.0
  0
SPLINE
  5
3AC
100
AcDbEntity
  8
LAYER_FEATURE
100
AcDbSpline
 62
7
  6
CONTINUOUS
 70
0
 71
3
 72
71
 73
67
 74
0
 42
0.0000001
 43
0.0000001
 44
0.0000000001
 40
0.0
 40
0.0
 40
0.0
 40
0.0
 40
0.0205431601
 40
0.0408808145
 40
0.0610034623
 40
0.0809033096
 40
0.1005724455
 40
0.1200035691
 40
0.1391899438
 40
0.1581253615
 40
0.1768042298
 40
0.1952215913
 40
0.2133731543
 40
0.2312553363
 40
0.2488653106
 40
0.2662010384
 40
0.283261309
 40
0.3000457912
 40
0.3165550781
 40
0.3327907241
 40
0.3487552905
 40
0.3644523999
 40
0.3798867716
 40
0.3950642591
 40
0.4099918917
 40
0.4246779118
 40
0.4391317927
 40
0.4533642552
 40
0.4673872831
 40
0.4812141156
 40
0.4948592233
 40
0.508338275
 40
0.5216680893
 40
0.5348665565
 40
0.5479525449
 40
0.560945791
 40
0.5738667682
 40
0.5867365343
 40
0.5995765697
 40
0.6124086033
 40
0.6252544308
 40
0.6381357326
 40
0.6510738943
 40
0.6640898327
 40
0.677203838
 40
0.69043543
 40
0.7038032279
 40
0.7173248424
 40
0.7310167923
 40
0.7448944365
 40
0.7589719189
 40
0.7732621428
 40
0.7877767585
 40
0.8025261576
 40
0.8175194794
 40
0.8327646388
 40
0.8482683547
 40
0.8640361749
 40
0.8800725181
 40
0.8963807212
 40
0.9129630795
 40
0.9298208831
 40
0.9469544714
 40
0.9643632795
 40
0.982045875
 40
1.0
 40
1.0
 40
1.0
 40
1.0
 10
15.0002455955
 20
13.1063327679
 30
0.0
 10
14.9892497883
 20
13.1063327679
 30
0.0
 10
14.9673675383
 20
13.1061212283
 30
0.0
 10
14.9347273001
 20
13.1051588621
 30
0.0
 10
14.902456913
 20
13.1035536901
 30
0.0
 10
14.8705834898
 20
13.1013071079
 30
0.0
 10
14.8391331941
 20
13.0984209207
 30
0.0
 10
14.8081321267
 20
13.0948975292
 30
0.0
 10
14.7776059448
 20
13.0907398444
 30
0.0
 10
14.7475799125
 20
13.0859512711
 30
0.0
 10
14.7180788835
 20
13.0805357669
 30
0.0
 10
14.6891272689
 20
13.074497803
 30
0.0
 10
14.66074903
 20
13.0678423452
 30
0.0
 10
14.6329676547
 20
13.0605748594
 30
0.0
 10
14.605806127
 20
13.0527013433
 30
0.0
 10
14.5792869209
 20
13.0442282761
 30
0.0
 10
14.553431988
 20
13.035162609
 30
0.0
 10
14.5282627268
 20
13.0255117915
 30
0.0
 10
14.5037999638
 20
13.0152837638
 30
0.0
 10
14.480063953
 20
13.004486919
 30
0.0
 10
14.4570743626
 20
12.9931300978
 30
0.0
 10
14.4348502349
 20
12.9812226274
 30
0.0
 10
14.4134099901
 20
12.968774277
 30
0.0
 10
14.392771425
 20
12.9557952394
 30
0.0
 10
14.3729516895
 20
12.9422961421
 30
0.0
 10
14.3539672537
 20
12.9282880668
 30
0.0
 10
14.3358339271
 20
12.9137824995
 30
0.0
 10
14.3185668536
 20
12.8987913255
 30
0.0
 10
14.3021804659
 20
12.8833268616
 30
0.0
 10
14.2866884831
 20
12.8674018352
 30
0.0
 10
14.2721039234
 20
12.8510293586
 30
0.0
 10
14.2584390883
 20
12.8342229311
 30
0.0
 10
14.2457055005
 20
12.8169964709
 30
0.0
 10
14.2339139331
 20
12.7993642686
 30
0.0
 10
14.2230744049
 20
12.781340979
 30
0.0
 10
14.2131961332
 20
12.7629416314
 30
0.0
 10
14.2042874984
 20
12.7441816223
 30
0.0
 10
14.1963560749
 20
12.7250766743
 30
0.0
 10
14.1894086182
 20
12.7056428243
 30
0.0
 10
14.1834509911
 20
12.6858964247
 30
0.0
 10
14.1784881906
 20
12.6658541018
 30
0.0
 10
14.1745243649
 20
12.645532728
 30
0.0
 10
14.1715627937
 20
12.6249494054
 30
0.0
 10
14.1696058375
 20
12.6041214469
 30
0.0
 10
14.1686550052
 20
12.5830663399
 30
0.0
 10
14.1687109631
 20
12.5618017304
 30
0.0
 10
14.1697734955
 20
12.5403454071
 30
0.0
 10
14.1718415175
 20
12.5187152793
 30
0.0
 10
14.1749131277
 20
12.4969293627
 30
0.0
 10
14.1789856097
 20
12.4750057718
 30
0.0
 10
14.184055381
 20
12.4529626979
 30
0.0
 10
14.190118054
 20
12.4308184029
 30
0.0
 10
14.1971684543
 20
12.4085912133
 30
0.0
 10
14.2052006015
 20
12.386299507
 30
0.0
 10
14.2142076882
 20
12.3639616909
 30
0.0
 10
14.2241821383
 20
12.3415962046
 30
0.0
 10
14.2351156101
 20
12.3192215122
 30
0.0
 10
14.246998957
 20
12.296856072
 30
0.0
 10
14.2598222555
 20
12.2745183302
 30
0.0
 10
14.2735748363
 20
12.252226718
 30
0.0
 10
14.2882452792
 20
12.229999639
 30
0.0
 10
14.3038213859
 20
12.2078554244
 30
0.0
 10
14.3202902162
 20
12.1858123631
 30
0.0
 10
14.3376381645
 20
12.1638886158
 30
0.0
 10
14.3558506975
 20
12.142102469
 30
0.0
 10
14.3684637129
 20
12.1277898846
 30
0.0
 10
14.3749074662
 20
12.1206603368
 30
0.0
  0
SPLINE
  5
3AD
100
AcDbEntity
  8
LAYER_FEATURE
100
AcDbSpline
 62
7
  6
CONTINUOUS
 70
0
 71
3
 72
80
 73
76
 74
0
 42
0.0000001
 43
0.0000001
 44
0.0000000001
 40
0.0
 40
0.0
 40
0.0
 40
0.0
 40
0.017178625
 40
0.0345301896
 40
0.0520439856
 40
0.0697095611
 40
0.0875157513
 40
0.105451206
 40
0.1235042502
 40
0.1416629551
 40
0.159915164
 40
0.1782485184
 40
0.1966504877
 40
0.2151083967
 40
0.2336094524
 40
0.2521407721
 40
0.2706894106
 40
0.2892423869
 40
0.3077867108
 40
0.3263094099
 40
0.3447975567
 40
0.3632382956
 40
0.3816188701
 40
0.3999266497
 40
0.4181491573
 40
0.4362740982
 40
0.4542893881
 40
0.4721831821
 40
0.4899439035
 40
0.5075602738
 40
0.5250213437
 40
0.5423165259
 40
0.5594356272
 40
0.5763688815
 40
0.5931069843
 40
0.6096411291
 40
0.6259630453
 40
0.6420650388
 40
0.6579400309
 40
0.673581601
 40
0.6889840307
 40
0.7041423508
 40
0.7190523912
 40
0.7337108317
 40
0.7481152531
 40
0.7622641923
 40
0.7761571984
 40
0.7897948916
 40
0.8031790229
 40
0.8163125314
 40
0.8291996012
 40
0.8418457167
 40
0.8542577138
 40
0.8603787793
 40
0.8664445248
 40
0.8784144197
 40
0.8901792221
 40
0.8959889949
 40
0.9017523402
 40
0.9131461931
 40
0.9243770779
 40
0.9299370835
 40
0.935462781
 40
0.9409564793
 40
0.9464205592
 40
0.9518574755
 40
0.9572697442
 40
0.9626599452
 40
0.9680307112
 40
0.9733847242
 40
0.9787247102
 40
0.9840534294
 40
0.9893736733
 40
0.9946882542
 40
1.0
 40
1.0
 40
1.0
 40
1.0
 10
14.9646245481
 20
13.1342396132
 30
0.0
 10
14.9779629677
 20
13.1342396132
 30
0.0
 10
15.0047749428
 20
13.1339461186
 30
0.0
 10
15.0451665272
 20
13.1326420441
 30
0.0
 10
15.0858996671
 20
13.1304731363
 30
0.0
 10
15.1269315505
 20
13.1274417346
 30
0.0
 10
15.1682196876
 20
13.1235509421
 30
0.0
 10
15.2097210303
 20
13.1188048319
 30
0.0
 10
15.2513924076
 20
13.1132083347
 30
0.0
 10
15.2931904416
 20
13.1067672834
 30
0.0
 10
15.3350716269
 20
13.0994883843
 30
0.0
 10
15.3769923698
 20
13.0913792139
 30
0.0
 10
15.4189090341
 20
13.0824482118
 30
0.0
 10
15.4607779856
 20
13.0727046699
 30
0.0
 10
15.5025556404
 20
13.0621587336
 30
0.0
 10
15.5441985093
 20
13.0508213844
 30
0.0
 10
15.5856632429
 20
13.0387044249
 30
0.0
 10
15.6269066766
 20
13.0258204681
 30
0.0
 10
15.6678858752
 20
13.0121829234
 30
0.0
 10
15.7085581783
 20
12.9978059843
 30
0.0
 10
15.7488812479
 20
12.9827046215
 30
0.0
 10
15.7888131096
 20
12.9668945571
 30
0.0
 10
15.8283121963
 20
12.9503922487
 30
0.0
 10
15.8673373911
 20
12.9332148732
 30
0.0
 10
15.9058480696
 20
12.9153803066
 30
0.0
 10
15.9438041463
 20
12.8969071128
 30
0.0
 10
15.9811661162
 20
12.8778145227
 30
0.0
 10
16.0178950931
 20
12.8581224081
 30
0.0
 10
16.0539528497
 20
12.837851262
 30
0.0
 10
16.0893018575
 20
12.8170221773
 30
0.0
 10
16.1239053256
 20
12.7956568234
 30
0.0
 10
16.1577272458
 20
12.7737774328
 30
0.0
 10
16.1907324251
 20
12.7514067685
 30
0.0
 10
16.2228865208
 20
12.7285681001
 30
0.0
 10
16.2541560755
 20
12.7052851796
 30
0.0
 10
16.2845085511
 20
12.681582215
 30
0.0
 10
16.3139123665
 20
12.6574838476
 30
0.0
 10
16.342336934
 20
12.63301513
 30
0.0
 10
16.3697526834
 20
12.6082014906
 30
0.0
 10
16.3961310918
 20
12.583068709
 30
0.0
 10
16.4214447123
 20
12.5576428885
 30
0.0
 10
16.4456672006
 20
12.5319504265
 30
0.0
 10
16.46877335
 20
12.5060179931
 30
0.0
 10
16.4907391131
 20
12.4798724992
 30
0.0
 10
16.5115416187
 20
12.4535410647
 30
0.0
 10
16.5311591941
 20
12.4270509926
 30
0.0
 10
16.5495713845
 20
12.4004297389
 30
0.0
 10
16.5667589713
 20
12.373704888
 30
0.0
 10
16.5827040046
 20
12.34690412
 30
0.0
 10
16.5973897908
 20
12.3200552171
 30
0.0
 10
16.6108009616
 20
12.2931858918
 30
0.0
 10
16.6229232822
 20
12.2663242999
 30
0.0
 10
16.6319822334
 20
12.2438657572
 30
0.0
 10
16.63856273
 20
12.2259339335
 30
0.0
 10
16.6446463803
 20
12.2081900599
 30
0.0
 10
16.6514366028
 20
12.1860617712
 30
0.0
 10
16.6571708926
 20
12.1638411388
 30
0.0
 10
16.661078932
 20
12.1461451929
 30
0.0
 10
16.6645102138
 20
12.1286441364
 30
0.0
 10
16.6679700316
 20
12.1068659206
 30
0.0
 10
16.6703256404
 20
12.0850988493
 30
0.0
 10
16.6715260845
 20
12.0678110406
 30
0.0
 10
16.6720851966
 20
12.0549485246
 30
0.0
 10
16.6723058664
 20
12.0421502928
 30
0.0
 10
16.6721879877
 20
12.0294195958
 30
0.0
 10
16.6717316494
 20
12.0167597838
 30
0.0
 10
16.6709368928
 20
12.0041741594
 30
0.0
 10
16.6698039641
 20
11.9916660137
 30
0.0
 10
16.6683331421
 20
11.9792386157
 30
0.0
 10
16.6665247738
 20
11.9668952219
 30
0.0
 10
16.664379387
 20
11.9546390498
 30
0.0
 10
16.6618974664
 20
11.9424733282
 30
0.0
 10
16.6590797112
 20
11.9304011962
 30
0.0
 10
16.6559268608
 20
11.9184259429
 30
0.0
 10
16.6536018061
 20
11.9105081076
 30
0.0
 10
16.6523841107
 20
11.9065676376
 30
0.0
  0
SPLINE
  5
3AE
100
AcDbEntity
  8
LAYER_FEATURE
100
AcDbSpline
 62
7
  6
CONTINUOUS
 70
0
 71
3
 72
15
 73
11
 74
0
 42
0.0000001
 43
0.0000001
 44
0.0000000001
 40
0.0
 40
0.0
 40
0.0
 40
0.0
 40
0.141889737
 40
0.2797864291
 40
0.4131350995
 40
0.5414905822
 40
0.6645012923
 40
0.7819428223
 40
0.8937463525
 40
1.0
 40
1.0
 40
1.0
 40
1.0
 10
14.5017274231
 20
13.2011342802
 30
0.0
 10
14.5012397833
 20
13.2011635714
 30
0.0
 10
14.5002763936
 20
13.2011949673
 30
0.0
 10
14.4988536442
 20
13.2011581497
 30
0.0
 10
14.497482218
 20
13.2010370547
 30
0.0
 10
14.4961724645
 20
13.2008325873
 30
0.0
 10
14.4949341667
 20
13.2005461893
 30
0.0
 10
14.4937765143
 20
13.2001799007
 30
0.0
 10
14.4927083355
 20
13.1997363546
 30
0.0
 10
14.4920445468
 20
13.1993823036
 30
0.0
 10
14.491731673
 20
13.1991927294
 30
0.0
  0
SPLINE
  5
3AF
100
AcDbEntity
  8
LAYER_FEATURE
100
AcDbSpline
 62
7
  6
CONTINUOUS
 70
0
 71
3
 72
15
 73
11
 74
0
 42
0.0000001
 43
0.0000001
 44
0.0000000001
 40
0.0
 40
0.0
 40
0.0
 40
0.0
 40
0.1385135102
 40
0.2742186042
 40
0.406490141
 40
0.5347836949
 40
0.658616691
 40
0.7775970013
 40
0.8914471024
 40
1.0
 40
1.0
 40
1.0
 40
1.0
 10
14.5451232679
 20
13.278970683
 30
0.0
 10
14.5446225704
 20
13.27904444
 30
0.0
 10
14.5436273325
 20
13.279164838
 30
0.0
 10
14.5421446462
 20
13.2792633648
 30
0.0
 10
14.5406960001
 20
13.2792775095
 30
0.0
 10
14.5392923545
 20
13.2792071782
 30
0.0
 10
14.537944223
 20
13.279052848
 30
0.0
 10
14.5366616535
 20
13.2788156457
 30
0.0
 10
14.5354543868
 20
13.2784972892
 30
0.0
 10
14.5346871499
 20
13.2782258769
 30
0.0
 10
14.5343197735
 20
13.2780763761
 30
0.0
  0
SPLINE
  5
3B0
100
AcDbEntity
  8
LAYER_FEATURE
100
AcDbSpline
 62
7
  6
CONTINUOUS
 70
0
 71
3
 72
15
 73
11
 74
0
 42
0.0000001
 43
0.0000001
 44
0.0000000001
 40
0.0
 40
0.0
 40
0.0
 40
0.0
 40
0.1349342687
 40
0.2682155479
 40
0.3991830153
 40
0.5272336553
 40
0.6518021773
 40
0.7723860008
 40
0.8885665267
 40
1.0
 40
1.0
 40
1.0
 40
1.0
 10
14.6079087874
 20
13.3483859558
 30
0.0
 10
14.6074047073
 20
13.3485031015
 30
0.0
 10
14.6063966937
 20
13.3487108933
 30
0.0
 10
14.604882715
 20
13.3489428436
 30
0.0
 10
14.6033847956
 20
13.3490919186
 30
0.0
 10
14.6019142905
 20
13.3491570106
 30
0.0
 10
14.6004822389
 20
13.3491375973
 30
0.0
 10
14.5990993593
 20
13.3490338297
 30
0.0
 10
14.5977761482
 20
13.3488464473
 30
0.0
 10
14.5969217538
 20
13.3486626868
 30
0.0
 10
14.5965078264
 20
13.3485562996
 30
0.0
  0
SPLINE
  5
3B1
100
AcDbEntity
  8
LAYER_FEATURE
100
AcDbSpline
 62
7
  6
CONTINUOUS
 70
0
 71
3
 72
15
 73
11
 74
0
 42
0.0000001
 43
0.0000001
 44
0.0000000001
 40
0.0
 40
0.0
 40
0.0
 40
0.0
 40
0.1313055361
 40
0.2620671748
 40
0.3916128456
 40
0.5193091728
 40
0.644541165
 40
0.7667347109
 40
0.8853762924
 40
1.0
 40
1.0
 40
1.0
 40
1.0
 10
14.6888619329
 20
13.4080290094
 30
0.0
 10
14.6883643015
 20
13.4081876087
 30
0.0
 10
14.687363037
 20
13.4084794684
 30
0.0
 10
14.6858470586
 20
13.4088403504
 30
0.0
 10
14.6843288217
 20
13.4091214626
 30
0.0
 10
14.68281985
 20
13.4093206971
 30
0.0
 10
14.681331488
 20
13.4094365288
 30
0.0
 10
14.6798749096
 20
13.4094681064
 30
0.0
 10
14.6784611725
 20
13.4094151579
 30
0.0
 10
14.6775372025
 20
13.4093220498
 30
0.0
 10
14.677085412
 20
13.4092606882
 30
0.0
  0
SPLINE
  5
3B2
100
AcDbEntity
  8
LAYER_FEATURE
100
AcDbSpline
 62
7
  6
CONTINUOUS
 70
0
 71
3
 72
11
 73
7
 74
0
 42
0.0000001
 43
0.0000001
 44
0.0000000001
 40
0.0
 40
0.0
 40
0.0
 40
0.0
 40
0.2465933531
 40
0.4960411642
 40
0.7474737437
 40
1.0
 40
1.0
 40
1.0
 40
1.0
 10
14.7027227149
 20
13.4022878365
 30
0.0
 10
14.7016273892
 20
13.4028574707
 30
0.0
 10
14.6993980931
 20
13.4039540994
 30
0.0
 10
14.6959707057
 20
13.4054594418
 30
0.0
 10
14.6924548213
 20
13.4068286516
 30
0.0
 10
14.6900665311
 20
13.4076450939
 30
0.0
 10
14.6888619329
 20
13.4080290094
 30
0.0
  0
SPLINE
  5
3B3
100
AcDbEntity
  8
LAYER_FEATURE
100
AcDbSpline
 62
7
  6
CONTINUOUS
 70
0
 71
3
 72
15
 73
11
 74
0
 42
0.0000001
 43
0.0000001
 44
0.0000000001
 40
0.0
 40
0.0
 40
0.0
 40
0.0
 40
0.1240550667
 40
0.2497613144
 40
0.3764378092
 40
0.5033849475
 40
0.6299001319
 40
0.7552873056
 40
0.8788693823
 40
1.0
 40
1.0
 40
1.0
 40
1.0
 10
14.7027227149
 20
13.4022878365
 30
0.0
 10
14.7039822209
 20
13.4016328189
 30
0.0
 10
14.7065553002
 20
13.4003845725
 30
0.0
 10
14.7105279754
 20
13.3987137221
 30
0.0
 10
14.7146139838
 20
13.3972421253
 30
0.0
 10
14.7187796848
 20
13.3959819342
 30
0.0
 10
14.7229909391
 20
13.3949434572
 30
0.0
 10
14.7272132677
 20
13.3941352123
 30
0.0
 10
14.7314118752
 20
13.393563837
 30
0.0
 10
14.7342052558
 20
13.3933413255
 30
0.0
 10
14.7355897106
 20
13.3932721374
 30
0.0
  0
LINE
  5
3B4
100
AcDbEntity
  8
LAYER_FEATURE
100
AcDbLine
 62
7
  6
CONTINUOUS
 10
14.75322522
 20
13.4497489067
 11
14.7526032603
 21
13.4483789671
  0
SPLINE
  5
3B5
100
AcDbEntity
  8
LAYER_FEATURE
100
AcDbSpline
 62
7
  6
CONTINUOUS
 70
0
 71
3
 72
15
 73
11
 74
0
 42
0.0000001
 43
0.0000001
 44
0.0000000001
 40
0.0
 40
0.0
 40
0.0
 40
0.0
 40
0.12769669
 40
0.2559082744
 40
0.3839704245
 40
0.5112404485
 40
0.6370774394
 40
0.7608630862
 40
0.8820208092
 40
1.0
 40
1.0
 40
1.0
 40
1.0
 10
14.7864070436
 20
13.4567389595
 30
0.0
 10
14.7859256476
 20
13.4569362504
 30
0.0
 10
14.7849506974
 20
13.4573071814
 30
0.0
 10
14.7834620735
 20
13.457790007
 30
0.0
 10
14.781952903
 20
13.4581977137
 30
0.0
 10
14.7804346503
 20
13.4585272309
 30
0.0
 10
14.7789187375
 20
13.4587760541
 30
0.0
 10
14.7774165675
 20
13.458942335
 30
0.0
 10
14.7759395458
 20
13.4590247848
 30
0.0
 10
14.7749645962
 20
13.4590234423
 30
0.0
 10
14.7744841794
 20
13.4590080001
 30
0.0
  0
SPLINE
  5
3B6
100
AcDbEntity
  8
LAYER_FEATURE
100
AcDbSpline
 62
7
  6
CONTINUOUS
 70
0
 71
3
 72
11
 73
7
 74
0
 42
0.0000001
 43
0.0000001
 44
0.0000000001
 40
0.0
 40
0.0
 40
0.0
 40
0.0
 40
0.2440519104
 40
0.4926215748
 40
0.7448908832
 40
1.0
 40
1.0
 40
1.0
 40
1.0
 10
14.7994580169
 20
13.4500163969
 30
0.0
 10
14.7984497911
 20
13.4506592964
 30
0.0
 10
14.7963830704
 20
13.4519080677
 30
0.0
 10
14.7931750734
 20
13.4536509079
 30
0.0
 10
14.7898442757
 20
13.4552734928
 30
0.0
 10
14.7875636167
 20
13.4562649601
 30
0.0
 10
14.7864070436
 20
13.4567389595
 30
0.0
  0
SPLINE
  5
3B7
100
AcDbEntity
  8
LAYER_FEATURE
100
AcDbSpline
 62
7
  6
CONTINUOUS
 70
0
 71
3
 72
23
 73
19
 74
0
 42
0.0000001
 43
0.0000001
 44
0.0000000001
 40
0.0
 40
0.0
 40
0.0
 40
0.0
 40
0.0609120907
 40
0.1228594274
 40
0.1856691205
 40
0.249177168
 40
0.3132050949
 40
0.3775718044
 40
0.4420934802
 40
0.5065846479
 40
0.5708602013
 40
0.6347368716
 40
0.6980348527
 40
0.7605793603
 40
0.8222023085
 40
0.8827441845
 40
0.9420557708
 40
1.0
 40
1.0
 40
1.0
 40
1.0
 10
14.7994580169
 20
13.4500163969
 30
0.0
 10
14.8002907865
 20
13.4494853779
 30
0.0
 10
14.8019938148
 20
13.4484504803
 30
0.0
 10
14.8046295287
 20
13.446994058
 30
0.0
 10
14.8073590384
 20
13.4456253504
 30
0.0
 10
14.8101705368
 20
13.4443502177
 30
0.0
 10
14.8130521405
 20
13.4431740894
 30
0.0
 10
14.8159915262
 20
13.4421019775
 30
0.0
 10
14.8189761619
 20
13.4411384473
 30
0.0
 10
14.8219933234
 20
13.4402876153
 30
0.0
 10
14.8250301431
 20
13.4395531165
 30
0.0
 10
14.8280736688
 20
13.4389380728
 30
0.0
 10
14.8311109236
 20
13.4384451047
 30
0.0
 10
14.8341289629
 20
13.4380763202
 30
0.0
 10
14.837114919
 20
13.4378332986
 30
0.0
 10
14.8400560964
 20
13.4377170696
 30
0.0
 10
14.8429398864
 20
13.4377281229
 30
0.0
 10
14.844839666
 20
13.4378215024
 30
0.0
 10
14.8457766943
 20
13.4378902157
 30
0.0
  0
SPLINE
  5
3B8
100
AcDbEntity
  8
LAYER_FEATURE
100
AcDbSpline
 62
7
  6
CONTINUOUS
 70
0
 71
3
 72
11
 73
7
 74
0
 42
0.0000001
 43
0.0000001
 44
0.0000000001
 40
0.0
 40
0.0
 40
0.0
 40
0.0
 40
0.2583417598
 40
0.5096747259
 40
0.7560873342
 40
1.0
 40
1.0
 40
1.0
 40
1.0
 10
14.862657617
 20
13.4900845116
 30
0.0
 10
14.8624764905
 20
13.4898986984
 30
0.0
 10
14.8621381555
 20
13.4895128787
 30
0.0
 10
14.8617047838
 20
13.4888871696
 30
0.0
 10
14.861356079
 20
13.4882268666
 30
0.0
 10
14.8611810575
 20
13.4877649138
 30
0.0
 10
14.8611087196
 20
13.4875308431
 30
0.0
  0
SPLINE
  5
3B9
100
AcDbEntity
  8
LAYER_FEATURE
100
AcDbSpline
 62
7
  6
CONTINUOUS
 70
0
 71
3
 72
15
 73
11
 74
0
 42
0.0000001
 43
0.0000001
 44
0.0000000001
 40
0.0
 40
0.0
 40
0.0
 40
0.0
 40
0.1241346267
 40
0.2497928807
 40
0.3763350867
 40
0.503126838
 40
0.6295201379
 40
0.7548731292
 40
0.8785693519
 40
1.0
 40
1.0
 40
1.0
 40
1.0
 10
14.8986455147
 20
13.4935677223
 30
0.0
 10
14.8981899043
 20
13.4938001631
 30
0.0
 10
14.8972604781
 20
13.4942435843
 30
0.0
 10
14.8958280383
 20
13.4948390023
 30
0.0
 10
14.8943571584
 20
13.4953654085
 30
0.0
 10
14.8928590173
 20
13.4958188284
 30
0.0
 10
14.8913448865
 20
13.496195825
 30
0.0
 10
14.8898261678
 20
13.4964935847
 30
0.0
 10
14.8883143917
 20
13.4967098215
 30
0.0
 10
14.887307783
 20
13.4967995394
 30
0.0
 10
14.8868083722
 20
13.4968299605
 30
0.0
  0
SPLINE
  5
3BA
100
AcDbEntity
  8
LAYER_FEATURE
100
AcDbSpline
 62
7
  6
CONTINUOUS
 70
0
 71
3
 72
11
 73
7
 74
0
 42
0.0000001
 43
0.0000001
 44
0.0000000001
 40
0.0
 40
0.0
 40
0.0
 40
0.0
 40
0.2415477901
 40
0.4892292098
 40
0.7423124549
 40
1.0
 40
1.0
 40
1.0
 40
1.0
 10
14.9106326571
 20
13.4859946171
 30
0.0
 10
14.9097318996
 20
13.4866986637
 30
0.0
 10
14.9078691981
 20
13.488076232
 30
0.0
 10
14.904942746
 20
13.4900228203
 30
0.0
 10
14.9018615944
 20
13.4918673401
 30
0.0
 10
14.8997319467
 20
13.4930134524
 30
0.0
 10
14.8986455147
 20
13.4935677223
 30
0.0
  0
SPLINE
  5
3BB
100
AcDbEntity
  8
LAYER_FEATURE
100
AcDbSpline
 62
7
  6
CONTINUOUS
 70
0
 71
3
 72
23
 73
19
 74
0
 42
0.0000001
 43
0.0000001
 44
0.0000000001
 40
0.0
 40
0.0
 40
0.0
 40
0.0
 40
0.0597201588
 40
0.1211766368
 40
0.1841155208
 40
0.2482597599
 40
0.3133127112
 40
0.3789642831
 40
0.4448954304
 40
0.5107830706
 40
0.5763047409
 40
0.6411433309
 40
0.7049918742
 40
0.7675585081
 40
0.8285716797
 40
0.8877857127
 40
0.9449868612
 40
1.0
 40
1.0
 40
1.0
 40
1.0
 10
14.9106326571
 20
13.4859946171
 30
0.0
 10
14.9116078924
 20
13.4852323576
 30
0.0
 10
14.9136354931
 20
13.4837471888
 30
0.0
 10
14.9168406976
 20
13.4816727082
 30
0.0
 10
14.9202343584
 20
13.4797314229
 30
0.0
 10
14.9237916992
 20
13.4779375111
 30
0.0
 10
14.9274869603
 20
13.4763039531
 30
0.0
 10
14.9312932971
 20
13.4748426144
 30
0.0
 10
14.9351830707
 20
13.4735641069
 30
0.0
 10
14.9391280247
 20
13.4724777176
 30
0.0
 10
14.9430995046
 20
13.4715913377
 30
0.0
 10
14.9470686694
 20
13.4709114043
 30
0.0
 10
14.9510067062
 20
13.4704428547
 30
0.0
 10
14.9548850548
 20
13.4701890956
 30
0.0
 10
14.9586755897
 20
13.4701519771
 30
0.0
 10
14.9623509504
 20
13.4703318161
 30
0.0
 10
14.9658843223
 20
13.4707273151
 30
0.0
 10
14.9681752894
 20
13.4711414508
 30
0.0
 10
14.9692889793
 20
13.4713860292
 30
0.0
  0
SPLINE
  5
3BC
100
AcDbEntity
  8
LAYER_FEATURE
100
AcDbSpline
 62
7
  6
CONTINUOUS
 70
0
 71
3
 72
14
 73
10
 74
0
 42
0.0000001
 43
0.0000001
 44
0.0000000001
 40
0.0
 40
0.0
 40
0.0
 40
0.0
 40
0.2666632846
 40
0.3946620094
 40
0.5196059744
 40
0.642016964
 40
0.7624649553
 40
0.8815718522
 40
1.0
 40
1.0
 40
1.0
 40
1.0
 10
14.9852992439
 20
13.5178898959
 30
0.0
 10
14.9849608445
 20
13.5176570368
 30
0.0
 10
14.9844818148
 20
13.51727801
 30
0.0
 10
14.9839161641
 20
13.5167107854
 30
0.0
 10
14.9835420023
 20
13.5162690374
 30
0.0
 10
14.9832134815
 20
13.5158065721
 30
0.0
 10
14.9829315219
 20
13.5153246529
 30
0.0
 10
14.9826970455
 20
13.5148247256
 30
0.0
 10
14.9825726843
 20
13.5144799414
 30
0.0
 10
14.9825188254
 20
13.5143056425
 30
0.0
  0
SPLINE
  5
3BD
100
AcDbEntity
  8
LAYER_FEATURE
100
AcDbSpline
 62
7
  6
CONTINUOUS
 70
0
 71
3
 72
15
 73
11
 74
0
 42
0.0000001
 43
0.0000001
 44
0.0000000001
 40
0.0
 40
0.0
 40
0.0
 40
0.0
 40
0.1206301635
 40
0.2437413043
 40
0.3687360489
 40
0.4950053538
 40
0.6219111621
 40
0.7488055791
 40
0.8750508045
 40
1.0
 40
1.0
 40
1.0
 40
1.0
 10
15.0233927521
 20
13.5177984679
 30
0.0
 10
15.0229720593
 20
13.5180617952
 30
0.0
 10
15.0221066361
 20
13.5185696559
 30
0.0
 10
15.0207581124
 20
13.5192661394
 30
0.0
 10
15.0193540048
 20
13.519901052
 30
0.0
 10
15.017904988
 20
13.5204695938
 30
0.0
 10
15.0164219577
 20
13.5209674638
 30
0.0
 10
15.0149160864
 20
13.5213909371
 30
0.0
 10
15.013398803
 20
13.5217367737
 30
0.0
 10
15.0123802597
 20
13.521915085
 30
0.0
 10
15.0118717279
 20
13.5219904079
 30
0.0
  0
SPLINE
  5
3BE
100
AcDbEntity
  8
LAYER_FEATURE
100
AcDbSpline
 62
7
  6
CONTINUOUS
 70
0
 71
3
 72
11
 73
7
 74
0
 42
0.0000001
 43
0.0000001
 44
0.0000000001
 40
0.0
 40
0.0
 40
0.0
 40
0.0
 40
0.2391369125
 40
0.4859295875
 40
0.7397814728
 40
1.0
 40
1.0
 40
1.0
 40
1.0
 10
15.0340827475
 20
13.509522222
 30
0.0
 10
15.0333079412
 20
13.5102739068
 30
0.0
 10
15.0316871197
 20
13.5117541362
 30
0.0
 10
15.0290988571
 20
13.513866861
 30
0.0
 10
15.026327022
 20
13.515897634
 30
0.0
 10
15.0243884617
 20
13.5171752164
 30
0.0
 10
15.0233927521
 20
13.5177984679
 30
0.0
  0
SPLINE
  5
3BF
100
AcDbEntity
  8
LAYER_FEATURE
100
AcDbSpline
 62
7
  6
CONTINUOUS
 70
0
 71
3
 72
28
 73
24
 74
0
 42
0.0000001
 43
0.0000001
 44
0.0000000001
 40
0.0
 40
0.0
 40
0.0
 40
0.0
 40
0.0287709216
 40
0.058228973
 40
0.0883317541
 40
0.1190422102
 40
0.182098015
 40
0.2470104392
 40
0.3133378517
 40
0.3806047169
 40
0.4483140831
 40
0.5159591185
 40
0.5830344254
 40
0.6490473807
 40
0.7135298
 40
0.7760502483
 40
0.8362272572
 40
0.8653410968
 40
0.8937566611
 40
0.9214471895
 40
0.948392369
 40
0.9745785578
 40
1.0
 40
1.0
 40
1.0
 40
1.0
 10
15.0340827475
 20
13.509522222
 30
0.0
 10
15.0345979112
 20
13.5090224316
 30
0.0
 10
15.0356626743
 20
13.5080334914
 30
0.0
 10
15.0373377049
 20
13.5066007313
 30
0.0
 10
15.0391054927
 20
13.5052045788
 30
0.0
 10
15.0416012325
 20
13.5033812649
 30
0.0
 10
15.0449232365
 20
13.5012218005
 30
0.0
 10
15.049159009
 20
13.4988582964
 30
0.0
 10
15.0536323553
 20
13.4967260022
 30
0.0
 10
15.0582936339
 20
13.4948485968
 30
0.0
 10
15.0630912862
 20
13.4932468293
 30
0.0
 10
15.0679721653
 20
13.4919384446
 30
0.0
 10
15.0728822293
 20
13.4909379294
 30
0.0
 10
15.0777671138
 20
13.4902563641
 30
0.0
 10
15.0825728776
 20
13.489901302
 30
0.0
 10
15.0872462351
 20
13.4898766977
 30
0.0
 10
15.0910288794
 20
13.4901346553
 30
0.0
 10
15.0939418117
 20
13.4905114343
 30
0.0
 10
15.0960376539
 20
13.4908724149
 30
0.0
 10
15.0980627142
 20
13.4913138779
 30
0.0
 10
15.10001143
 20
13.4918346018
 30
0.0
 10
15.1018782982
 20
13.4924331834
 30
0.0
 10
15.1030828594
 20
13.4928898532
 30
0.0
 10
15.1036693234
 20
13.4931312498
 30
0.0
  0
SPLINE
  5
3C0
100
AcDbEntity
  8
LAYER_FEATURE
100
AcDbSpline
 62
7
  6
CONTINUOUS
 70
0
 71
3
 72
15
 73
11
 74
0
 42
0.0000001
 43
0.0000001
 44
0.0000000001
 40
0.0
 40
0.0
 40
0.0
 40
0.0
 40
0.1409395988
 40
0.2762008771
 40
0.4061202819
 40
0.5312508032
 40
0.6522843043
 40
0.7700751972
 40
0.8856156524
 40
1.0
 40
1.0
 40
1.0
 40
1.0
 10
15.1187630207
 20
13.5326238597
 30
0.0
 10
15.1184921066
 20
13.532497737
 30
0.0
 10
15.1179702958
 20
13.5322302553
 30
0.0
 10
15.1172388618
 20
13.5317738348
 30
0.0
 10
15.1165787315
 20
13.5312726425
 30
0.0
 10
15.1159933664
 20
13.5307290967
 30
0.0
 10
15.1154858294
 20
13.5301457393
 30
0.0
 10
15.1150588988
 20
13.5295253791
 30
0.0
 10
15.1147150211
 20
13.5288712996
 30
0.0
 10
15.1145420675
 20
13.528413943
 30
0.0
 10
15.1144704604
 20
13.5281822267
 30
0.0
  0
SPLINE
  5
3C1
100
AcDbEntity
  8
LAYER_FEATURE
100
AcDbSpline
 62
7
  6
CONTINUOUS
 70
0
 71
3
 72
15
 73
11
 74
0
 42
0.0000001
 43
0.0000001
 44
0.0000000001
 40
0.0
 40
0.0
 40
0.0
 40
0.0
 40
0.1171971893
 40
0.2377734357
 40
0.3611949541
 40
0.4868973771
 40
0.6142705532
 40
0.7426777461
 40
0.8714767735
 40
1.0
 40
1.0
 40
1.0
 40
1.0
 10
15.1582206928
 20
13.5289595724
 30
0.0
 10
15.1578434623
 20
13.529248864
 30
0.0
 10
15.157059442
 20
13.5298117784
 30
0.0
 10
15.1558209191
 20
13.5305958621
 30
0.0
 10
15.1545107576
 20
13.5313269965
 30
0.0
 10
15.1531389203
 20
13.531999653
 30
0.0
 10
15.1517157097
 20
13.5326087549
 30
0.0
 10
15.1502518466
 20
13.5331497413
 30
0.0
 10
15.1487584342
 20
13.5336184816
 30
0.0
 10
15.1477477363
 20
13.5338812255
 30
0.0
 10
15.1472400304
 20
13.5339996229
 30
0.0
  0
SPLINE
  5
3C2
100
AcDbEntity
  8
LAYER_FEATURE
100
AcDbSpline
 62
7
  6
CONTINUOUS
 70
0
 71
3
 72
11
 73
7
 74
0
 42
0.0000001
 43
0.0000001
 44
0.0000000001
 40
0.0
 40
0.0
 40
0.0
 40
0.0
 40
0.2369409488
 40
0.4828700106
 40
0.7373981177
 40
1.0
 40
1.0
 40
1.0
 40
1.0
 10
15.1674054725
 20
13.5201412735
 30
0.0
 10
15.1667728464
 20
13.5209258298
 30
0.0
 10
15.1654274792
 20
13.5224801237
 30
0.0
 10
15.1632274633
 20
13.5247183187
 30
0.0
 10
15.160818572
 20
13.5268961762
 30
0.0
 10
15.159107052
 20
13.528279839
 30
0.0
 10
15.1582206928
 20
13.5289595724
 30
0.0
  0
SPLINE
  5
3C3
100
AcDbEntity
  8
LAYER_FEATURE
100
AcDbSpline
 62
7
  6
CONTINUOUS
 70
0
 71
3
 72
38
 73
34
 74
0
 42
0.0000001
 43
0.0000001
 44
0.0000000001
 40
0.0
 40
0.0
 40
0.0
 40
0.0
 40
0.0277917335
 40
0.0565062861
 40
0.0861067005
 40
0.1165535201
 40
0.1477939184
 40
0.1797672942
 40
0.2124060939
 40
0.2456362936
 40
0.2793785232
 40
0.3135489901
 40
0.3480603128
 40
0.3828222677
 40
0.417742587
 40
0.4527277704
 40
0.4876837829
 40
0.5225168074
 40
0.5571340421
 40
0.5914444105
 40
0.6253593126
 40
0.6587935101
 40
0.6916658978
 40
0.7239003037
 40
0.7554264904
 40
0.7861811676
 40
0.8161089242
 40
0.845163365
 40
0.8733085192
 40
0.9005200778
 40
0.926786777
 40
0.9521120726
 40
1.0
 40
1.0
 40
1.0
 40
1.0
 10
15.1674054725
 20
13.5201412735
 30
0.0
 10
15.1679100511
 20
13.5195155163
 30
0.0
 10
15.168974554
 20
13.5182739227
 30
0.0
 10
15.1706986458
 20
13.5164750508
 30
0.0
 10
15.1725699449
 20
13.5147157287
 30
0.0
 10
15.1745808241
 20
13.513003023
 30
0.0
 10
15.1767233706
 20
13.5113436773
 30
0.0
 10
15.178989022
 20
13.5097442876
 30
0.0
 10
15.1813687561
 20
13.5082112068
 30
0.0
 10
15.1838531043
 20
13.5067505499
 30
0.0
 10
15.1864321576
 20
13.5053681252
 30
0.0
 10
15.1890956318
 20
13.5040694364
 30
0.0
 10
15.1918329103
 20
13.5028596685
 30
0.0
 10
15.1946330777
 20
13.5017436529
 30
0.0
 10
15.1974849586
 20
13.500725829
 30
0.0
 10
15.2003771758
 20
13.499810257
 30
0.0
 10
15.2032981943
 20
13.4990006025
 30
0.0
 10
15.2062363585
 20
13.49830009
 30
0.0
 10
15.2091799455
 20
13.4977115058
 30
0.0
 10
15.2121172156
 20
13.4972372026
 30
0.0
 10
15.2150364563
 20
13.4968790838
 30
0.0
 10
15.2179260276
 20
13.4966385647
 30
0.0
 10
15.2207744148
 20
13.4965166037
 30
0.0
 10
15.2235702711
 20
13.4965137038
 30
0.0
 10
15.2263024654
 20
13.4966298837
 30
0.0
 10
15.2289601284
 20
13.496864681
 30
0.0
 10
15.2315326967
 20
13.4972171853
 30
0.0
 10
15.234009939
 20
13.4976860351
 30
0.0
 10
15.2363820535
 20
13.4982694139
 30
0.0
 10
15.2386395266
 20
13.4989650025
 30
0.0
 10
15.2407737691
 20
13.4997703448
 30
0.0
 10
15.2433933955
 20
13.5009632398
 30
0.0
 10
15.2452271421
 20
13.5020442202
 30
0.0
 10
15.2463557088
 20
13.5028472569
 30
0.0
  0
SPLINE
  5
3C4
100
AcDbEntity
  8
LAYER_FEATURE
100
AcDbSpline
 62
7
  6
CONTINUOUS
 70
0
 71
3
 72
18
 73
14
 74
0
 42
0.0000001
 43
0.0000001
 44
0.0000000001
 40
0.0
 40
0.0
 40
0.0
 40
0.0
 40
0.1460922055
 40
0.2850767481
 40
0.4171399984
 40
0.4807385421
 40
0.5428032461
 40
0.6627007796
 40
0.7779227804
 40
0.8342196683
 40
0.8898684249
 40
0.9450651557
 40
1.0
 40
1.0
 40
1.0
 40
1.0
 10
15.2604512271
 20
13.5339996229
 30
0.0
 10
15.2600701659
 20
13.5338843835
 30
0.0
 10
15.2593350624
 20
13.5336297167
 30
0.0
 10
15.2582973146
 20
13.5331619863
 30
0.0
 10
15.2575057311
 20
13.5327054665
 30
0.0
 10
15.2569285711
 20
13.5323046867
 30
0.0
 10
15.2564017716
 20
13.5318915528
 30
0.0
 10
15.2558105414
 20
13.5313348098
 30
0.0
 10
15.2553081984
 20
13.5307162084
 30
0.0
 10
15.2549718088
 20
13.5301959846
 30
0.0
 10
15.2547529546
 20
13.5297960457
 30
0.0
 10
15.2545661736
 20
13.5293842687
 30
0.0
 10
15.2544631102
 20
13.5291020446
 30
0.0
 10
15.2544171597
 20
13.5289595724
 30
0.0
  0
SPLINE
  5
3C5
100
AcDbEntity
  8
LAYER_FEATURE
100
AcDbSpline
 62
7
  6
CONTINUOUS
 70
0
 71
3
 72
15
 73
11
 74
0
 42
0.0000001
 43
0.0000001
 44
0.0000000001
 40
0.0
 40
0.0
 40
0.0
 40
0.0
 40
0.113871523
 40
0.2319402722
 40
0.3537646071
 40
0.4788496064
 40
0.6066348626
 40
0.7365144547
 40
0.8678599343
 40
1.0
 40
1.0
 40
1.0
 40
1.0
 10
15.3005050643
 20
13.5268337976
 30
0.0
 10
15.300179096
 20
13.5271435325
 30
0.0
 10
15.2994924802
 20
13.5277509204
 30
0.0
 10
15.2983878838
 20
13.5286074863
 30
0.0
 10
15.2971969972
 20
13.529420723
 30
0.0
 10
15.2959288803
 20
13.5301844858
 30
0.0
 10
15.2945930388
 20
13.5308930306
 30
0.0
 10
15.2931995287
 20
13.5315410552
 30
0.0
 10
15.2917589101
 20
13.5321236213
 30
0.0
 10
15.2907755264
 20
13.5324650356
 30
0.0
 10
15.2902784898
 20
13.5326238597
 30
0.0
  0
SPLINE
  5
3C6
100
AcDbEntity
  8
LAYER_FEATURE
100
AcDbSpline
 62
7
  6
CONTINUOUS
 70
0
 71
3
 72
11
 73
7
 74
0
 42
0.0000001
 43
0.0000001
 44
0.0000000001
 40
0.0
 40
0.0
 40
0.0
 40
0.0
 40
0.2351964341
 40
0.4803432954
 40
0.7353660844
 40
1.0
 40
1.0
 40
1.0
 40
1.0
 10
15.3080058569
 20
13.5176450839
 30
0.0
 10
15.3075289805
 20
13.518446579
 30
0.0
 10
15.3064876701
 20
13.520044138
 30
0.0
 10
15.3047184912
 20
13.5223649757
 30
0.0
 10
15.3027191382
 20
13.5246481135
 30
0.0
 10
15.3012657762
 20
13.5261109694
 30
0.0
 10
15.3005050643
 20
13.5268337976
 30
0.0
  0
SPLINE
  5
3C7
100
AcDbEntity
  8
LAYER_FEATURE
100
AcDbSpline
 62
7
  6
CONTINUOUS
 70
0
 71
3
 72
39
 73
35
 74
0
 42
0.0000001
 43
0.0000001
 44
0.0000000001
 40
0.0
 40
0.0
 40
0.0
 40
0.0
 40
0.0267268326
 40
0.0546000742
 40
0.0836080995
 40
0.1137210799
 40
0.1448872589
 40
0.1770389029
 40
0.2100934659
 40
0.2439560534
 40
0.2785213322
 40
0.3136753538
 40
0.3492972425
 40
0.3852607837
 40
0.4214359497
 40
0.4576903816
 40
0.4938908596
 40
0.5299047591
 40
0.5656015019
 40
0.6008540295
 40
0.6355403184
 40
0.6695449633
 40
0.7027608678
 40
0.73509102
 40
0.7664504101
 40
0.7967681339
 40
0.8259897144
 40
0.8540796725
 40
0.8810243783
 40
0.9068350878
 40
0.9315510545
 40
0.9552424847
 40
0.9780128747
 40
1.0
 40
1.0
 40
1.0
 40
1.0
 10
15.3080058569
 20
13.5176450839
 30
0.0
 10
15.3084518683
 20
13.5168954642
 30
0.0
 10
15.3094269075
 20
13.5154013598
 30
0.0
 10
15.3110855102
 20
13.5132318977
 30
0.0
 10
15.3129619677
 20
13.5110983949
 30
0.0
 10
15.315045844
 20
13.5090124818
 30
0.0
 10
15.3173259074
 20
13.5069853119
 30
0.0
 10
15.3197897348
 20
13.5050278351
 30
0.0
 10
15.3224239557
 20
13.5031506413
 30
0.0
 10
15.3252142464
 20
13.5013639073
 30
0.0
 10
15.3281454302
 20
13.4996773345
 30
0.0
 10
15.3312015559
 20
13.4981000926
 30
0.0
 10
15.3343659854
 20
13.496640765
 30
0.0
 10
15.3376214851
 20
13.4953072993
 30
0.0
 10
15.3409503205
 20
13.4941069621
 30
0.0
 10
15.3443343532
 20
13.4930462951
 30
0.0
 10
15.3477551419
 20
13.4921310753
 30
0.0
 10
15.3511940469
 20
13.4913662883
 30
0.0
 10
15.3546323332
 20
13.4907561004
 30
0.0
 10
15.3580512746
 20
13.4903038364
 30
0.0
 10
15.3614322571
 20
13.4900119624
 30
0.0
 10
15.3647568838
 20
13.4898820754
 30
0.0
 10
15.3680070779
 20
13.4899148897
 30
0.0
 10
15.3711651848
 20
13.4901102444
 30
0.0
 10
15.3742140693
 20
13.4904671112
 30
0.0
 10
15.3771372087
 20
13.4909836093
 30
0.0
 10
15.3799187793
 20
13.4916570271
 30
0.0
 10
15.3825437361
 20
13.4924838548
 30
0.0
 10
15.3849978783
 20
13.4934598107
 30
0.0
 10
15.3872679078
 20
13.4945798952
 30
0.0
 10
15.38934142
 20
13.4958383834
 30
0.0
 10
15.3912070255
 20
13.4972290008
 30
0.0
 10
15.3928539305
 20
13.4987443352
 30
0.0
 10
15.3938146075
 20
13.4998498247
 30
0.0
 10
15.3942518079
 20
13.5004188424
 30
0.0
  0
SPLINE
  5
3C8
100
AcDbEntity
  8
LAYER_FEATURE
100
AcDbSpline
 62
7
  6
CONTINUOUS
 70
0
 71
3
 72
11
 73
7
 74
0
 42
0.0000001
 43
0.0000001
 44
0.0000000001
 40
0.0
 40
0.0
 40
0.0
 40
0.0
 40
0.2523380029
 40
0.5027018224
 40
0.7516978485
 40
1.0
 40
1.0
 40
1.0
 40
1.0
 10
15.4001992495
 20
13.5177984679
 30
0.0
 10
15.4000052307
 20
13.5174835775
 30
0.0
 10
15.3996377815
 20
13.5168442634
 30
0.0
 10
15.3991491886
 20
13.5158559343
 30
0.0
 10
15.398726502
 20
13.5148440727
 30
0.0
 10
15.3984888909
 20
13.5141543536
 30
0.0
 10
15.3983814362
 20
13.5138066298
 30
0.0
  0
SPLINE
  5
3C9
100
AcDbEntity
  8
LAYER_FEATURE
100
AcDbSpline
 62
7
  6
CONTINUOUS
 70
0
 71
3
 72
15
 73
11
 74
0
 42
0.0000001
 43
0.0000001
 44
0.0000000001
 40
0.0
 40
0.0
 40
0.0
 40
0.0
 40
0.1468555623
 40
0.2872109203
 40
0.4209120717
 40
0.5480229958
 40
0.66881973
 40
0.7838323901
 40
0.8938701554
 40
1.0
 40
1.0
 40
1.0
 40
1.0
 10
15.4076060631
 20
13.5219904079
 30
0.0
 10
15.4071835663
 20
13.5219171836
 30
0.0
 10
15.4063618538
 20
13.521745273
 30
0.0
 10
15.4051806371
 20
13.5214012934
 30
0.0
 10
15.4040863211
 20
13.5209791884
 30
0.0
 10
15.4030871763
 20
13.5204819419
 30
0.0
 10
15.4021907567
 20
13.5199129313
 30
0.0
 10
15.4014039371
 20
13.5192759926
 30
0.0
 10
15.4007332408
 20
13.5185757245
 30
0.0
 10
15.4003618041
 20
13.5180622921
 30
0.0
 10
15.4001992495
 20
13.5177984679
 30
0.0
  0
SPLINE
  5
3CA
100
AcDbEntity
  8
LAYER_FEATURE
100
AcDbSpline
 62
7
  6
CONTINUOUS
 70
0
 71
3
 72
15
 73
11
 74
0
 42
0.0000001
 43
0.0000001
 44
0.0000000001
 40
0.0
 40
0.0
 40
0.0
 40
0.0
 40
0.1107360819
 40
0.226364987
 40
0.3465780181
 40
0.4709842822
 40
0.5991026141
 40
0.7303833836
 40
0.8642341981
 40
1.0
 40
1.0
 40
1.0
 40
1.0
 10
15.447476463
 20
13.5114625193
 30
0.0
 10
15.4472086584
 20
13.5117866245
 30
0.0
 10
15.4466337599
 20
13.5124268407
 30
0.0
 10
15.4456843995
 20
13.5133394524
 30
0.0
 10
15.4446357783
 20
13.5142191416
 30
0.0
 10
15.4434958865
 20
13.5150592754
 30
0.0
 10
15.4422732476
 20
13.5158535707
 30
0.0
 10
15.4409770568
 20
13.5165960972
 30
0.0
 10
15.4396171239
 20
13.5172812108
 30
0.0
 10
15.4386798361
 20
13.5176940557
 30
0.0
 10
15.4382030251
 20
13.5178898959
 30
0.0
  0
SPLINE
  5
3CB
100
AcDbEntity
  8
LAYER_FEATURE
100
AcDbSpline
 62
7
  6
CONTINUOUS
 70
0
 71
3
 72
11
 73
7
 74
0
 42
0.0000001
 43
0.0000001
 44
0.0000000001
 40
0.0
 40
0.0
 40
0.0
 40
0.0
 40
0.4786187059
 40
0.6049400492
 40
0.7339514794
 40
1.0
 40
1.0
 40
1.0
 40
1.0
 10
15.4531472743
 20
13.5020822385
 30
0.0
 10
15.4525127834
 20
13.5037185465
 30
0.0
 10
15.4515054635
 20
13.5057122411
 30
0.0
 10
15.45006717
 20
13.5079865842
 30
0.0
 10
15.4489841363
 20
13.5095626752
 30
0.0
 10
15.4480978671
 20
13.5107104774
 30
0.0
 10
15.447476463
 20
13.5114625193
 30
0.0
  0
SPLINE
  5
3CC
100
AcDbEntity
  8
LAYER_FEATURE
100
AcDbSpline
 62
7
  6
CONTINUOUS
 70
0
 71
3
 72
46
 73
42
 74
0
 42
0.0000001
 43
0.0000001
 44
0.0000000001
 40
0.0
 40
0.0
 40
0.0
 40
0.0
 40
0.0256121171
 40
0.0525303126
 40
0.0664990253
 40
0.0808086435
 40
0.1104394994
 40
0.1413972297
 40
0.1736179442
 40
0.2070106145
 40
0.2414614452
 40
0.2768376837
 40
0.3129910866
 40
0.3497610815
 40
0.3869777126
 40
0.4244644295
 40
0.462040771
 40
0.499524991
 40
0.5367366644
 40
0.5734993129
 40
0.6096430908
 40
0.6450075751
 40
0.679444713
 40
0.7128219899
 40
0.7450258923
 40
0.7759657488
 40
0.8055780308
 40
0.8338311687
 40
0.8474518548
 40
0.8607384162
 40
0.8736982698
 40
0.8863419849
 40
0.8986831531
 40
0.9107387909
 40
0.9340664044
 40
0.9454007024
 40
0.9565504404
 40
0.9675485097
 40
0.9784311792
 40
0.9892362513
 40
1.0
 40
1.0
 40
1.0
 40
1.0
 10
15.4531472743
 20
13.5020822385
 30
0.0
 10
15.4534818166
 20
13.5012194772
 30
0.0
 10
15.4542679169
 20
13.4994875551
 30
0.0
 10
15.4554748443
 20
13.4974060187
 30
0.0
 10
15.456588079
 20
13.4957508072
 30
0.0
 10
15.45782942
 20
13.4940659116
 30
0.0
 10
15.4595683135
 20
13.4919885755
 30
0.0
 10
15.4619079435
 20
13.4895827257
 30
0.0
 10
15.4645078396
 20
13.4872520808
 30
0.0
 10
15.4673493325
 20
13.4850132425
 30
0.0
 10
15.4704121728
 20
13.4828820668
 30
0.0
 10
15.4736744736
 20
13.4808737408
 30
0.0
 10
15.4771129146
 20
13.4790025967
 30
0.0
 10
15.4807028937
 20
13.4772820132
 30
0.0
 10
15.484418709
 20
13.4757243047
 30
0.0
 10
15.4882337453
 20
13.4743406281
 30
0.0
 10
15.4921206692
 20
13.473140897
 30
0.0
 10
15.4960516297
 20
13.472133708
 30
0.0
 10
15.4999984627
 20
13.4713262769
 30
0.0
 10
15.5039328989
 20
13.4707243879
 30
0.0
 10
15.5078267723
 20
13.4703323527
 30
0.0
 10
15.5116522292
 20
13.4701529848
 30
0.0
 10
15.5153819328
 20
13.4701875851
 30
0.0
 10
15.5189892731
 20
13.4704359465
 30
0.0
 10
15.5224485358
 20
13.4708963634
 30
0.0
 10
15.5257351811
 20
13.4715657028
 30
0.0
 10
15.5288256777
 20
13.4724393403
 30
0.0
 10
15.5312487091
 20
13.4733436724
 30
0.0
 10
15.5330644088
 20
13.4741667342
 30
0.0
 10
15.5343471723
 20
13.4748231463
 30
0.0
 10
15.535565095
 20
13.475525022
 30
0.0
 10
15.5367160019
 20
13.4762710742
 30
0.0
 10
15.5377978549
 20
13.4770601264
 30
0.0
 10
15.5391306264
 20
13.4781551324
 30
0.0
 10
15.5403373859
 20
13.4793429193
 30
0.0
 10
15.5413964909
 20
13.4806161689
 30
0.0
 10
15.5421057619
 20
13.4815973506
 30
0.0
 10
15.5427359121
 20
13.482611949
 30
0.0
 10
15.5432858678
 20
13.4836581854
 30
0.0
 10
15.5437544435
 20
13.4847340326
 30
0.0
 10
15.5440122875
 20
13.4854703021
 30
0.0
 10
15.5441271098
 20
13.4858418528
 30
0.0
  0
SPLINE
  5
3CD
100
AcDbEntity
  8
LAYER_FEATURE
100
AcDbSpline
 62
7
  6
CONTINUOUS
 70
0
 71
3
 72
13
 73
9
 74
0
 42
0.0000001
 43
0.0000001
 44
0.0000000001
 40
0.0
 40
0.0
 40
0.0
 40
0.0
 40
0.2583660743
 40
0.5096312459
 40
0.6333212119
 40
0.7560760053
 40
0.8782039412
 40
1.0
 40
1.0
 40
1.0
 40
1.0
 10
15.5487279327
 20
13.4935677223
 30
0.0
 10
15.5482008902
 20
13.4930291853
 30
0.0
 10
15.5472165401
 20
13.4919108853
 30
0.0
 10
15.5461602945
 20
13.4903901216
 30
0.0
 10
15.5454431717
 20
13.4891271769
 30
0.0
 10
15.5449701354
 20
13.4881611246
 30
0.0
 10
15.5445599581
 20
13.4871727951
 30
0.0
 10
15.5443285742
 20
13.4864994931
 30
0.0
 10
15.544223695
 20
13.486160112
 30
0.0
  0
SPLINE
  5
3CE
100
AcDbEntity
  8
LAYER_FEATURE
100
AcDbSpline
 62
7
  6
CONTINUOUS
 70
0
 71
3
 72
15
 73
11
 74
0
 42
0.0000001
 43
0.0000001
 44
0.0000000001
 40
0.0
 40
0.0
 40
0.0
 40
0.0
 40
0.1454948959
 40
0.2854728415
 40
0.4195531538
 40
0.5475181586
 40
0.6693029258
 40
0.7850364361
 40
0.8950743513
 40
1.0
 40
1.0
 40
1.0
 40
1.0
 10
15.5573633273
 20
13.4968299605
 30
0.0
 10
15.5569070784
 20
13.4968004014
 30
0.0
 10
15.5560133554
 20
13.4967147931
 30
0.0
 10
15.5547113732
 20
13.4965008196
 30
0.0
 10
15.5534818735
 20
13.4962051063
 30
0.0
 10
15.5523341099
 20
13.4958297967
 30
0.0
 10
15.5512766499
 20
13.4953774934
 30
0.0
 10
15.5503173686
 20
13.4948512973
 30
0.0
 10
15.5494637727
 20
13.4942549417
 30
0.0
 10
15.5489585516
 20
13.4938033708
 30
0.0
 10
15.5487279327
 20
13.4935677223
 30
0.0
  0
SPLINE
  5
3CF
100
AcDbEntity
  8
LAYER_FEATURE
100
AcDbSpline
 62
7
  6
CONTINUOUS
 70
0
 71
3
 72
15
 73
11
 74
0
 42
0.0000001
 43
0.0000001
 44
0.0000000001
 40
0.0
 40
0.0
 40
0.0
 40
0.0
 40
0.1079592525
 40
0.2213057156
 40
0.3399231745
 40
0.4635751924
 40
0.5919023244
 40
0.7244471484
 40
0.8606838855
 40
1.0
 40
1.0
 40
1.0
 40
1.0
 10
15.5962742579
 20
13.4831449219
 30
0.0
 10
15.5960704474
 20
13.4834767971
 30
0.0
 10
15.5956196123
 20
13.4841372278
 30
0.0
 10
15.5948438083
 20
13.485088507
 30
0.0
 10
15.5939576768
 20
13.4860178199
 30
0.0
 10
15.5929680056
 20
13.4869181855
 30
0.0
 10
15.5918821819
 20
13.4877829283
 30
0.0
 10
15.5907083653
 20
13.4886056212
 30
0.0
 10
15.5894554265
 20
13.4893800351
 30
0.0
 10
15.588581955
 20
13.4898557551
 30
0.0
 10
15.5881344535
 20
13.4900845116
 30
0.0
  0
SPLINE
  5
3D0
100
AcDbEntity
  8
LAYER_FEATURE
100
AcDbSpline
 62
7
  6
CONTINUOUS
 70
0
 71
3
 72
11
 73
7
 74
0
 42
0.0000001
 43
0.0000001
 44
0.0000000001
 40
0.0
 40
0.0
 40
0.0
 40
0.0
 40
0.234949702
 40
0.4792983479
 40
0.734080326
 40
1.0
 40
1.0
 40
1.0
 40
1.0
 10
15.600004712
 20
13.4737556506
 30
0.0
 10
15.5998664653
 20
13.4745391671
 30
0.0
 10
15.5994948845
 20
13.4761228347
 30
0.0
 10
15.598682705
 20
13.4784762188
 30
0.0
 10
15.5976106623
 20
13.4808384792
 30
0.0
 10
15.5967454994
 20
13.4823775749
 30
0.0
 10
15.5962742579
 20
13.4831449219
 30
0.0
  0
SPLINE
  5
3D1
100
AcDbEntity
  8
LAYER_FEATURE
100
AcDbSpline
 62
7
  6
CONTINUOUS
 70
0
 71
3
 72
41
 73
37
 74
0
 42
0.0000001
 43
0.0000001
 44
0.0000000001
 40
0.0
 40
0.0
 40
0.0
 40
0.0
 40
0.0236211497
 40
0.0483617983
 40
0.0743510358
 40
0.1016673274
 40
0.1303423823
 40
0.1603671765
 40
0.1916973252
 40
0.224258305
 40
0.2579500731
 40
0.292651211
 40
0.3282226263
 40
0.36451091
 40
0.4013514262
 40
0.438571206
 40
0.475991705
 40
0.5134314748
 40
0.5507087894
 40
0.5876442688
 40
0.6240635373
 40
0.6597999585
 40
0.6946974961
 40
0.7286137568
 40
0.7614232837
 40
0.7930211796
 40
0.8233271459
 40
0.8522900111
 40
0.8798927879
 40
0.9061581471
 40
0.9311540889
 40
0.954998792
 40
0.9665466553
 40
0.9778763581
 40
0.9890175761
 40
1.0
 40
1.0
 40
1.0
 40
1.0
 10
15.600004712
 20
13.4737556506
 30
0.0
 10
15.6001538047
 20
13.4729106636
 30
0.0
 10
15.6005723995
 20
13.4711991106
 30
0.0
 10
15.601517943
 20
13.4686636452
 30
0.0
 10
15.6027865002
 20
13.4661227778
 30
0.0
 10
15.6043681631
 20
13.4635947399
 30
0.0
 10
15.6062512472
 20
13.4610969203
 30
0.0
 10
15.6084220654
 20
13.4586468157
 30
0.0
 10
15.6108650036
 20
13.4562616413
 30
0.0
 10
15.6135625411
 20
13.4539582755
 30
0.0
 10
15.6164953469
 20
13.4517530953
 30
0.0
 10
15.6196423932
 20
13.4496618412
 30
0.0
 10
15.622981098
 20
13.4476994831
 30
0.0
 10
15.6264874834
 20
13.4458800971
 30
0.0
 10
15.6301363484
 20
13.4442167525
 30
0.0
 10
15.633901453
 20
13.4427214087
 30
0.0
 10
15.6377557106
 20
13.4414048233
 30
0.0
 10
15.6416713876
 20
13.4402764699
 30
0.0
 10
15.6456203078
 20
13.4393444678
 30
0.0
 10
15.6495740605
 20
13.4386155223
 30
0.0
 10
15.6535042112
 20
13.4380948774
 30
0.0
 10
15.6573825127
 20
13.4377862799
 30
0.0
 10
15.6611811151
 20
13.4376919585
 30
0.0
 10
15.6648727735
 20
13.4378126159
 30
0.0
 10
15.66843105
 20
13.4381474374
 30
0.0
 10
15.671830508
 20
13.4386941178
 30
0.0
 10
15.6750468901
 20
13.4394489046
 30
0.0
 10
15.6780572847
 20
13.4404066726
 30
0.0
 10
15.6808402183
 20
13.4415609727
 30
0.0
 10
15.6833758421
 20
13.4429042377
 30
0.0
 10
15.685645561
 20
13.4444274248
 30
0.0
 10
15.6873195751
 20
13.4458541096
 30
0.0
 10
15.6885015225
 20
13.4470734902
 30
0.0
 10
15.6893024369
 20
13.4480157943
 30
0.0
 10
15.6900254023
 20
13.4489936564
 30
0.0
 10
15.6904573034
 20
13.4496723224
 30
0.0
 10
15.6906592032
 20
13.4500163969
 30
0.0
  0
SPLINE
  5
3D2
100
AcDbEntity
  8
LAYER_FEATURE
100
AcDbSpline
 62
7
  6
CONTINUOUS
 70
0
 71
3
 72
11
 73
7
 74
0
 42
0.0000001
 43
0.0000001
 44
0.0000000001
 40
0.0
 40
0.0
 40
0.0
 40
0.0
 40
0.2634837903
 40
0.516907724
 40
0.7617893572
 40
1.0
 40
1.0
 40
1.0
 40
1.0
 10
15.6971122675
 20
13.4567389595
 30
0.0
 10
15.6964321137
 20
13.4562726452
 30
0.0
 10
15.6951390301
 20
13.4552953319
 30
0.0
 10
15.6933907902
 20
13.453667632
 30
0.0
 10
15.6918838673
 20
13.4519169235
 30
0.0
 10
15.6910365247
 20
13.4506594227
 30
0.0
 10
15.6906592032
 20
13.4500163969
 30
0.0
  0
SPLINE
  5
3D3
100
AcDbEntity
  8
LAYER_FEATURE
100
AcDbSpline
 62
7
  6
CONTINUOUS
 70
0
 71
3
 72
14
 73
10
 74
0
 42
0.0000001
 43
0.0000001
 44
0.0000000001
 40
0.0
 40
0.0
 40
0.0
 40
0.0
 40
0.1429220161
 40
0.2814714685
 40
0.4151253804
 40
0.5434817131
 40
0.6662443328
 40
0.7832584782
 40
1.0
 40
1.0
 40
1.0
 40
1.0
 10
15.7068081648
 20
13.4590080001
 30
0.0
 10
15.7063266812
 20
13.4590230032
 30
0.0
 10
15.7053773507
 20
13.4590259119
 30
0.0
 10
15.7039796035
 20
13.4589458839
 30
0.0
 10
15.7026384695
 20
13.4587819349
 30
0.0
 10
15.7013641794
 20
13.4585353362
 30
0.0
 10
15.7001658302
 20
13.4582076301
 30
0.0
 10
15.6987196744
 20
13.4576798949
 30
0.0
 10
15.6977147845
 20
13.4571520459
 30
0.0
 10
15.6971122675
 20
13.4567389595
 30
0.0
  0
SPLINE
  5
3D4
100
AcDbEntity
  8
LAYER_FEATURE
100
AcDbSpline
 62
7
  6
CONTINUOUS
 70
0
 71
3
 72
14
 73
10
 74
0
 42
0.0000001
 43
0.0000001
 44
0.0000000001
 40
0.0
 40
0.0
 40
0.0
 40
0.0
 40
0.2170361727
 40
0.3341760774
 40
0.4570178366
 40
0.5853862742
 40
0.7189689344
 40
0.8573510189
 40
1.0
 40
1.0
 40
1.0
 40
1.0
 10
15.7440022692
 20
13.4424321752
 30
0.0
 10
15.7437249405
 20
13.443113815
 30
0.0
 10
15.7431748992
 20
13.4441157972
 30
0.0
 10
15.742256709
 20
13.4453649721
 30
0.0
 10
15.7414362064
 20
13.4463086233
 30
0.0
 10
15.7405081827
 20
13.4472271741
 30
0.0
 10
15.7394793861
 20
13.4481142286
 30
0.0
 10
15.7383576524
 20
13.4489630022
 30
0.0
 10
15.7375642924
 20
13.4494919313
 30
0.0
 10
15.7371545304
 20
13.4497489067
 30
0.0
  0
SPLINE
  5
3D5
100
AcDbEntity
  8
LAYER_FEATURE
100
AcDbSpline
 62
7
  6
CONTINUOUS
 70
0
 71
3
 72
11
 73
7
 74
0
 42
0.0000001
 43
0.0000001
 44
0.0000000001
 40
0.0
 40
0.0
 40
0.0
 40
0.0
 40
0.2378254881
 40
0.4826248746
 40
0.7362008747
 40
1.0
 40
1.0
 40
1.0
 40
1.0
 10
15.745719757
 20
13.4332166649
 30
0.0
 10
15.7457555436
 20
13.4339644743
 30
0.0
 10
15.7457340728
 20
13.4354879094
 30
0.0
 10
15.745431446
 20
13.437790327
 30
0.0
 10
15.7448606891
 20
13.4401251985
 30
0.0
 10
15.7443152233
 20
13.4416629727
 30
0.0
 10
15.7440022692
 20
13.4424321752
 30
0.0
  0
SPLINE
  5
3D6
100
AcDbEntity
  8
LAYER_FEATURE
100
AcDbSpline
 62
7
  6
CONTINUOUS
 70
0
 71
3
 72
41
 73
37
 74
0
 42
0.0000001
 43
0.0000001
 44
0.0000000001
 40
0.0
 40
0.0
 40
0.0
 40
0.0
 40
0.011022897
 40
0.0222144194
 40
0.0336034182
 40
0.0452186473
 40
0.0692186098
 40
0.0943902611
 40
0.1208441203
 40
0.1486411931
 40
0.177797972
 40
0.2082921236
 40
0.2400679081
 40
0.2730411612
 40
0.3071037461
 40
0.3421275254
 40
0.3779679297
 40
0.4144672097
 40
0.4514574472
 40
0.488763394
 40
0.5262051922
 40
0.5636010245
 40
0.600769735
 40
0.6375334599
 40
0.6737203076
 40
0.7091671329
 40
0.7437224548
 40
0.7772495806
 40
0.8096300078
 40
0.8407671837
 40
0.8705907185
 40
0.8990610811
 40
0.9261748902
 40
0.9519703212
 40
0.9765330699
 40
1.0
 40
1.0
 40
1.0
 40
1.0
 10
15.745719757
 20
13.4332166649
 30
0.0
 10
15.7457006139
 20
13.4328166454
 30
0.0
 10
15.7456909631
 20
13.4320088319
 30
0.0
 10
15.7457609793
 20
13.4307890905
 30
0.0
 10
15.7459153489
 20
13.4295553916
 30
0.0
 10
15.7462365135
 20
13.4278771217
 30
0.0
 10
15.7468549964
 20
13.4257510239
 30
0.0
 10
15.7479173325
 20
13.4232115978
 30
0.0
 10
15.7492993496
 20
13.420673304
 30
0.0
 10
15.7509905081
 20
13.4181540834
 30
0.0
 10
15.7529784053
 20
13.4156713699
 30
0.0
 10
15.7552486626
 20
13.4132425744
 30
0.0
 10
15.7577849739
 20
13.4108848072
 30
0.0
 10
15.7605691581
 20
13.4086147836
 30
0.0
 10
15.7635812612
 20
13.4064486683
 30
0.0
 10
15.766799681
 20
13.4044019402
 30
0.0
 10
15.7702013161
 20
13.4024892627
 30
0.0
 10
15.7737617296
 20
13.4007243633
 30
0.0
 10
15.7774553265
 20
13.3991199249
 30
0.0
 10
15.7812555408
 20
13.397687486
 30
0.0
 10
15.7851350308
 20
13.3964373529
 30
0.0
 10
15.7890658804
 20
13.3953785213
 30
0.0
 10
15.7930198053
 20
13.3945186099
 30
0.0
 10
15.7969683621
 20
13.393863805
 30
0.0
 10
15.800883159
 20
13.3934188172
 30
0.0
 10
15.8047360673
 20
13.3931868511
 30
0.0
 10
15.8084994301
 20
13.3931695883
 30
0.0
 10
15.8121462692
 20
13.3933671857
 30
0.0
 10
15.8156504833
 20
13.3937782904
 30
0.0
 10
15.8189870402
 20
13.3944000727
 30
0.0
 10
15.8221321436
 20
13.3952282766
 30
0.0
 10
15.8250634006
 20
13.3962573042
 30
0.0
 10
15.827759864
 20
13.3974802498
 30
0.0
 10
15.8302023036
 20
13.3988891829
 30
0.0
 10
15.8323724785
 20
13.4004744585
 30
0.0
 10
15.8336536499
 20
13.4016670526
 30
0.0
 10
15.8342380563
 20
13.4022878365
 30
0.0
  0
SPLINE
  5
3D7
100
AcDbEntity
  8
LAYER_FEATURE
100
AcDbSpline
 62
7
  6
CONTINUOUS
 70
0
 71
3
 72
11
 73
7
 74
0
 42
0.0000001
 43
0.0000001
 44
0.0000000001
 40
0.0
 40
0.0
 40
0.0
 40
0.0
 40
0.2658270847
 40
0.5205371002
 40
0.7648947658
 40
1.0
 40
1.0
 40
1.0
 40
1.0
 10
15.8424641214
 20
13.4080290094
 30
0.0
 10
15.8416531657
 20
13.4076529066
 30
0.0
 10
15.840093137
 20
13.4068536833
 30
0.0
 10
15.8379119743
 20
13.4054837581
 30
0.0
 10
15.83595232
 20
13.4039757661
 30
0.0
 10
15.8347799835
 20
13.4028634969
 30
0.0
 10
15.8342380563
 20
13.4022878365
 30
0.0
  0
SPLINE
  5
3D8
100
AcDbEntity
  8
LAYER_FEATURE
100
AcDbSpline
 62
7
  6
CONTINUOUS
 70
0
 71
3
 72
15
 73
11
 74
0
 42
0.0000001
 43
0.0000001
 44
0.0000000001
 40
0.0
 40
0.0
 40
0.0
 40
0.0
 40
0.1396246817
 40
0.276064323
 40
0.4087118057
 40
0.5370492116
 40
0.6606296235
 40
0.7791071646
 40
0.8922623889
 40
1.0
 40
1.0
 40
1.0
 40
1.0
 10
15.853031802
 20
13.4092606882
 30
0.0
 10
15.8525342368
 20
13.4093203182
 30
0.0
 10
15.8515471316
 20
13.4094123807
 30
0.0
 10
15.8500805231
 20
13.4094677629
 30
0.0
 10
15.8486535678
 20
13.4094386217
 30
0.0
 10
15.8472770537
 20
13.4093251858
 30
0.0
 10
15.8459612823
 20
13.4091282455
 30
0.0
 10
15.8447160457
 20
13.4088492281
 30
0.0
 10
15.8435508077
 20
13.4084901518
 30
0.0
 10
15.8428149118
 20
13.408191698
 30
0.0
 10
15.8424641214
 20
13.4080290094
 30
0.0
  0
SPLINE
  5
3D9
100
AcDbEntity
  8
LAYER_FEATURE
100
AcDbSpline
 62
7
  6
CONTINUOUS
 70
0
 71
3
 72
15
 73
11
 74
0
 42
0.0000001
 43
0.0000001
 44
0.0000000001
 40
0.0
 40
0.0
 40
0.0
 40
0.0
 40
0.1064250934
 40
0.2183938498
 40
0.3359677083
 40
0.4590557517
 40
0.587415626
 40
0.7206815348
 40
0.8583973345
 40
1.0
 40
1.0
 40
1.0
 40
1.0
 10
16.6086731954
 20
12.5532847628
 30
0.0
 10
16.6085156182
 20
12.553617889
 30
0.0
 10
16.6081551311
 20
12.5542843889
 30
0.0
 10
16.6075062796
 20
12.5552517516
 30
0.0
 10
16.6067407321
 20
12.5562047937
 30
0.0
 10
16.6058644079
 20
12.5571363768
 30
0.0
 10
16.6048838562
 20
12.5580396494
 30
0.0
 10
16.6038064487
 20
12.5589079302
 30
0.0
 10
16.6026403215
 20
12.5597346698
 30
0.0
 10
16.6018197036
 20
12.5602477114
 30
0.0
 10
16.6013970182
 20
12.5604962161
 30
0.0
  0
SPLINE
  5
3DA
100
AcDbEntity
  8
LAYER_FEATURE
100
AcDbSpline
 62
7
  6
CONTINUOUS
 70
0
 71
3
 72
15
 73
11
 74
0
 42
0.0000001
 43
0.0000001
 44
0.0000000001
 40
0.0
 40
0.0
 40
0.0
 40
0.0
 40
0.1049270206
 40
0.2150330259
 40
0.3308618047
 40
0.4527339473
 40
0.5807485544
 40
0.7148159871
 40
0.8546985977
 40
1.0
 40
1.0
 40
1.0
 40
1.0
 10
15.8877851392
 20
13.3901167066
 30
0.0
 10
15.887721222
 20
13.3904423682
 30
0.0
 10
15.8875459585
 20
13.3911016731
 30
0.0
 10
15.8871592453
 20
13.3920762886
 30
0.0
 10
15.8866462143
 20
13.3930515804
 30
0.0
 10
15.8860110722
 20
13.39402024
 30
0.0
 10
15.8852586851
 20
13.3949752676
 30
0.0
 10
15.8843947732
 20
13.3959096917
 30
0.0
 10
15.883425881
 20
13.3968165406
 30
0.0
 10
15.8827271691
 20
13.3973881541
 30
0.0
 10
15.8823627493
 20
13.3976681681
 30
0.0
  0
SPLINE
  5
3DB
100
AcDbEntity
  8
LAYER_FEATURE
100
AcDbSpline
 62
7
  6
CONTINUOUS
 70
0
 71
3
 72
13
 73
9
 74
0
 42
0.0000001
 43
0.0000001
 44
0.0000000001
 40
0.0
 40
0.0
 40
0.0
 40
0.0
 40
0.1214798309
 40
0.2433679822
 40
0.3659667888
 40
0.489591884
 40
0.7410269893
 40
1.0
 40
1.0
 40
1.0
 40
1.0
 10
15.8874562317
 20
13.3812543266
 30
0.0
 10
15.8875592231
 20
13.3816019132
 30
0.0
 10
15.8877433552
 20
13.3823050528
 30
0.0
 10
15.8879524877
 20
13.3833776738
 30
0.0
 10
15.888094451
 20
13.3844677506
 30
0.0
 10
15.8881945663
 20
13.3859503229
 30
0.0
 10
15.8881479444
 20
13.3878466008
 30
0.0
 10
15.8879339827
 20
13.3893583395
 30
0.0
 10
15.8877851392
 20
13.3901167066
 30
0.0
  0
SPLINE
  5
3DC
100
AcDbEntity
  8
LAYER_FEATURE
100
AcDbSpline
 62
7
  6
CONTINUOUS
 70
0
 71
3
 72
15
 73
11
 74
0
 42
0.0000001
 43
0.0000001
 44
0.0000000001
 40
0.0
 40
0.0
 40
0.0
 40
0.0
 40
0.1087918899
 40
0.222841739
 40
0.3419639543
 40
0.465866021
 40
0.5941439341
 40
0.7263060369
 40
0.8618012408
 40
1.0
 40
1.0
 40
1.0
 40
1.0
 10
16.6161449912
 20
12.6428828769
 30
0.0
 10
16.6159201807
 20
12.6432130194
 30
0.0
 10
16.6154285089
 20
12.6438684212
 30
0.0
 10
16.6145954724
 20
12.6448092797
 30
0.0
 10
16.6136554259
 20
12.6457246279
 30
0.0
 10
16.6126155527
 20
12.6466075804
 30
0.0
 10
16.6114836173
 20
12.6474515699
 30
0.0
 10
16.6102681273
 20
12.6482503127
 30
0.0
 10
16.6089782725
 20
12.6489977525
 30
0.0
 10
16.6080825713
 20
12.6494543921
 30
0.0
 10
16.6076247572
 20
12.649673119
 30
0.0
  0
SPLINE
  5
3DD
100
AcDbEntity
  8
LAYER_FEATURE
100
AcDbSpline
 62
7
  6
CONTINUOUS
 70
0
 71
3
 72
42
 73
38
 74
0
 42
0.0000001
 43
0.0000001
 44
0.0000000001
 40
0.0
 40
0.0
 40
0.0
 40
0.0
 40
0.0107696919
 40
0.0215875598
 40
0.0324895566
 40
0.0435130792
 40
0.0546942465
 40
0.0660657323
 40
0.0894833987
 40
0.113977796
 40
0.1396939643
 40
0.1667245305
 40
0.1951140569
 40
0.2248644842
 40
0.2559407691
 40
0.2882761923
 40
0.3217771654
 40
0.3563275195
 40
0.391792337
 40
0.4280214098
 40
0.4648524081
 40
0.5021138341
 40
0.5396278222
 40
0.5772128396
 40
0.6146863311
 40
0.6518673484
 40
0.688579204
 40
0.7246521897
 40
0.759926406
 40
0.7942547581
 40
0.8275061803
 40
0.8595691767
 40
0.8903557248
 40
0.9198057456
 40
0.9340228489
 40
0.9478985032
 40
1.0
 40
1.0
 40
1.0
 40
1.0
 10
15.8874562317
 20
13.3812543266
 30
0.0
 10
15.8873454818
 20
13.380880556
 30
0.0
 10
15.8871513198
 20
13.3801227763
 30
0.0
 10
15.8869442287
 20
13.3789640949
 30
0.0
 10
15.8868214347
 20
13.3777841918
 30
0.0
 10
15.8867830906
 20
13.3765854417
 30
0.0
 10
15.886829277
 20
13.3753699618
 30
0.0
 10
15.8870049156
 20
13.3737141797
 30
0.0
 10
15.8874424514
 20
13.3716069637
 30
0.0
 10
15.8882951054
 20
13.3690759667
 30
0.0
 10
15.8894731367
 20
13.3665347473
 30
0.0
 10
15.890967267
 20
13.3640013185
 30
0.0
 10
15.8927663242
 20
13.3614931598
 30
0.0
 10
15.8948571883
 20
13.3590277897
 30
0.0
 10
15.8972247883
 20
13.3566225032
 30
0.0
 10
15.8998521358
 20
13.3542942923
 30
0.0
 10
15.9027204016
 20
13.3520596892
 30
0.0
 10
15.9058090249
 20
13.3499346287
 30
0.0
 10
15.9090958484
 20
13.3479343119
 30
0.0
 10
15.9125572722
 20
13.3460730798
 30
0.0
 10
15.9161684234
 20
13.3443642975
 30
0.0
 10
15.919903337
 20
13.3428202487
 30
0.0
 10
15.9237351461
 20
13.3414520397
 30
0.0
 10
15.9276362797
 20
13.3402695154
 30
0.0
 10
15.9315786657
 20
13.3392811851
 30
0.0
 10
15.9355339388
 20
13.3384941596
 30
0.0
 10
15.9394736496
 20
13.3379141007
 30
0.0
 10
15.9433694767
 20
13.3375451821
 30
0.0
 10
15.9471934357
 20
13.3373900633
 30
0.0
 10
15.9509180922
 20
13.3374498795
 30
0.0
 10
15.954516751
 20
13.3377242422
 30
0.0
 10
15.9579637037
 20
13.3382112683
 30
0.0
 10
15.9612342338
 20
13.338907598
 30
0.0
 10
15.963823158
 20
13.3396670532
 30
0.0
 10
15.9657817479
 20
13.3403782564
 30
0.0
 10
15.9684640202
 20
13.3414865963
 30
0.0
 10
15.9705780263
 20
13.3426456164
 30
0.0
 10
15.9721154312
 20
13.343737918
 30
0.0
  0
SPLINE
  5
3DE
100
AcDbEntity
  8
LAYER_FEATURE
100
AcDbSpline
 62
7
  6
CONTINUOUS
 70
0
 71
3
 72
11
 73
7
 74
0
 42
0.0000001
 43
0.0000001
 44
0.0000000001
 40
0.0
 40
0.0
 40
0.0
 40
0.0
 40
0.2661146329
 40
0.3951301138
 40
0.5214426324
 40
1.0
 40
1.0
 40
1.0
 40
1.0
 10
15.9819543861
 20
13.3483859558
 30
0.0
 10
15.9810267011
 20
13.348106664
 30
0.0
 10
15.979662444
 20
13.3476455856
 30
0.0
 10
15.9779005541
 20
13.3469374059
 30
0.0
 10
15.975462237
 20
13.3458459255
 30
0.0
 10
15.9735356939
 20
13.344746992
 30
0.0
 10
15.9721154312
 20
13.343737918
 30
0.0
  0
SPLINE
  5
3DF
100
AcDbEntity
  8
LAYER_FEATURE
100
AcDbSpline
 62
7
  6
CONTINUOUS
 70
0
 71
3
 72
15
 73
11
 74
0
 42
0.0000001
 43
0.0000001
 44
0.0000000001
 40
0.0
 40
0.0
 40
0.0
 40
0.0
 40
0.1360880313
 40
0.2701586149
 40
0.4015592968
 40
0.5297022355
 40
0.6540443821
 40
0.7741134808
 40
0.8895301026
 40
1.0
 40
1.0
 40
1.0
 40
1.0
 10
15.993188162
 20
13.3485562996
 30
0.0
 10
15.9926840972
 20
13.3486597565
 30
0.0
 10
15.9916780552
 20
13.3488399141
 30
0.0
 10
15.9901709068
 20
13.3490296146
 30
0.0
 10
15.988685615
 20
13.349135783
 30
0.0
 10
15.9872334328
 20
13.3491576357
 30
0.0
 10
15.9858252554
 20
13.3490949711
 30
0.0
 10
15.9844716092
 20
13.3489482565
 30
0.0
 10
15.9831827692
 20
13.3487185488
 30
0.0
 10
15.9823543584
 20
13.3485063728
 30
0.0
 10
15.9819543861
 20
13.3483859558
 30
0.0
  0
SPLINE
  5
3E0
100
AcDbEntity
  8
LAYER_FEATURE
100
AcDbSpline
 62
7
  6
CONTINUOUS
 70
0
 71
3
 72
15
 73
11
 74
0
 42
0.0000001
 43
0.0000001
 44
0.0000000001
 40
0.0
 40
0.0
 40
0.0
 40
0.0
 40
0.1117088747
 40
0.2281055995
 40
0.3488335814
 40
0.4734641176
 40
0.6014868631
 40
0.7323309145
 40
0.8653895313
 40
1.0
 40
1.0
 40
1.0
 40
1.0
 10
16.6026963797
 20
12.7364405867
 30
0.0
 10
16.6024093085
 20
12.7367607944
 30
0.0
 10
16.6017972854
 20
12.7373918511
 30
0.0
 10
16.6007962012
 20
12.7382884134
 30
0.0
 10
16.5996998016
 20
12.7391486576
 30
0.0
 10
16.5985164346
 20
12.7399660922
 30
0.0
 10
16.5972549559
 20
12.7407345911
 30
0.0
 10
16.5959248558
 20
12.7414484112
 30
0.0
 10
16.5945362055
 20
12.7421021215
 30
0.0
 10
16.5935822102
 20
12.7424930218
 30
0.0
 10
16.5930979254
 20
12.7426774533
 30
0.0
  0
SPLINE
  5
3E1
100
AcDbEntity
  8
LAYER_FEATURE
100
AcDbSpline
 62
7
  6
CONTINUOUS
 70
0
 71
3
 72
15
 73
11
 74
0
 42
0.0000001
 43
0.0000001
 44
0.0000000001
 40
0.0
 40
0.0
 40
0.0
 40
0.0
 40
0.1059200211
 40
0.2158917803
 40
0.3309372844
 40
0.4518211725
 40
0.5790327385
 40
0.7128124504
 40
0.85319437
 40
1.0
 40
1.0
 40
1.0
 40
1.0
 10
16.0248242978
 20
13.3272167771
 30
0.0
 10
16.0248325191
 20
13.3275279622
 30
0.0
 10
16.0248024849
 20
13.3281642434
 30
0.0
 10
16.0246247994
 20
13.3291231264
 30
0.0
 10
16.0243158489
 20
13.3300941915
 30
0.0
 10
16.0238785446
 20
13.3310699822
 30
0.0
 10
16.0233165082
 20
13.3320434597
 30
0.0
 10
16.0226341833
 20
13.3330075776
 30
0.0
 10
16.0218368302
 20
13.333955214
 30
0.0
 10
16.0212452546
 20
13.3345584587
 30
0.0
 10
16.0209327976
 20
13.3348559879
 30
0.0
  0
SPLINE
  5
3E2
100
AcDbEntity
  8
LAYER_FEATURE
100
AcDbSpline
 62
7
  6
CONTINUOUS
 70
0
 71
3
 72
11
 73
7
 74
0
 42
0.0000001
 43
0.0000001
 44
0.0000000001
 40
0.0
 40
0.0
 40
0.0
 40
0.0
 40
0.2647874317
 40
0.5198409977
 40
0.7649250881
 40
1.0
 40
1.0
 40
1.0
 40
1.0
 10
16.1128680422
 20
13.278970683
 30
0.0
 10
16.111840217
 20
13.2787936859
 30
0.0
 10
16.1098318528
 20
13.2783872998
 30
0.0
 10
16.1069207495
 20
13.2776023654
 30
0.0
 10
16.1041809846
 20
13.2766571864
 30
0.0
 10
16.1024420595
 20
13.275907717
 30
0.0
 10
16.1016077015
 20
13.275506249
 30
0.0
  0
SPLINE
  5
3E3
100
AcDbEntity
  8
LAYER_FEATURE
100
AcDbSpline
 62
7
  6
CONTINUOUS
 70
0
 71
3
 72
15
 73
11
 74
0
 42
0.0000001
 43
0.0000001
 44
0.0000000001
 40
0.0
 40
0.0
 40
0.0
 40
0.0
 40
0.1149183344
 40
0.2337832803
 40
0.3561200341
 40
0.4814083071
 40
0.6090690534
 40
0.7384840965
 40
0.869018445
 40
1.0
 40
1.0
 40
1.0
 40
1.0
 10
16.5685891228
 20
12.8321368977
 30
0.0
 10
16.5682459849
 20
12.8324407373
 30
0.0
 10
16.5675266155
 20
12.8330351373
 30
0.0
 10
16.5663767927
 20
12.8338702827
 30
0.0
 10
16.565145189
 20
12.83465893
 30
0.0
 10
16.5638411725
 20
12.8353951181
 30
0.0
 10
16.5624745243
 20
12.836073303
 30
0.0
 10
16.5610555351
 20
12.836688408
 30
0.0
 10
16.5595949616
 20
12.8372357424
 30
0.0
 10
16.5586007718
 20
12.8375527481
 30
0.0
 10
16.5580992712
 20
12.8376989953
 30
0.0
  0
SPLINE
  5
3E4
100
AcDbEntity
  8
LAYER_FEATURE
100
AcDbSpline
 62
7
  6
CONTINUOUS
 70
0
 71
3
 72
11
 73
7
 74
0
 42
0.0000001
 43
0.0000001
 44
0.0000000001
 40
0.0
 40
0.0
 40
0.0
 40
0.0
 40
0.2527568131
 40
0.5042648135
 40
0.7536346266
 40
1.0
 40
1.0
 40
1.0
 40
1.0
 10
16.5580992712
 20
12.8376989953
 30
0.0
 10
16.5568861222
 20
12.8380527727
 30
0.0
 10
16.5544507787
 20
12.838708148
 30
0.0
 10
16.5507733675
 20
12.8395337619
 30
0.0
 10
16.5470955632
 20
12.8401963608
 30
0.0
 10
16.5446386179
 20
12.8405294752
 30
0.0
 10
16.5434146405
 20
12.8406674203
 30
0.0
  0
SPLINE
  5
3E5
100
AcDbEntity
  8
LAYER_FEATURE
100
AcDbSpline
 62
7
  6
CONTINUOUS
 70
0
 71
3
 72
15
 73
11
 74
0
 42
0.0000001
 43
0.0000001
 44
0.0000000001
 40
0.0
 40
0.0
 40
0.0
 40
0.0
 40
0.1324645656
 40
0.2640364109
 40
0.3940448103
 40
0.5218635406
 40
0.6468905585
 40
0.7685711901
 40
0.886418219
 40
1.0
 40
1.0
 40
1.0
 40
1.0
 10
16.1245492607
 20
13.2780763761
 30
0.0
 10
16.1240484997
 20
13.2782219964
 30
0.0
 10
16.1230429467
 20
13.278487469
 30
0.0
 10
16.1215244076
 20
13.2788078121
 30
0.0
 10
16.1200094751
 20
13.279047222
 30
0.0
 10
16.1185096437
 20
13.2792039075
 30
0.0
 10
16.1170361852
 20
13.2792766625
 30
0.0
 10
16.115600152
 20
13.2792649565
 30
0.0
 10
16.1142124454
 20
13.2791688426
 30
0.0
 10
16.1133087199
 20
13.2790465702
 30
0.0
 10
16.1128680422
 20
13.278970683
 30
0.0
  0
SPLINE
  5
3E6
100
AcDbEntity
  8
LAYER_FEATURE
100
AcDbSpline
 62
7
  6
CONTINUOUS
 70
0
 71
3
 72
15
 73
11
 74
0
 42
0.0000001
 43
0.0000001
 44
0.0000000001
 40
0.0
 40
0.0
 40
0.0
 40
0.0
 40
0.1095990505
 40
0.221236262
 40
0.3364094686
 40
0.4563979859
 40
0.5821913754
 40
0.7144841806
 40
0.8537034563
 40
1.0
 40
1.0
 40
1.0
 40
1.0
 10
16.1524524337
 20
13.2549566623
 30
0.0
 10
16.152531281
 20
13.255246457
 30
0.0
 10
16.1526457313
 20
13.2558445927
 30
0.0
 10
16.1526822228
 20
13.2567688385
 30
0.0
 10
16.1525847221
 20
13.257717175
 30
0.0
 10
16.1523546459
 20
13.2586818304
 30
0.0
 10
16.151994355
 20
13.2596555943
 30
0.0
 10
16.1515070512
 20
13.260631346
 30
0.0
 10
16.1508967244
 20
13.2616018941
 30
0.0
 10
16.150422545
 20
13.2622255813
 30
0.0
 10
16.1501675668
 20
13.2625349339
 30
0.0
  0
SPLINE
  5
3E7
100
AcDbEntity
  8
LAYER_FEATURE
100
AcDbSpline
 62
7
  6
CONTINUOUS
 70
0
 71
3
 72
15
 73
11
 74
0
 42
0.0000001
 43
0.0000001
 44
0.0000000001
 40
0.0
 40
0.0
 40
0.0
 40
0.0
 40
0.1182844176
 40
0.2396684012
 40
0.363595184
 40
0.4894837712
 40
0.6167129752
 40
0.7446405358
 40
0.8726238124
 40
1.0
 40
1.0
 40
1.0
 40
1.0
 10
16.5144870794
 20
12.9281091901
 30
0.0
 10
16.5140950803
 20
12.9283907611
 30
0.0
 10
16.5132832473
 20
12.9289371868
 30
0.0
 10
16.5120068761
 20
12.929694861
 30
0.0
 10
16.510663856
 20
12.9303967143
 30
0.0
 10
16.5092643991
 20
12.9310374394
 30
0.0
 10
16.5078190203
 20
12.9316121964
 30
0.0
 10
16.5063386081
 20
12.9321166822
 30
0.0
 10
16.504834394
 20
12.9325470423
 30
0.0
 10
16.5038190518
 20
12.93278337
 30
0.0
 10
16.5033100036
 20
12.9328882588
 30
0.0
  0
SPLINE
  5
3E8
100
AcDbEntity
  8
LAYER_FEATURE
100
AcDbSpline
 62
7
  6
CONTINUOUS
 70
0
 71
3
 72
11
 73
7
 74
0
 42
0.0000001
 43
0.0000001
 44
0.0000000001
 40
0.0
 40
0.0
 40
0.0
 40
0.0
 40
0.2553401325
 40
0.5076833324
 40
0.7561739441
 40
1.0
 40
1.0
 40
1.0
 40
1.0
 10
16.5033100036
 20
12.9328882588
 30
0.0
 10
16.5020878161
 20
12.9331400891
 30
0.0
 10
16.4996468454
 20
12.93358938
 30
0.0
 10
16.4959856858
 20
12.9341001858
 30
0.0
 10
16.492361383
 20
12.9344420208
 30
0.0
 10
16.4899571058
 20
12.9345572574
 30
0.0
 10
16.4887658445
 20
12.9345853506
 30
0.0
  0
SPLINE
  5
3E9
100
AcDbEntity
  8
LAYER_FEATURE
100
AcDbSpline
 62
7
  6
CONTINUOUS
 70
0
 71
3
 72
11
 73
7
 74
0
 42
0.0000001
 43
0.0000001
 44
0.0000000001
 40
0.0
 40
0.0
 40
0.0
 40
0.0
 40
0.262801912
 40
0.5173833689
 40
0.763238037
 40
1.0
 40
1.0
 40
1.0
 40
1.0
 10
16.2326570042
 20
13.2011342802
 30
0.0
 10
16.2315479582
 20
13.2010634895
 30
0.0
 10
16.2293676551
 20
13.2008675395
 30
0.0
 10
16.2261725134
 20
13.2003995555
 30
0.0
 10
16.2231186235
 20
13.1997643851
 30
0.0
 10
16.2211495598
 20
13.1992211131
 30
0.0
 10
16.2201944475
 20
13.1989208813
 30
0.0
  0
SPLINE
  5
3EA
100
AcDbEntity
  8
LAYER_FEATURE
100
AcDbSpline
 62
7
  6
CONTINUOUS
 70
0
 71
3
 72
15
 73
11
 74
0
 42
0.0000001
 43
0.0000001
 44
0.0000000001
 40
0.0
 40
0.0
 40
0.0
 40
0.0
 40
0.1288450506
 40
0.2578722798
 40
0.3864130074
 40
0.5138255028
 40
0.6394749245
 40
0.7627545957
 40
0.8831052383
 40
1.0
 40
1.0
 40
1.0
 40
1.0
 10
16.2445583038
 20
13.1991927294
 30
0.0
 10
16.244070669
 20
13.1993780108
 30
0.0
 10
16.2430852012
 20
13.1997243277
 30
0.0
 10
16.2415846698
 20
13.2001691107
 30
0.0
 10
16.2400694076
 20
13.2005371259
 30
0.0
 10
16.2385509226
 20
13.200825605
 30
0.0
 10
16.237040637
 20
13.2010323522
 30
0.0
 10
16.2355499055
 20
13.2011558355
 30
0.0
 10
16.2340900466
 20
13.2011950896
 30
0.0
 10
16.2331293087
 20
13.2011644276
 30
0.0
 10
16.2326570042
 20
13.2011342802
 30
0.0
  0
SPLINE
  5
3EB
100
AcDbEntity
  8
LAYER_FEATURE
100
AcDbSpline
 62
7
  6
CONTINUOUS
 70
0
 71
3
 72
15
 73
11
 74
0
 42
0.0000001
 43
0.0000001
 44
0.0000000001
 40
0.0
 40
0.0
 40
0.0
 40
0.0
 40
0.1217426522
 40
0.245666375
 40
0.3711582071
 40
0.4975990695
 40
0.6243458765
 40
0.7507508319
 40
0.8761810879
 40
1.0
 40
1.0
 40
1.0
 40
1.0
 10
16.4414432842
 20
13.0224894725
 30
0.0
 10
16.4410104784
 20
13.0227434392
 30
0.0
 10
16.4401226628
 20
13.0232316768
 30
0.0
 10
16.4387444112
 20
13.0238972557
 30
0.0
 10
16.437315949
 20
13.0244987507
 30
0.0
 10
16.4358481351
 20
13.025031616
 30
0.0
 10
16.4343520092
 20
13.0254918179
 30
0.0
 10
16.4328388418
 20
13.0258759153
 30
0.0
 10
16.4313201187
 20
13.026180967
 30
0.0
 10
16.4303032328
 20
13.026331354
 30
0.0
 10
16.4297965332
 20
13.0263924931
 30
0.0
  0
SPLINE
  5
3EC
100
AcDbEntity
  8
LAYER_FEATURE
100
AcDbSpline
 62
7
  6
CONTINUOUS
 70
0
 71
3
 72
11
 73
7
 74
0
 42
0.0000001
 43
0.0000001
 44
0.0000000001
 40
0.0
 40
0.0
 40
0.0
 40
0.0
 40
0.2579166731
 40
0.5110709461
 40
0.7586727144
 40
1.0
 40
1.0
 40
1.0
 40
1.0
 10
16.4297965332
 20
13.0263924931
 30
0.0
 10
16.4285890852
 20
13.0265381855
 30
0.0
 10
16.4261897398
 20
13.0267741153
 30
0.0
 10
16.4226157838
 20
13.0269602035
 30
0.0
 10
16.4191151859
 20
13.0269746356
 30
0.0
 10
16.4168108755
 20
13.02686827
 30
0.0
 10
16.4156759314
 20
13.0267852197
 30
0.0
  0
SPLINE
  5
3ED
100
AcDbEntity
  8
LAYER_FEATURE
100
AcDbSpline
 62
7
  6
CONTINUOUS
 70
0
 71
3
 72
11
 73
7
 74
0
 42
0.0000001
 43
0.0000001
 44
0.0000000001
 40
0.0
 40
0.0
 40
0.0
 40
0.0
 40
0.2604396754
 40
0.5143567233
 40
0.7610706232
 40
1.0
 40
1.0
 40
1.0
 40
1.0
 10
16.3389897163
 20
13.1163917446
 30
0.0
 10
16.3378203068
 20
13.1164291967
 30
0.0
 10
16.3355085988
 20
13.1164486641
 30
0.0
 10
16.3320910296
 20
13.1163063949
 30
0.0
 10
16.3287818464
 20
13.1159930836
 30
0.0
 10
16.326623346
 20
13.1156657277
 30
0.0
 10
16.3255675131
 20
13.115472462
 30
0.0
  0
SPLINE
  5
3EE
100
AcDbEntity
  8
LAYER_FEATURE
100
AcDbSpline
 62
7
  6
CONTINUOUS
 70
0
 71
3
 72
15
 73
11
 74
0
 42
0.0000001
 43
0.0000001
 44
0.0000000001
 40
0.0
 40
0.0
 40
0.0
 40
0.0
 40
0.1252665216
 40
0.2517399137
 40
0.3787707985
 40
0.505720296
 40
0.6319407932
 40
0.7567959612
 40
0.8796799084
 40
1.0
 40
1.0
 40
1.0
 40
1.0
 10
16.3508794517
 20
13.1134407399
 30
0.0
 10
16.3504145891
 20
13.1136623838
 30
0.0
 10
16.3494685716
 20
13.1140834586
 30
0.0
 10
16.3480151083
 20
13.1146440673
 30
0.0
 10
16.3465288554
 20
13.1151335619
 30
0.0
 10
16.3450211071
 20
13.1155482493
 30
0.0
 10
16.3435032079
 20
13.1158849838
 30
0.0
 10
16.3419865849
 20
13.1161412553
 30
0.0
 10
16.3404827532
 20
13.1163150926
 30
0.0
 10
16.3394841252
 20
13.1163759104
 30
0.0
 10
16.3389897163
 20
13.1163917446
 30
0.0
  0
ENDSEC
  0
SECTION
  2
OBJECTS
  0
DICTIONARY
  5
C
100
AcDbDictionary
280
0
281
1
  3
ACAD_GROUP
350
D
  3
ACAD_MLINESTYLE
350
17
  3
ACAD_LAYOUT
350
1A
  3
ACAD_PLOTSETTINGS
350
19
  3
ACAD_PLOTSTYLENAME
350
E
  0
DICTIONARY
  5
D
102
{ACAD_REACTORS
330
C
102
}
100
AcDbDictionary
280
0
281
1
  0
ACDBDICTIONARYWDFLT
  5
E
102
{ACAD_REACTORS
330
C
102
}
100
AcDbDictionary
281
1
  3
Normal
350
F
100
AcDbDictionaryWithDefault
340
F
  0
DICTIONARY
  5
17
102
{ACAD_REACTORS
330
C
102
}
100
AcDbDictionary
280
0
281
1
  3
Standard
350
18
  0
DICTIONARY
  5
19
102
{ACAD_REACTORS
330
C
102
}
100
AcDbDictionary
281
1
  0
DICTIONARY
  5
1A
102
{ACAD_REACTORS
330
C
102
}
100
AcDbDictionary
281
1
  3
Model
350
3EF
  3
Layout1
350
3F0
  0
ACDBPLACEHOLDER
  5
F
102
{ACAD_REACTORS
330
E
102
}
  0
MLINESTYLE
  5
18
102
{ACAD_REACTORS
330
17
102
}
100
AcDbMlineStyle
  2
STANDARD
 70
0
  3

 62
256
 51
90.0
 52
90.0
 71
2
 49
0.5
 62
256
  6
BYLAYER
 49
-0.5
 62
256
  6
BYLAYER
  0
LAYOUT
  5
3EF
102
{ACAD_REACTORS
330
1A
102
}
100
AcDbPlotSettings
  1

  2
none_device
  4
ANSI_C_(22.00_x_17.00_Inches)
  6

 40
0.0
 41
0.0
 42
0.0
 43
0.0
 44
558.8
 45
431.8
 46
0.0
 47
0.0
 48
0.0
 49
0.0
140
0.0
141
0.0
142
1.0
143
1.0
 70
1024
 72
0
 73
0
 74
0
  7

 75
0
147
1.0
148
0.0
149
0.0
100
AcDbLayout
  1
Model
 70
0
 71
0
 10
0.0
 20
0.0
 11
22.0
 21
17.0
 12
0.0
 22
0.0
 32
0.0
 14
0.0
 24
0.0
 34
0.0
 15
0.0
 25
0.0
 35
0.0
146
0.0
 13
0.0
 23
0.0
 33
0.0
 16
1.0
 26
0.0
 36
0.0
 17
0.0
 27
1.0
 37
0.0
 76
0
330
222
345
0
346
0
  0
LAYOUT
  5
3F0
102
{ACAD_REACTORS
330
1A
102
}
100
AcDbPlotSettings
  1

  2
none_device
  4
ANSI_C_(22.00_x_17.00_Inches)
  6

 40
0.0
 41
0.0
 42
0.0
 43
0.0
 44
558.8
 45
431.8
 46
0.0
 47
0.0
 48
0.0
 49
0.0
140
0.0
141
0.0
142
1.0
143
1.0
 70
0
 72
0
 73
0
 74
0
  7

 75
0
147
1.0
148
0.0
149
0.0
100
AcDbLayout
  1
Layout1
 70
0
 71
1
 10
0.0
 20
0.0
 11
22.0
 21
17.0
 12
0.0
 22
0.0
 32
0.0
 14
0.0
 24
0.0
 34
0.0
 15
0.0
 25
0.0
 35
0.0
146
0.0
 13
0.0
 23
0.0
 33
0.0
 16
1.0
 26
0.0
 36
0.0
 17
0.0
 27
1.0
 37
0.0
 76
0
330
223
345
0
346
0
  0
ENDSEC
  0
EOF