999
DXF file: _cgs_temp_output.dxf
999
Pro/ENGINEER 2016360 by Parametric Technology Corporation
  0
SECTION
  2
HEADER
  9
$ACADVER
  1
AC1021
  9
$DWGCODEPAGE
  3
ANSI_1252
  9
$EXTMAX
 10
22.0
 20
17.0
 30
0.0
  9
$EXTMIN
 10
0.0
 20
0.0
 30
0.0
  9
$LIMMIN
 10
0.0
 20
0.0
  9
$LIMMAX
 10
22.0
 20
17.0
  9
$VIEWCTR
 10
11.0
 20
8.5
  9
$VIEWSIZE
 40
17.0
  9
$CLAYER
  8
0
  9
$LTSCALE
 40
1.21
  9
$CELTYPE
  6
BYLAYER
  9
$DIMSCALE
 40
1.0
  9
$DIMASZ
 40
0.1875
  9
$DIMEXO
 40
0.0625
  9
$DIMDLI
 40
0.836
  9
$DIMEXE
 40
0.125
  9
$DIMCEN
 40
0.198
  9
$DIMLFAC
 40
1.0
  9
$DIMBLK
  1
_CLOSED
  9
$DIMALT
 70
0
  9
$DIMALTF
 40
25.4
  9
$DIMTXT
 40
0.15625
  9
$DIMTOL
 70
0
  9
$DIMLIM
 70
0
  9
$DIMTFAC
 40
1.0
  9
$DIMGAP
 40
0.09
  9
$DIMDSEP
 70
46
  9
$AUNITS
 70
0
  9
$PDMODE
 70
3
  9
$PDSIZE
 40
0.3125
  9
$HANDSEED
  5
438
  9
$TILEMODE
 70
1
  9
$MEASUREMENT
 70
0
  9
$INSUNITS
 70
1
  0
ENDSEC
  0
SECTION
  2
CLASSES
  0
CLASS
  1
ACDBDICTIONARYWDFLT
  2
AcDbDictionaryWithDefault
  3
AutoCAD 2000
 90
0
 91
1
280
0
281
0
  0
CLASS
  1
ACDBPLACEHOLDER
  2
AcDbPlaceHolder
  3
AutoCAD 2000
 90
0
 91
1
280
0
281
0
  0
CLASS
  1
LAYOUT
  2
AcDbLayout
  3
AutoCAD 2000
 90
0
 91
0
280
0
281
0
  0
ENDSEC
  0
SECTION
  2
TABLES
  0
TABLE
  2
VPORT
  5
8
100
AcDbSymbolTable
 70
2
  0
VPORT
  5
1F4
100
AcDbSymbolTableRecord
100
AcDbViewportTableRecord
  2
*ACTIVE
 70
0
 10
0.0
 20
0.0
 11
1.0
 21
1.0
 12
11.0
 22
8.5
 13
0.0
 23
0.0
 14
1.0
 24
1.0
 15
0.0
 25
0.0
 16
0.0
 26
0.0
 36
1.0
 17
0.0
 27
0.0
 37
0.0
 40
17.0
 41
1.2941176471
 42
50.0
 43
0.0
 44
0.0
 50
0.0
 51
0.0
 71
0
 72
100
 73
1
 74
1
 75
0
 76
0
 77
0
 78
0
  0
ENDTAB
  0
TABLE
  2
LTYPE
  5
5
100
AcDbSymbolTable
 70
6
  0
LTYPE
  5
14
100
AcDbSymbolTableRecord
100
AcDbLinetypeTableRecord
  2
BYBLOCK
 70
0
  3

 72
65
 73
0
 40
0.0
  0
LTYPE
  5
15
100
AcDbSymbolTableRecord
100
AcDbLinetypeTableRecord
  2
BYLAYER
 70
0
  3

 72
65
 73
0
 40
0.0
  0
LTYPE
  5
16
100
AcDbSymbolTableRecord
100
AcDbLinetypeTableRecord
  2
CONTINUOUS
 70
64
  3
Solid line
 72
65
 73
0
 40
0.0
  0
LTYPE
  5
1F5
100
AcDbSymbolTableRecord
100
AcDbLinetypeTableRecord
  2
CENTER
 70
64
  3
____ _ ____ _ ____ _ ____ _ ____ _ ____ _ ____
 72
65
 73
4
 40
0.6
 49
0.375
 74
0
 49
-0.075
 74
0
 49
0.075
 74
0
 49
-0.075
 74
0
  0
LTYPE
  5
1F6
100
AcDbSymbolTableRecord
100
AcDbLinetypeTableRecord
  2
HIDDEN
 70
64
  3
- - - - - - - - - - - - - - - - - - - -
 72
65
 73
2
 40
0.2
 49
0.1
 74
0
 49
-0.1
 74
0
  0
LTYPE
  5
1F7
100
AcDbSymbolTableRecord
100
AcDbLinetypeTableRecord
  2
PHANTOM
 70
64
  3
_____ _ _ _____ _ _ _____ _ _ _____
 72
65
 73
6
 40
0.8
 49
0.45
 74
0
 49
-0.05
 74
0
 49
0.1
 74
0
 49
-0.05
 74
0
 49
0.1
 74
0
 49
-0.05
 74
0
  0
LTYPE
  5
1F8
100
AcDbSymbolTableRecord
100
AcDbLinetypeTableRecord
  2
DOT
 70
64
  3
. . . . . . . . . . . . . . . . . . . .
 72
65
 73
2
 40
0.2
 49
0.1
 74
0
 49
-0.1
 74
0
  0
LTYPE
  5
1F9
100
AcDbSymbolTableRecord
100
AcDbLinetypeTableRecord
  2
DASHED
 70
64
  3
- - - - - - - - - - - - - - - - - - - -
 72
65
 73
2
 40
0.2
 49
0.1
 74
0
 49
-0.1
 74
0
  0
ENDTAB
  0
TABLE
  2
LAYER
  5
2
100
AcDbSymbolTable
 70
36
  0
LAYER
  5
10
100
AcDbSymbolTableRecord
100
AcDbLayerTableRecord
  2
0
 70
0
 62
7
  6
CONTINUOUS
370
-3
390
F
  0
LAYER
  5
1FA
100
AcDbSymbolTableRecord
100
AcDbLayerTableRecord
  2
DEFAULT_1
 70
0
 62
7
  6
CENTER
370
-3
390
F
  0
LAYER
  5
1FB
100
AcDbSymbolTableRecord
100
AcDbLayerTableRecord
  2
DEFAULT_2
 70
0
 62
8
  6
HIDDEN
370
-3
390
F
  0
LAYER
  5
1FC
100
AcDbSymbolTableRecord
100
AcDbLayerTableRecord
  2
DEFAULT_3
 70
0
 62
7
  6
PHANTOM
370
-3
390
F
  0
LAYER
  5
1FD
100
AcDbSymbolTableRecord
100
AcDbLayerTableRecord
  2
01_ALL_DTM_PLN
 70
0
 62
7
  6
CONTINUOUS
370
-3
390
F
  0
LAYER
  5
1FE
100
AcDbSymbolTableRecord
100
AcDbLayerTableRecord
  2
01__ASM_ALL_DTM_PLN
 70
0
 62
7
  6
CONTINUOUS
370
-3
390
F
  0
LAYER
  5
1FF
100
AcDbSymbolTableRecord
100
AcDbLayerTableRecord
  2
01__ASM_DEF_DTM_PLN
 70
0
 62
7
  6
CONTINUOUS
370
-3
390
F
  0
LAYER
  5
200
100
AcDbSymbolTableRecord
100
AcDbLayerTableRecord
  2
01___PRT_ALL_DTM_PLN
 70
0
 62
7
  6
CONTINUOUS
370
-3
390
F
  0
LAYER
  5
201
100
AcDbSymbolTableRecord
100
AcDbLayerTableRecord
  2
01___PRT_DEF_DTM_PLN
 70
0
 62
7
  6
CONTINUOUS
370
-3
390
F
  0
LAYER
  5
202
100
AcDbSymbolTableRecord
100
AcDbLayerTableRecord
  2
02_ALL_AXES
 70
0
 62
7
  6
CONTINUOUS
370
-3
390
F
  0
LAYER
  5
203
100
AcDbSymbolTableRecord
100
AcDbLayerTableRecord
  2
02__ASM_ALL_AXES
 70
0
 62
7
  6
CONTINUOUS
370
-3
390
F
  0
LAYER
  5
204
100
AcDbSymbolTableRecord
100
AcDbLayerTableRecord
  2
02___PRT_ALL_AXES
 70
0
 62
7
  6
CONTINUOUS
370
-3
390
F
  0
LAYER
  5
205
100
AcDbSymbolTableRecord
100
AcDbLayerTableRecord
  2
03_ALL_CURVES
 70
0
 62
7
  6
CONTINUOUS
370
-3
390
F
  0
LAYER
  5
206
100
AcDbSymbolTableRecord
100
AcDbLayerTableRecord
  2
03__ASM_ALL_CURVES
 70
0
 62
7
  6
CONTINUOUS
370
-3
390
F
  0
LAYER
  5
207
100
AcDbSymbolTableRecord
100
AcDbLayerTableRecord
  2
03___PRT_ALL_CURVES
 70
0
 62
7
  6
CONTINUOUS
370
-3
390
F
  0
LAYER
  5
208
100
AcDbSymbolTableRecord
100
AcDbLayerTableRecord
  2
04_ALL_DTM_PNT
 70
0
 62
7
  6
CONTINUOUS
370
-3
390
F
  0
LAYER
  5
209
100
AcDbSymbolTableRecord
100
AcDbLayerTableRecord
  2
04__ASM_ALL_DTM_PNT
 70
0
 62
7
  6
CONTINUOUS
370
-3
390
F
  0
LAYER
  5
20A
100
AcDbSymbolTableRecord
100
AcDbLayerTableRecord
  2
04___PRT_ALL_DTM_PNT
 70
0
 62
7
  6
CONTINUOUS
370
-3
390
F
  0
LAYER
  5
20B
100
AcDbSymbolTableRecord
100
AcDbLayerTableRecord
  2
05_ALL_DTM_CSYS
 70
0
 62
7
  6
CONTINUOUS
370
-3
390
F
  0
LAYER
  5
20C
100
AcDbSymbolTableRecord
100
AcDbLayerTableRecord
  2
05__ASM_ALL_DTM_CSYS
 70
0
 62
7
  6
CONTINUOUS
370
-3
390
F
  0
LAYER
  5
20D
100
AcDbSymbolTableRecord
100
AcDbLayerTableRecord
  2
05__ASM_DEF_DTM_CSYS
 70
0
 62
7
  6
CONTINUOUS
370
-3
390
F
  0
LAYER
  5
20E
100
AcDbSymbolTableRecord
100
AcDbLayerTableRecord
  2
05___PRT_ALL_DTM_CSYS
 70
0
 62
7
  6
CONTINUOUS
370
-3
390
F
  0
LAYER
  5
20F
100
AcDbSymbolTableRecord
100
AcDbLayerTableRecord
  2
05___PRT_DEF_DTM_CSYS
 70
0
 62
7
  6
CONTINUOUS
370
-3
390
F
  0
LAYER
  5
210
100
AcDbSymbolTableRecord
100
AcDbLayerTableRecord
  2
06_ALL_SURFS
 70
0
 62
7
  6
CONTINUOUS
370
-3
390
F
  0
LAYER
  5
211
100
AcDbSymbolTableRecord
100
AcDbLayerTableRecord
  2
06__ASM_ALL_SURFS
 70
0
 62
7
  6
CONTINUOUS
370
-3
390
F
  0
LAYER
  5
212
100
AcDbSymbolTableRecord
100
AcDbLayerTableRecord
  2
06___PRT_ALL_SURFS
 70
0
 62
7
  6
CONTINUOUS
370
-3
390
F
  0
LAYER
  5
213
100
AcDbSymbolTableRecord
100
AcDbLayerTableRecord
  2
07__ASM_ALL_SKELETONS
 70
0
 62
7
  6
CONTINUOUS
370
-3
390
F
  0
LAYER
  5
214
100
AcDbSymbolTableRecord
100
AcDbLayerTableRecord
  2
LAYER_AXIS
 70
0
 62
7
  6
CONTINUOUS
370
-3
390
F
  0
LAYER
  5
215
100
AcDbSymbolTableRecord
100
AcDbLayerTableRecord
  2
LAYER_CHAMFER_FEAT
 70
0
 62
7
  6
CONTINUOUS
370
-3
390
F
  0
LAYER
  5
216
100
AcDbSymbolTableRecord
100
AcDbLayerTableRecord
  2
LAYER_CUT_FEAT
 70
0
 62
7
  6
CONTINUOUS
370
-3
390
F
  0
LAYER
  5
217
100
AcDbSymbolTableRecord
100
AcDbLayerTableRecord
  2
LAYER_DATUM
 70
0
 62
7
  6
CONTINUOUS
370
-3
390
F
  0
LAYER
  5
218
100
AcDbSymbolTableRecord
100
AcDbLayerTableRecord
  2
LAYER_DIM
 70
0
 62
7
  6
CONTINUOUS
370
-3
390
F
  0
LAYER
  5
219
100
AcDbSymbolTableRecord
100
AcDbLayerTableRecord
  2
LAYER_FEATURE
 70
0
 62
7
  6
CONTINUOUS
370
-3
390
F
  0
LAYER
  5
21A
100
AcDbSymbolTableRecord
100
AcDbLayerTableRecord
  2
LAYER_GEOM_FEAT
 70
0
 62
7
  6
CONTINUOUS
370
-3
390
F
  0
LAYER
  5
21B
100
AcDbSymbolTableRecord
100
AcDbLayerTableRecord
  2
LAYER_NOGEOM_FEAT
 70
0
 62
7
  6
CONTINUOUS
370
-3
390
F
  0
LAYER
  5
21C
100
AcDbSymbolTableRecord
100
AcDbLayerTableRecord
  2
LAYER_PARAMETER_DIM
 70
0
 62
7
  6
CONTINUOUS
370
-3
390
F
  0
LAYER
  5
21D
100
AcDbSymbolTableRecord
100
AcDbLayerTableRecord
  2
LAYER_PROTRUSION_FEAT
 70
0
 62
7
  6
CONTINUOUS
370
-3
390
F
  0
LAYER
  5
21E
100
AcDbSymbolTableRecord
100
AcDbLayerTableRecord
  2
LAYER_QUILT
 70
0
 62
7
  6
CONTINUOUS
370
-3
390
F
  0
LAYER
  5
21F
100
AcDbSymbolTableRecord
100
AcDbLayerTableRecord
  2
LAYER_ROUND_FEAT
 70
0
 62
7
  6
CONTINUOUS
370
-3
390
F
  0
ENDTAB
  0
TABLE
  2
STYLE
  5
3
100
AcDbSymbolTable
 70
1
  0
STYLE
  5
11
100
AcDbSymbolTableRecord
100
AcDbTextStyleTableRecord
  2
STANDARD
 70
0
 40
0.0
 41
0.8
 50
0.0
 71
0
 42
0.2
  3
txt
  4

  0
STYLE
  5
220
100
AcDbSymbolTableRecord
100
AcDbTextStyleTableRecord
  2
TEXTSTYLE_1
 70
0
 40
0.0
 41
0.8
 50
0.0
 71
0
 42
0.2
  3
gdt
  4

  0
ENDTAB
  0
TABLE
  2
VIEW
  5
6
100
AcDbSymbolTable
 70
0
  0
ENDTAB
  0
TABLE
  2
UCS
  5
7
100
AcDbSymbolTable
 70
0
  0
ENDTAB
  0
TABLE
  2
APPID
  5
9
100
AcDbSymbolTable
 70
1
  0
APPID
  5
221
100
AcDbSymbolTableRecord
100
AcDbRegAppTableRecord
  2
ACAD
 70
0
  0
ENDTAB
  0
TABLE
  2
BLOCK_RECORD
  5
1
100
AcDbSymbolTable
 70
0
  0
BLOCK_RECORD
  5
222
100
AcDbSymbolTableRecord
100
AcDbBlockTableRecord
  2
*Model_Space
  0
BLOCK_RECORD
  5
223
100
AcDbSymbolTableRecord
100
AcDbBlockTableRecord
  2
*Paper_Space
  0
ENDTAB
  0
TABLE
  2
DIMSTYLE
  5
A
100
AcDbSymbolTable
 70
1
100
AcDbDimStyleTable
 71
0
  0
DIMSTYLE
105
224
100
AcDbSymbolTableRecord
100
AcDbDimStyleTableRecord
  2
STANDARD
 70
0
  3

  4

 40
1.0
 41
0.1875
 42
0.0625
 43
0.38
 44
0.125
 45
0.0
 46
0.0
 47
0.0001
 48
0.0001
140
0.15625
141
0.09
142
0.0
143
25.4
144
1.0
145
0.0
146
1.0
147
0.09
 71
0.0
 72
0.0
 73
1
 74
1
 75
0
 76
0
 77
0
 78
4
 79
1
170
0
171
3
172
0
173
0
174
0
175
0
176
0
177
0
178
0
270
2
179
4
271
4
272
4
273
2
274
2
275
0
280
0
281
0
282
0
283
1
284
4
285
0
286
0
287
3
288
0
340
11
278
46
  0
ENDTAB
  0
ENDSEC
  0
SECTION
  2
BLOCKS
  0
BLOCK
  5
20
100
AcDbEntity
  8
0
100
AcDbBlockBegin
  2
*Model_Space
 70
0
 10
0.0
 20
0.0
 30
0.0
  3
*Model_Space
  1

  0
ENDBLK
  5
21
100
AcDbEntity
  8
0
100
AcDbBlockEnd
  0
BLOCK
  5
1C
100
AcDbEntity
  8
0
100
AcDbBlockBegin
  2
*Paper_Space
 70
0
 10
0.0
 20
0.0
 30
0.0
  3
*Paper_Space
  1

  0
ENDBLK
  5
1D
100
AcDbEntity
  8
0
100
AcDbBlockEnd
  0
ENDSEC
  0
SECTION
  2
ENTITIES
  0
MTEXT
  5
225
100
AcDbEntity
  8
0
100
AcDbMText
 62
7
  6
CONTINUOUS
  7
STANDARD
 71
1
 72
1
 10
15.9560215477
 20
0.9479130325
 30
0.0
 11
1.0
 21
0.0
 31
0.0
 44
0.9
  1
SCALE: 1:2.000
 40
0.3
 41
3.36
  0
LINE
  5
226
100
AcDbEntity
  8
0
100
AcDbLine
 62
7
  6
CONTINUOUS
 10
0.0
 20
0.0
 11
0.0
 21
17.0
  0
LINE
  5
227
100
AcDbEntity
  8
0
100
AcDbLine
 62
7
  6
CONTINUOUS
 10
0.0
 20
0.0
 11
22.0
 21
0.0
  0
LINE
  5
228
100
AcDbEntity
  8
0
100
AcDbLine
 62
7
  6
CONTINUOUS
 10
0.0
 20
17.0
 11
22.0
 21
17.0
  0
LINE
  5
229
100
AcDbEntity
  8
0
100
AcDbLine
 62
7
  6
CONTINUOUS
 10
22.0
 20
0.0
 11
22.0
 21
17.0
  0
LINE
  5
22A
100
AcDbEntity
  8
LAYER_FEATURE
100
AcDbLine
 62
7
  6
CONTINUOUS
 10
5.9991672762
 20
6.5501198968
 11
5.9894257018
 21
6.5403783224
  0
LINE
  5
22B
100
AcDbEntity
  8
LAYER_FEATURE
100
AcDbLine
 62
7
  6
CONTINUOUS
 10
7.1603672762
 20
5.3889198968
 11
7.1505770019
 21
5.3791296225
  0
LINE
  5
22C
100
AcDbEntity
  8
LAYER_FEATURE
100
AcDbLine
 62
7
  6
CONTINUOUS
 10
6.2615672762
 20
6.5501198968
 11
6.2713088506
 21
6.5403783224
  0
LINE
  5
22D
100
AcDbEntity
  8
LAYER_FEATURE
100
AcDbLine
 62
7
  6
CONTINUOUS
 10
7.1603672762
 20
5.6513198968
 11
7.1505770019
 21
5.661110171
  0
LINE
  5
22E
100
AcDbEntity
  8
LAYER_FEATURE
100
AcDbLine
 62
7
  6
CONTINUOUS
 10
7.1603672762
 20
5.6513198968
 11
7.1603672762
 21
5.3889198968
  0
LINE
  5
22F
100
AcDbEntity
  8
LAYER_FEATURE
100
AcDbLine
 62
7
  6
CONTINUOUS
 10
5.9991672762
 20
6.5501198968
 11
6.2615672762
 21
6.5501198968
  0
LINE
  5
230
100
AcDbEntity
  8
LAYER_FEATURE
100
AcDbLine
 62
7
  6
CONTINUOUS
 10
4.4958720839
 20
12.3825477814
 11
4.4958720839
 21
12.4625477814
  0
LINE
  5
231
100
AcDbEntity
  8
LAYER_FEATURE
100
AcDbLine
 62
7
  6
CONTINUOUS
 10
4.4958720839
 20
13.3625477814
 11
4.4958720839
 21
13.4425477814
  0
LINE
  5
232
100
AcDbEntity
  8
LAYER_FEATURE
100
AcDbLine
 62
7
  6
CONTINUOUS
 10
4.6882747355
 20
12.5025477814
 11
4.6882747355
 21
13.3225477814
  0
LINE
  5
233
100
AcDbEntity
  8
LAYER_FEATURE
100
AcDbLine
 62
7
  6
CONTINUOUS
 10
4.6899934755
 20
12.5025477814
 11
4.6899934755
 21
13.3225477814
  0
LINE
  5
234
100
AcDbEntity
  8
LAYER_FEATURE
100
AcDbLine
 62
7
  6
CONTINUOUS
 10
4.7039429593
 20
12.5025477814
 11
4.7039429593
 21
13.3225477814
  0
LINE
  5
235
100
AcDbEntity
  8
LAYER_FEATURE
100
AcDbLine
 62
7
  6
CONTINUOUS
 10
4.7090775653
 20
12.5025477814
 11
4.7090775653
 21
13.3225477814
  0
LINE
  5
236
100
AcDbEntity
  8
LAYER_FEATURE
100
AcDbLine
 62
7
  6
CONTINUOUS
 10
4.7368011099
 20
12.5025477814
 11
4.7368011099
 21
13.3225477814
  0
LINE
  5
237
100
AcDbEntity
  8
LAYER_FEATURE
100
AcDbLine
 62
7
  6
CONTINUOUS
 10
4.7452870113
 20
12.5025477814
 11
4.7452870113
 21
13.3225477814
  0
LINE
  5
238
100
AcDbEntity
  8
LAYER_FEATURE
100
AcDbLine
 62
7
  6
CONTINUOUS
 10
4.7864359771
 20
12.5025477814
 11
4.7864359771
 21
13.3225477814
  0
LINE
  5
239
100
AcDbEntity
  8
LAYER_FEATURE
100
AcDbLine
 62
7
  6
CONTINUOUS
 10
4.7981664586
 20
12.5025477814
 11
4.7981664586
 21
13.3225477814
  0
LINE
  5
23A
100
AcDbEntity
  8
0
100
AcDbLine
 62
7
  6
CONTINUOUS
 10
4.8520801164
 20
13.3225477814
 11
4.8520801164
 21
12.5025477814
  0
LINE
  5
23B
100
AcDbEntity
  8
LAYER_FEATURE
100
AcDbLine
 62
7
  6
CONTINUOUS
 10
4.8522233736
 20
12.5025477814
 11
4.8522233736
 21
13.3225477814
  0
LINE
  5
23C
100
AcDbEntity
  8
LAYER_FEATURE
100
AcDbLine
 62
7
  6
CONTINUOUS
 10
4.8670509177
 20
12.5025477814
 11
4.8670509177
 21
13.3225477814
  0
LINE
  5
23D
100
AcDbEntity
  8
0
100
AcDbLine
 62
7
  6
CONTINUOUS
 10
4.9328266875
 20
13.3225477814
 11
4.9328266875
 21
12.5025477814
  0
LINE
  5
23E
100
AcDbEntity
  8
LAYER_FEATURE
100
AcDbLine
 62
7
  6
CONTINUOUS
 10
4.9333359847
 20
12.5025477814
 11
4.9333359847
 21
13.3225477814
  0
LINE
  5
23F
100
AcDbEntity
  8
LAYER_FEATURE
100
AcDbLine
 62
7
  6
CONTINUOUS
 10
4.9510741264
 20
12.5025477814
 11
4.9510741264
 21
13.3225477814
  0
LINE
  5
240
100
AcDbEntity
  8
0
100
AcDbLine
 62
7
  6
CONTINUOUS
 10
5.0276584794
 20
13.3225477814
 11
5.0276584794
 21
12.5025477814
  0
LINE
  5
241
100
AcDbEntity
  8
LAYER_FEATURE
100
AcDbLine
 62
7
  6
CONTINUOUS
 10
5.0287537723
 20
12.5025477814
 11
5.0287537723
 21
13.3225477814
  0
LINE
  5
242
100
AcDbEntity
  8
02___PRT_ALL_AXES
100
AcDbLine
 62
7
  6
CONTINUOUS
 10
5.0408720839
 20
11.7575477814
 11
5.0408720839
 21
12.3825477814
  0
LINE
  5
243
100
AcDbEntity
  8
LAYER_FEATURE
100
AcDbLine
 62
7
  6
CONTINUOUS
 10
5.0491794441
 20
12.5025477814
 11
5.0491794441
 21
13.3225477814
  0
LINE
  5
244
100
AcDbEntity
  8
0
100
AcDbLine
 62
7
  6
CONTINUOUS
 10
5.1353829272
 20
13.3225477814
 11
5.1353829272
 21
12.5025477814
  0
LINE
  5
245
100
AcDbEntity
  8
LAYER_FEATURE
100
AcDbLine
 62
7
  6
CONTINUOUS
 10
5.1372768022
 20
12.5025477814
 11
5.1372768022
 21
13.3225477814
  0
LINE
  5
246
100
AcDbEntity
  8
LAYER_FEATURE
100
AcDbLine
 62
7
  6
CONTINUOUS
 10
5.1601331396
 20
12.5025477814
 11
5.1601331396
 21
13.3225477814
  0
LINE
  5
247
100
AcDbEntity
  8
02___PRT_ALL_AXES
100
AcDbLine
 62
7
  6
CONTINUOUS
 10
5.0408720993
 20
11.7575477814
 11
7.1008720684
 21
11.7575477814
  0
LINE
  5
248
100
AcDbEntity
  8
0
100
AcDbLine
 62
7
  6
CONTINUOUS
 10
5.2546453335
 20
13.3225477814
 11
5.2546453335
 21
12.5025477814
  0
LINE
  5
249
100
AcDbEntity
  8
LAYER_FEATURE
100
AcDbLine
 62
7
  6
CONTINUOUS
 10
5.2575403346
 20
12.5025477814
 11
5.2575403346
 21
13.3225477814
  0
LINE
  5
24A
100
AcDbEntity
  8
LAYER_FEATURE
100
AcDbLine
 62
7
  6
CONTINUOUS
 10
5.2825399057
 20
12.5025477814
 11
5.2825399057
 21
13.3225477814
  0
LINE
  5
24B
100
AcDbEntity
  8
0
100
AcDbLine
 62
7
  6
CONTINUOUS
 10
5.3839459043
 20
13.3225477814
 11
5.3839459043
 21
12.5025477814
  0
LINE
  5
24C
100
AcDbEntity
  8
LAYER_FEATURE
100
AcDbLine
 62
7
  6
CONTINUOUS
 10
5.3880319855
 20
12.5025477814
 11
5.3880319855
 21
13.3225477814
  0
LINE
  5
24D
100
AcDbEntity
  8
LAYER_FEATURE
100
AcDbLine
 62
7
  6
CONTINUOUS
 10
5.4148604063
 20
12.5025477814
 11
5.4148604063
 21
13.3225477814
  0
LINE
  5
24E
100
AcDbEntity
  8
LAYER_CUT_FEAT
100
AcDbLine
 62
7
  6
CONTINUOUS
 10
6.0235293618
 20
11.9880477814
 11
6.1182148059
 21
11.9880477814
  0
LINE
  5
24F
100
AcDbEntity
  8
0
100
AcDbLine
 62
7
  6
CONTINUOUS
 10
5.5216105762
 20
13.3225477814
 11
5.5216105762
 21
12.5025477814
  0
LINE
  5
250
100
AcDbEntity
  8
LAYER_FEATURE
100
AcDbLine
 62
7
  6
CONTINUOUS
 10
5.527110747
 20
12.5025477814
 11
5.527110747
 21
13.3225477814
  0
LINE
  5
251
100
AcDbEntity
  8
LAYER_FEATURE
100
AcDbLine
 62
7
  6
CONTINUOUS
 10
5.5554306345
 20
12.5025477814
 11
5.5554306345
 21
13.3225477814
  0
LINE
  5
252
100
AcDbEntity
  8
0
100
AcDbLine
 62
7
  6
CONTINUOUS
 10
5.6655878359
 20
13.3225477814
 11
5.6655878359
 21
12.5025477814
  0
LINE
  5
253
100
AcDbEntity
  8
LAYER_FEATURE
100
AcDbLine
 62
7
  6
CONTINUOUS
 10
5.6730276227
 20
12.5025477814
 11
5.6730276227
 21
13.3225477814
  0
LINE
  5
254
100
AcDbEntity
  8
LAYER_FEATURE
100
AcDbLine
 62
7
  6
CONTINUOUS
 10
5.7024828379
 20
12.5025477814
 11
5.7024828379
 21
13.3225477814
  0
LINE
  5
255
100
AcDbEntity
  8
LAYER_FEATURE
100
AcDbLine
 62
7
  6
CONTINUOUS
 10
4.4958720839
 20
12.4625477814
 11
4.5687137507
 21
12.4902969878
  0
LINE
  5
256
100
AcDbEntity
  8
LAYER_CUT_FEAT
100
AcDbLine
 62
7
  6
CONTINUOUS
 10
6.1182148059
 20
12.1520477814
 11
6.0235293618
 21
12.1520477814
  0
LINE
  5
257
100
AcDbEntity
  8
LAYER_CUT_FEAT
100
AcDbLine
 62
7
  6
CONTINUOUS
 10
5.9761866397
 20
12.0700477814
 11
6.0235293618
 21
11.9880477814
  0
LINE
  5
258
100
AcDbEntity
  8
0
100
AcDbLine
 62
7
  6
CONTINUOUS
 10
5.8140078501
 20
13.3225477814
 11
5.8140078501
 21
12.5025477814
  0
LINE
  5
259
100
AcDbEntity
  8
LAYER_FEATURE
100
AcDbLine
 62
7
  6
CONTINUOUS
 10
5.8239476233
 20
12.5025477814
 11
5.8239476233
 21
13.3225477814
  0
LINE
  5
25A
100
AcDbEntity
  8
LAYER_FEATURE
100
AcDbLine
 62
7
  6
CONTINUOUS
 10
5.8541677498
 20
12.5025477814
 11
5.8541677498
 21
13.3225477814
  0
LINE
  5
25B
100
AcDbEntity
  8
LAYER_FEATURE
100
AcDbLine
 62
7
  6
CONTINUOUS
 10
7.573030417
 20
13.3347985749
 11
7.6458720839
 21
13.3625477814
  0
LINE
  5
25C
100
AcDbEntity
  8
LAYER_FEATURE
100
AcDbLine
 62
7
  6
CONTINUOUS
 10
4.4958720839
 20
12.3825477814
 11
7.6458720839
 21
12.3825477814
  0
LINE
  5
25D
100
AcDbEntity
  8
LAYER_FEATURE
100
AcDbLine
 62
7
  6
CONTINUOUS
 10
4.4958720839
 20
12.4625477814
 11
7.6458720839
 21
12.4625477814
  0
LINE
  5
25E
100
AcDbEntity
  8
LAYER_CUT_FEAT
100
AcDbLine
 62
7
  6
CONTINUOUS
 10
6.165557528
 20
12.0700477814
 11
6.1182148059
 21
12.1520477814
  0
LINE
  5
25F
100
AcDbEntity
  8
LAYER_FEATURE
100
AcDbLine
 62
7
  6
CONTINUOUS
 10
5.9779728423
 20
12.5025477814
 11
5.9779728423
 21
13.3225477814
  0
LINE
  5
260
100
AcDbEntity
  8
LAYER_FEATURE
100
AcDbLine
 62
7
  6
CONTINUOUS
 10
6.0085778445
 20
12.5025477814
 11
6.0085778445
 21
13.3225477814
  0
LINE
  5
261
100
AcDbEntity
  8
LAYER_FEATURE
100
AcDbLine
 62
7
  6
CONTINUOUS
 10
7.5064591976
 20
12.5025477814
 11
4.6352849701
 21
12.5025477814
  0
LINE
  5
262
100
AcDbEntity
  8
LAYER_FEATURE
100
AcDbLine
 62
7
  6
CONTINUOUS
 10
6.1331663232
 20
12.5025477814
 11
6.1331663232
 21
13.3225477814
  0
LINE
  5
263
100
AcDbEntity
  8
LAYER_FEATURE
100
AcDbLine
 62
7
  6
CONTINUOUS
 10
6.1637713254
 20
12.5025477814
 11
6.1637713254
 21
13.3225477814
  0
LINE
  5
264
100
AcDbEntity
  8
LAYER_FEATURE
100
AcDbLine
 62
7
  6
CONTINUOUS
 10
6.2875764179
 20
12.5025477814
 11
6.2875764179
 21
13.3225477814
  0
LINE
  5
265
100
AcDbEntity
  8
LAYER_FEATURE
100
AcDbLine
 62
7
  6
CONTINUOUS
 10
6.3177965444
 20
12.5025477814
 11
6.3177965444
 21
13.3225477814
  0
LINE
  5
266
100
AcDbEntity
  8
LAYER_CUT_FEAT
100
AcDbLine
 62
7
  6
CONTINUOUS
 10
6.0235293618
 20
12.1520477814
 11
5.9761866397
 21
12.0700477814
  0
LINE
  5
267
100
AcDbEntity
  8
LAYER_FEATURE
100
AcDbLine
 62
7
  6
CONTINUOUS
 10
4.5687137507
 20
13.3347985749
 11
4.4958720839
 21
13.3625477814
  0
LINE
  5
268
100
AcDbEntity
  8
LAYER_CUT_FEAT
100
AcDbLine
 62
7
  6
CONTINUOUS
 10
6.3277363176
 20
13.3225477814
 11
6.3277363176
 21
12.5025477814
  0
LINE
  5
269
100
AcDbEntity
  8
LAYER_FEATURE
100
AcDbLine
 62
7
  6
CONTINUOUS
 10
6.4392613298
 20
12.5025477814
 11
6.4392613298
 21
13.3225477814
  0
LINE
  5
26A
100
AcDbEntity
  8
LAYER_CUT_FEAT
100
AcDbLine
 62
7
  6
CONTINUOUS
 10
6.1182148059
 20
11.9880477814
 11
6.165557528
 21
12.0700477814
  0
LINE
  5
26B
100
AcDbEntity
  8
LAYER_FEATURE
100
AcDbLine
 62
7
  6
CONTINUOUS
 10
6.468716545
 20
12.5025477814
 11
6.468716545
 21
13.3225477814
  0
LINE
  5
26C
100
AcDbEntity
  8
LAYER_CUT_FEAT
100
AcDbLine
 62
7
  6
CONTINUOUS
 10
6.4761563318
 20
13.3225477814
 11
6.4761563318
 21
12.5025477814
  0
LINE
  5
26D
100
AcDbEntity
  8
LAYER_FEATURE
100
AcDbLine
 62
7
  6
CONTINUOUS
 10
7.6458720839
 20
12.4625477814
 11
7.573030417
 21
12.4902969878
  0
LINE
  5
26E
100
AcDbEntity
  8
LAYER_FEATURE
100
AcDbLine
 62
7
  6
CONTINUOUS
 10
7.0967070798
 20
12.2054127855
 11
7.1008720839
 21
12.2012477814
  0
LINE
  5
26F
100
AcDbEntity
  8
LAYER_FEATURE
100
AcDbLine
 62
7
  6
CONTINUOUS
 10
6.5863135332
 20
12.5025477814
 11
6.5863135332
 21
13.3225477814
  0
LINE
  5
270
100
AcDbEntity
  8
LAYER_FEATURE
100
AcDbLine
 62
7
  6
CONTINUOUS
 10
6.6146334208
 20
12.5025477814
 11
6.6146334208
 21
13.3225477814
  0
LINE
  5
271
100
AcDbEntity
  8
LAYER_CUT_FEAT
100
AcDbLine
 62
7
  6
CONTINUOUS
 10
6.6201335915
 20
13.3225477814
 11
6.6201335915
 21
12.5025477814
  0
LINE
  5
272
100
AcDbEntity
  8
LAYER_FEATURE
100
AcDbLine
 62
7
  6
CONTINUOUS
 10
6.7268837614
 20
12.5025477814
 11
6.7268837614
 21
13.3225477814
  0
LINE
  5
273
100
AcDbEntity
  8
LAYER_FEATURE
100
AcDbLine
 62
7
  6
CONTINUOUS
 10
6.7537121822
 20
12.5025477814
 11
6.7537121822
 21
13.3225477814
  0
LINE
  5
274
100
AcDbEntity
  8
LAYER_CUT_FEAT
100
AcDbLine
 62
7
  6
CONTINUOUS
 10
6.7577982634
 20
13.3225477814
 11
6.7577982634
 21
12.5025477814
  0
LINE
  5
275
100
AcDbEntity
  8
LAYER_FEATURE
100
AcDbLine
 62
7
  6
CONTINUOUS
 10
7.5064591976
 20
13.3225477814
 11
4.6352849701
 21
13.3225477814
  0
LINE
  5
276
100
AcDbEntity
  8
LAYER_FEATURE
100
AcDbLine
 62
7
  6
CONTINUOUS
 10
6.859204262
 20
12.5025477814
 11
6.859204262
 21
13.3225477814
  0
LINE
  5
277
100
AcDbEntity
  8
LAYER_FEATURE
100
AcDbLine
 62
7
  6
CONTINUOUS
 10
6.8842038331
 20
12.5025477814
 11
6.8842038331
 21
13.3225477814
  0
LINE
  5
278
100
AcDbEntity
  8
LAYER_CUT_FEAT
100
AcDbLine
 62
7
  6
CONTINUOUS
 10
6.8870988343
 20
13.3225477814
 11
6.8870988343
 21
12.5025477814
  0
LINE
  5
279
100
AcDbEntity
  8
LAYER_FEATURE
100
AcDbLine
 62
7
  6
CONTINUOUS
 10
4.4958720839
 20
13.3625477814
 11
7.6458720839
 21
13.3625477814
  0
LINE
  5
27A
100
AcDbEntity
  8
LAYER_FEATURE
100
AcDbLine
 62
7
  6
CONTINUOUS
 10
4.4958720839
 20
13.4425477814
 11
7.6458720839
 21
13.4425477814
  0
LINE
  5
27B
100
AcDbEntity
  8
LAYER_FEATURE
100
AcDbLine
 62
7
  6
CONTINUOUS
 10
6.9816110282
 20
12.5025477814
 11
6.9816110282
 21
13.3225477814
  0
LINE
  5
27C
100
AcDbEntity
  8
LAYER_FEATURE
100
AcDbLine
 62
7
  6
CONTINUOUS
 10
7.0044673655
 20
12.5025477814
 11
7.0044673655
 21
13.3225477814
  0
LINE
  5
27D
100
AcDbEntity
  8
LAYER_CUT_FEAT
100
AcDbLine
 62
7
  6
CONTINUOUS
 10
7.0063612405
 20
13.3225477814
 11
7.0063612405
 21
12.5025477814
  0
LINE
  5
27E
100
AcDbEntity
  8
LAYER_FEATURE
100
AcDbLine
 62
7
  6
CONTINUOUS
 10
7.0925647236
 20
12.5025477814
 11
7.0925647236
 21
13.3225477814
  0
LINE
  5
27F
100
AcDbEntity
  8
02___PRT_ALL_AXES
100
AcDbLine
 62
7
  6
CONTINUOUS
 10
7.1008720839
 20
11.7575477814
 11
7.1008720839
 21
11.9060477814
  0
LINE
  5
280
100
AcDbEntity
  8
LAYER_FEATURE
100
AcDbLine
 62
7
  6
CONTINUOUS
 10
7.1008720839
 20
11.9388478873
 11
7.1008720839
 21
12.2012476754
  0
LINE
  5
281
100
AcDbEntity
  8
02___PRT_ALL_AXES
100
AcDbLine
 62
7
  6
CONTINUOUS
 10
7.1008720839
 20
12.2340477814
 11
7.1008720839
 21
12.3825477814
  0
LINE
  5
282
100
AcDbEntity
  8
LAYER_FEATURE
100
AcDbLine
 62
7
  6
CONTINUOUS
 10
7.1129903954
 20
12.5025477814
 11
7.1129903954
 21
13.3225477814
  0
LINE
  5
283
100
AcDbEntity
  8
LAYER_CUT_FEAT
100
AcDbLine
 62
7
  6
CONTINUOUS
 10
7.1140856883
 20
13.3225477814
 11
7.1140856883
 21
12.5025477814
  0
LINE
  5
284
100
AcDbEntity
  8
LAYER_FEATURE
100
AcDbLine
 62
7
  6
CONTINUOUS
 10
7.1906700413
 20
12.5025477814
 11
7.1906700413
 21
13.3225477814
  0
LINE
  5
285
100
AcDbEntity
  8
LAYER_FEATURE
100
AcDbLine
 62
7
  6
CONTINUOUS
 10
7.208408183
 20
12.5025477814
 11
7.208408183
 21
13.3225477814
  0
LINE
  5
286
100
AcDbEntity
  8
LAYER_CUT_FEAT
100
AcDbLine
 62
7
  6
CONTINUOUS
 10
7.2089174802
 20
13.3225477814
 11
7.2089174802
 21
12.5025477814
  0
LINE
  5
287
100
AcDbEntity
  8
LAYER_FEATURE
100
AcDbLine
 62
7
  6
CONTINUOUS
 10
7.27469325
 20
12.5025477814
 11
7.27469325
 21
13.3225477814
  0
LINE
  5
288
100
AcDbEntity
  8
LAYER_FEATURE
100
AcDbLine
 62
7
  6
CONTINUOUS
 10
7.09670708
 20
11.9346827775
 11
7.1008720839
 21
11.9388477814
  0
LINE
  5
289
100
AcDbEntity
  8
LAYER_FEATURE
100
AcDbLine
 62
7
  6
CONTINUOUS
 10
7.2895207941
 20
12.5025477814
 11
7.2895207941
 21
13.3225477814
  0
LINE
  5
28A
100
AcDbEntity
  8
LAYER_CUT_FEAT
100
AcDbLine
 62
7
  6
CONTINUOUS
 10
7.2896640514
 20
13.3225477814
 11
7.2896640514
 21
12.5025477814
  0
LINE
  5
28B
100
AcDbEntity
  8
LAYER_FEATURE
100
AcDbLine
 62
7
  6
CONTINUOUS
 10
7.3435777091
 20
12.5025477814
 11
7.3435777091
 21
13.3225477814
  0
LINE
  5
28C
100
AcDbEntity
  8
LAYER_FEATURE
100
AcDbLine
 62
7
  6
CONTINUOUS
 10
7.3553081906
 20
12.5025477814
 11
7.3553081906
 21
13.3225477814
  0
LINE
  5
28D
100
AcDbEntity
  8
LAYER_FEATURE
100
AcDbLine
 62
7
  6
CONTINUOUS
 10
7.3964571565
 20
12.5025477814
 11
7.3964571565
 21
13.3225477814
  0
LINE
  5
28E
100
AcDbEntity
  8
LAYER_FEATURE
100
AcDbLine
 62
7
  6
CONTINUOUS
 10
7.4049430578
 20
12.5025477814
 11
7.4049430578
 21
13.3225477814
  0
LINE
  5
28F
100
AcDbEntity
  8
LAYER_FEATURE
100
AcDbLine
 62
7
  6
CONTINUOUS
 10
7.4326666024
 20
12.5025477814
 11
7.4326666024
 21
13.3225477814
  0
LINE
  5
290
100
AcDbEntity
  8
LAYER_FEATURE
100
AcDbLine
 62
7
  6
CONTINUOUS
 10
7.4378012084
 20
12.5025477814
 11
7.4378012084
 21
13.3225477814
  0
LINE
  5
291
100
AcDbEntity
  8
LAYER_FEATURE
100
AcDbLine
 62
7
  6
CONTINUOUS
 10
7.4517506922
 20
12.5025477814
 11
7.4517506922
 21
13.3225477814
  0
LINE
  5
292
100
AcDbEntity
  8
LAYER_FEATURE
100
AcDbLine
 62
7
  6
CONTINUOUS
 10
7.4534694322
 20
12.5025477814
 11
7.4534694322
 21
13.3225477814
  0
LINE
  5
293
100
AcDbEntity
  8
LAYER_FEATURE
100
AcDbLine
 62
7
  6
CONTINUOUS
 10
7.6458720839
 20
12.3825477814
 11
7.6458720839
 21
12.4625477814
  0
LINE
  5
294
100
AcDbEntity
  8
LAYER_FEATURE
100
AcDbLine
 62
7
  6
CONTINUOUS
 10
7.6458720839
 20
13.3625477814
 11
7.6458720839
 21
13.4425477814
  0
LINE
  5
295
100
AcDbEntity
  8
LAYER_FEATURE
100
AcDbLine
 62
7
  6
CONTINUOUS
 10
16.4028552569
 20
3.8856247044
 11
16.3228552569
 21
3.8856247044
  0
LINE
  5
296
100
AcDbEntity
  8
LAYER_FEATURE
100
AcDbLine
 62
7
  6
CONTINUOUS
 10
15.4228552569
 20
3.8856247044
 11
15.3428552569
 21
3.8856247044
  0
LINE
  5
297
100
AcDbEntity
  8
LAYER_FEATURE
100
AcDbLine
 62
7
  6
CONTINUOUS
 10
15.4628552569
 20
4.0780273561
 11
16.2828552569
 21
4.0780273561
  0
LINE
  5
298
100
AcDbEntity
  8
LAYER_FEATURE
100
AcDbLine
 62
7
  6
CONTINUOUS
 10
15.4628552569
 20
4.0797460961
 11
16.2828552569
 21
4.0797460961
  0
LINE
  5
299
100
AcDbEntity
  8
LAYER_FEATURE
100
AcDbLine
 62
7
  6
CONTINUOUS
 10
15.4628552569
 20
4.0936955799
 11
16.2828552569
 21
4.0936955799
  0
LINE
  5
29A
100
AcDbEntity
  8
LAYER_FEATURE
100
AcDbLine
 62
7
  6
CONTINUOUS
 10
15.4628552569
 20
4.0988301859
 11
16.2828552569
 21
4.0988301859
  0
LINE
  5
29B
100
AcDbEntity
  8
LAYER_FEATURE
100
AcDbLine
 62
7
  6
CONTINUOUS
 10
15.4628552569
 20
4.1265537305
 11
16.2828552569
 21
4.1265537305
  0
LINE
  5
29C
100
AcDbEntity
  8
LAYER_FEATURE
100
AcDbLine
 62
7
  6
CONTINUOUS
 10
15.4628552569
 20
4.1350396318
 11
16.2828552569
 21
4.1350396318
  0
LINE
  5
29D
100
AcDbEntity
  8
LAYER_FEATURE
100
AcDbLine
 62
7
  6
CONTINUOUS
 10
14.894988732
 20
6.4864581795
 11
14.8991552569
 21
6.4906247044
  0
LINE
  5
29E
100
AcDbEntity
  8
LAYER_FEATURE
100
AcDbLine
 62
7
  6
CONTINUOUS
 10
15.4628552569
 20
4.1761885977
 11
16.2828552569
 21
4.1761885977
  0
LINE
  5
29F
100
AcDbEntity
  8
LAYER_FEATURE
100
AcDbLine
 62
7
  6
CONTINUOUS
 10
15.4628552569
 20
4.1879190792
 11
16.2828552569
 21
4.1879190792
  0
LINE
  5
2A0
100
AcDbEntity
  8
LAYER_CUT_FEAT
100
AcDbLine
 62
7
  6
CONTINUOUS
 10
16.2828552569
 20
4.2418327369
 11
15.4628552569
 21
4.2418327369
  0
LINE
  5
2A1
100
AcDbEntity
  8
LAYER_FEATURE
100
AcDbLine
 62
7
  6
CONTINUOUS
 10
15.4628552569
 20
4.2419759942
 11
16.2828552569
 21
4.2419759942
  0
LINE
  5
2A2
100
AcDbEntity
  8
LAYER_FEATURE
100
AcDbLine
 62
7
  6
CONTINUOUS
 10
15.4628552569
 20
4.2568035383
 11
16.2828552569
 21
4.2568035383
  0
LINE
  5
2A3
100
AcDbEntity
  8
LAYER_CUT_FEAT
100
AcDbLine
 62
7
  6
CONTINUOUS
 10
16.2828552569
 20
4.3225793081
 11
15.4628552569
 21
4.3225793081
  0
LINE
  5
2A4
100
AcDbEntity
  8
LAYER_FEATURE
100
AcDbLine
 62
7
  6
CONTINUOUS
 10
15.4628552569
 20
4.3230886053
 11
16.2828552569
 21
4.3230886053
  0
LINE
  5
2A5
100
AcDbEntity
  8
LAYER_FEATURE
100
AcDbLine
 62
7
  6
CONTINUOUS
 10
15.4628552569
 20
4.340826747
 11
16.2828552569
 21
4.340826747
  0
LINE
  5
2A6
100
AcDbEntity
  8
LAYER_CUT_FEAT
100
AcDbLine
 62
7
  6
CONTINUOUS
 10
16.2828552569
 20
4.4174111
 11
15.4628552569
 21
4.4174111
  0
LINE
  5
2A7
100
AcDbEntity
  8
LAYER_FEATURE
100
AcDbLine
 62
7
  6
CONTINUOUS
 10
15.4628552569
 20
4.4185063929
 11
16.2828552569
 21
4.4185063929
  0
LINE
  5
2A8
100
AcDbEntity
  8
02___PRT_ALL_AXES
100
AcDbLine
 62
7
  6
CONTINUOUS
 10
15.3428552569
 20
4.4306247044
 11
14.7178552569
 21
4.4306247044
  0
LINE
  5
2A9
100
AcDbEntity
  8
LAYER_FEATURE
100
AcDbLine
 62
7
  6
CONTINUOUS
 10
15.4628552569
 20
4.4389320647
 11
16.2828552569
 21
4.4389320647
  0
LINE
  5
2AA
100
AcDbEntity
  8
02___PRT_ALL_AXES
100
AcDbLine
 62
7
  6
CONTINUOUS
 10
14.7178552569
 20
6.4906247044
 11
14.7178552569
 21
4.4306247044
  0
LINE
  5
2AB
100
AcDbEntity
  8
LAYER_CUT_FEAT
100
AcDbLine
 62
7
  6
CONTINUOUS
 10
16.2828552569
 20
4.5251355478
 11
15.4628552569
 21
4.5251355478
  0
LINE
  5
2AC
100
AcDbEntity
  8
LAYER_FEATURE
100
AcDbLine
 62
7
  6
CONTINUOUS
 10
15.4628552569
 20
4.5270294228
 11
16.2828552569
 21
4.5270294228
  0
LINE
  5
2AD
100
AcDbEntity
  8
LAYER_FEATURE
100
AcDbLine
 62
7
  6
CONTINUOUS
 10
15.4628552569
 20
4.5498857602
 11
16.2828552569
 21
4.5498857602
  0
LINE
  5
2AE
100
AcDbEntity
  8
LAYER_CUT_FEAT
100
AcDbLine
 62
7
  6
CONTINUOUS
 10
16.2828552569
 20
4.644397954
 11
15.4628552569
 21
4.644397954
  0
LINE
  5
2AF
100
AcDbEntity
  8
LAYER_FEATURE
100
AcDbLine
 62
7
  6
CONTINUOUS
 10
15.4628552569
 20
4.6472929552
 11
16.2828552569
 21
4.6472929552
  0
LINE
  5
2B0
100
AcDbEntity
  8
LAYER_FEATURE
100
AcDbLine
 62
7
  6
CONTINUOUS
 10
15.4628552569
 20
4.6722925263
 11
16.2828552569
 21
4.6722925263
  0
LINE
  5
2B1
100
AcDbEntity
  8
LAYER_CUT_FEAT
100
AcDbLine
 62
7
  6
CONTINUOUS
 10
14.9483552569
 20
5.5079674265
 11
14.9483552569
 21
5.4132819824
  0
LINE
  5
2B2
100
AcDbEntity
  8
LAYER_CUT_FEAT
100
AcDbLine
 62
7
  6
CONTINUOUS
 10
16.2828552569
 20
4.7736985249
 11
15.4628552569
 21
4.7736985249
  0
LINE
  5
2B3
100
AcDbEntity
  8
LAYER_FEATURE
100
AcDbLine
 62
7
  6
CONTINUOUS
 10
15.4628552569
 20
4.7777846061
 11
16.2828552569
 21
4.7777846061
  0
LINE
  5
2B4
100
AcDbEntity
  8
LAYER_FEATURE
100
AcDbLine
 62
7
  6
CONTINUOUS
 10
15.4628552569
 20
4.8046130269
 11
16.2828552569
 21
4.8046130269
  0
LINE
  5
2B5
100
AcDbEntity
  8
LAYER_CUT_FEAT
100
AcDbLine
 62
7
  6
CONTINUOUS
 10
16.2828552569
 20
4.9113631968
 11
15.4628552569
 21
4.9113631968
  0
LINE
  5
2B6
100
AcDbEntity
  8
LAYER_FEATURE
100
AcDbLine
 62
7
  6
CONTINUOUS
 10
15.4628552569
 20
4.9168633675
 11
16.2828552569
 21
4.9168633675
  0
LINE
  5
2B7
100
AcDbEntity
  8
LAYER_FEATURE
100
AcDbLine
 62
7
  6
CONTINUOUS
 10
15.4628552569
 20
4.9451832551
 11
16.2828552569
 21
4.9451832551
  0
LINE
  5
2B8
100
AcDbEntity
  8
LAYER_CUT_FEAT
100
AcDbLine
 62
7
  6
CONTINUOUS
 10
15.1123552569
 20
5.4132819824
 11
15.1123552569
 21
5.5079674265
  0
LINE
  5
2B9
100
AcDbEntity
  8
LAYER_CUT_FEAT
100
AcDbLine
 62
7
  6
CONTINUOUS
 10
15.0303552569
 20
5.5553101486
 11
14.9483552569
 21
5.5079674265
  0
LINE
  5
2BA
100
AcDbEntity
  8
LAYER_CUT_FEAT
100
AcDbLine
 62
7
  6
CONTINUOUS
 10
16.2828552569
 20
5.0553404565
 11
15.4628552569
 21
5.0553404565
  0
LINE
  5
2BB
100
AcDbEntity
  8
LAYER_FEATURE
100
AcDbLine
 62
7
  6
CONTINUOUS
 10
15.4628552569
 20
5.0627802433
 11
16.2828552569
 21
5.0627802433
  0
LINE
  5
2BC
100
AcDbEntity
  8
LAYER_FEATURE
100
AcDbLine
 62
7
  6
CONTINUOUS
 10
15.4628552569
 20
5.0922354585
 11
16.2828552569
 21
5.0922354585
  0
LINE
  5
2BD
100
AcDbEntity
  8
LAYER_CUT_FEAT
100
AcDbLine
 62
7
  6
CONTINUOUS
 10
14.9483552569
 20
5.4132819824
 11
15.0303552569
 21
5.3659392603
  0
LINE
  5
2BE
100
AcDbEntity
  8
LAYER_CUT_FEAT
100
AcDbLine
 62
7
  6
CONTINUOUS
 10
16.2828552569
 20
5.2037604707
 11
15.4628552569
 21
5.2037604707
  0
LINE
  5
2BF
100
AcDbEntity
  8
LAYER_FEATURE
100
AcDbLine
 62
7
  6
CONTINUOUS
 10
15.4628552569
 20
5.2137002439
 11
16.2828552569
 21
5.2137002439
  0
LINE
  5
2C0
100
AcDbEntity
  8
LAYER_FEATURE
100
AcDbLine
 62
7
  6
CONTINUOUS
 10
15.3428552569
 20
7.0356247044
 11
15.3428552569
 21
3.8856247044
  0
LINE
  5
2C1
100
AcDbEntity
  8
LAYER_FEATURE
100
AcDbLine
 62
7
  6
CONTINUOUS
 10
15.4228552569
 20
7.0356247044
 11
15.4228552569
 21
3.8856247044
  0
LINE
  5
2C2
100
AcDbEntity
  8
LAYER_CUT_FEAT
100
AcDbLine
 62
7
  6
CONTINUOUS
 10
15.0303552569
 20
5.3659392603
 11
15.1123552569
 21
5.4132819824
  0
LINE
  5
2C3
100
AcDbEntity
  8
LAYER_FEATURE
100
AcDbLine
 62
7
  6
CONTINUOUS
 10
15.4628552569
 20
5.2439203704
 11
16.2828552569
 21
5.2439203704
  0
LINE
  5
2C4
100
AcDbEntity
  8
LAYER_CUT_FEAT
100
AcDbLine
 62
7
  6
CONTINUOUS
 10
15.1123552569
 20
5.5079674265
 11
15.0303552569
 21
5.5553101486
  0
LINE
  5
2C5
100
AcDbEntity
  8
LAYER_FEATURE
100
AcDbLine
 62
7
  6
CONTINUOUS
 10
15.4628552569
 20
4.0250374976
 11
15.4628552569
 21
6.8962119113
  0
LINE
  5
2C6
100
AcDbEntity
  8
LAYER_FEATURE
100
AcDbLine
 62
7
  6
CONTINUOUS
 10
15.4628552569
 20
5.3677254629
 11
16.2828552569
 21
5.3677254629
  0
LINE
  5
2C7
100
AcDbEntity
  8
LAYER_FEATURE
100
AcDbLine
 62
7
  6
CONTINUOUS
 10
15.4628552569
 20
5.3983304651
 11
16.2828552569
 21
5.3983304651
  0
LINE
  5
2C8
100
AcDbEntity
  8
LAYER_FEATURE
100
AcDbLine
 62
7
  6
CONTINUOUS
 10
15.4628552569
 20
5.5229189438
 11
16.2828552569
 21
5.5229189438
  0
LINE
  5
2C9
100
AcDbEntity
  8
LAYER_FEATURE
100
AcDbLine
 62
7
  6
CONTINUOUS
 10
15.4628552569
 20
5.553523946
 11
16.2828552569
 21
5.553523946
  0
LINE
  5
2CA
100
AcDbEntity
  8
LAYER_FEATURE
100
AcDbLine
 62
7
  6
CONTINUOUS
 10
16.3228552569
 20
7.0356247044
 11
16.2951060505
 21
6.9627830376
  0
LINE
  5
2CB
100
AcDbEntity
  8
LAYER_FEATURE
100
AcDbLine
 62
7
  6
CONTINUOUS
 10
15.4628552569
 20
5.6773290385
 11
16.2828552569
 21
5.6773290385
  0
LINE
  5
2CC
100
AcDbEntity
  8
LAYER_FEATURE
100
AcDbLine
 62
7
  6
CONTINUOUS
 10
15.4628552569
 20
5.707549165
 11
16.2828552569
 21
5.707549165
  0
LINE
  5
2CD
100
AcDbEntity
  8
LAYER_FEATURE
100
AcDbLine
 62
7
  6
CONTINUOUS
 10
16.3228552569
 20
3.8856247044
 11
16.2951060505
 21
3.9584663713
  0
LINE
  5
2CE
100
AcDbEntity
  8
LAYER_CUT_FEAT
100
AcDbLine
 62
7
  6
CONTINUOUS
 10
16.2828552569
 20
5.7174889382
 11
15.4628552569
 21
5.7174889382
  0
LINE
  5
2CF
100
AcDbEntity
  8
LAYER_FEATURE
100
AcDbLine
 62
7
  6
CONTINUOUS
 10
15.4628552569
 20
5.8290139504
 11
16.2828552569
 21
5.8290139504
  0
LINE
  5
2D0
100
AcDbEntity
  8
LAYER_FEATURE
100
AcDbLine
 62
7
  6
CONTINUOUS
 10
15.4506044634
 20
3.9584663713
 11
15.4228552569
 21
3.8856247044
  0
LINE
  5
2D1
100
AcDbEntity
  8
LAYER_FEATURE
100
AcDbLine
 62
7
  6
CONTINUOUS
 10
15.4628552569
 20
5.8584691656
 11
16.2828552569
 21
5.8584691656
  0
LINE
  5
2D2
100
AcDbEntity
  8
LAYER_CUT_FEAT
100
AcDbLine
 62
7
  6
CONTINUOUS
 10
16.2828552569
 20
5.8659089524
 11
15.4628552569
 21
5.8659089524
  0
LINE
  5
2D3
100
AcDbEntity
  8
LAYER_FEATURE
100
AcDbLine
 62
7
  6
CONTINUOUS
 10
15.1657217812
 20
6.4864581802
 11
15.1615552569
 21
6.4906247044
  0
LINE
  5
2D4
100
AcDbEntity
  8
LAYER_FEATURE
100
AcDbLine
 62
7
  6
CONTINUOUS
 10
15.4506044634
 20
6.9627830376
 11
15.4228552569
 21
7.0356247044
  0
LINE
  5
2D5
100
AcDbEntity
  8
LAYER_FEATURE
100
AcDbLine
 62
7
  6
CONTINUOUS
 10
15.4628552569
 20
5.9760661538
 11
16.2828552569
 21
5.9760661538
  0
LINE
  5
2D6
100
AcDbEntity
  8
LAYER_FEATURE
100
AcDbLine
 62
7
  6
CONTINUOUS
 10
15.4628552569
 20
6.0043860413
 11
16.2828552569
 21
6.0043860413
  0
LINE
  5
2D7
100
AcDbEntity
  8
LAYER_CUT_FEAT
100
AcDbLine
 62
7
  6
CONTINUOUS
 10
16.2828552569
 20
6.0098862121
 11
15.4628552569
 21
6.0098862121
  0
LINE
  5
2D8
100
AcDbEntity
  8
LAYER_FEATURE
100
AcDbLine
 62
7
  6
CONTINUOUS
 10
16.2828552569
 20
4.0250374976
 11
16.2828552569
 21
6.8962119113
  0
LINE
  5
2D9
100
AcDbEntity
  8
LAYER_FEATURE
100
AcDbLine
 62
7
  6
CONTINUOUS
 10
15.4628552569
 20
6.116636382
 11
16.2828552569
 21
6.116636382
  0
LINE
  5
2DA
100
AcDbEntity
  8
LAYER_FEATURE
100
AcDbLine
 62
7
  6
CONTINUOUS
 10
15.4628552569
 20
6.1434648028
 11
16.2828552569
 21
6.1434648028
  0
LINE
  5
2DB
100
AcDbEntity
  8
LAYER_CUT_FEAT
100
AcDbLine
 62
7
  6
CONTINUOUS
 10
16.2828552569
 20
6.147550884
 11
15.4628552569
 21
6.147550884
  0
LINE
  5
2DC
100
AcDbEntity
  8
LAYER_FEATURE
100
AcDbLine
 62
7
  6
CONTINUOUS
 10
16.3228552569
 20
7.0356247044
 11
16.3228552569
 21
3.8856247044
  0
LINE
  5
2DD
100
AcDbEntity
  8
LAYER_FEATURE
100
AcDbLine
 62
7
  6
CONTINUOUS
 10
16.4028552569
 20
7.0356247044
 11
16.4028552569
 21
3.8856247044
  0
LINE
  5
2DE
100
AcDbEntity
  8
LAYER_FEATURE
100
AcDbLine
 62
7
  6
CONTINUOUS
 10
15.4628552569
 20
6.2489568826
 11
16.2828552569
 21
6.2489568826
  0
LINE
  5
2DF
100
AcDbEntity
  8
LAYER_FEATURE
100
AcDbLine
 62
7
  6
CONTINUOUS
 10
15.4628552569
 20
6.2739564537
 11
16.2828552569
 21
6.2739564537
  0
LINE
  5
2E0
100
AcDbEntity
  8
LAYER_CUT_FEAT
100
AcDbLine
 62
7
  6
CONTINUOUS
 10
16.2828552569
 20
6.2768514548
 11
15.4628552569
 21
6.2768514548
  0
LINE
  5
2E1
100
AcDbEntity
  8
LAYER_FEATURE
100
AcDbLine
 62
7
  6
CONTINUOUS
 10
15.4628552569
 20
6.3713636487
 11
16.2828552569
 21
6.3713636487
  0
LINE
  5
2E2
100
AcDbEntity
  8
LAYER_FEATURE
100
AcDbLine
 62
7
  6
CONTINUOUS
 10
15.4628552569
 20
6.3942199861
 11
16.2828552569
 21
6.3942199861
  0
LINE
  5
2E3
100
AcDbEntity
  8
LAYER_CUT_FEAT
100
AcDbLine
 62
7
  6
CONTINUOUS
 10
16.2828552569
 20
6.3961138611
 11
15.4628552569
 21
6.3961138611
  0
LINE
  5
2E4
100
AcDbEntity
  8
LAYER_FEATURE
100
AcDbLine
 62
7
  6
CONTINUOUS
 10
15.4628552569
 20
6.4823173442
 11
16.2828552569
 21
6.4823173442
  0
LINE
  5
2E5
100
AcDbEntity
  8
02___PRT_ALL_AXES
100
AcDbLine
 62
7
  6
CONTINUOUS
 10
15.3428552569
 20
6.4906247044
 11
15.1943552569
 21
6.4906247044
  0
LINE
  5
2E6
100
AcDbEntity
  8
02___PRT_ALL_AXES
100
AcDbLine
 62
7
  6
CONTINUOUS
 10
14.8663552569
 20
6.4906247044
 11
14.7178552569
 21
6.4906247044
  0
LINE
  5
2E7
100
AcDbEntity
  8
LAYER_FEATURE
100
AcDbLine
 62
7
  6
CONTINUOUS
 10
14.8991552569
 20
6.4906247044
 11
15.1615552569
 21
6.4906247044
  0
LINE
  5
2E8
100
AcDbEntity
  8
LAYER_FEATURE
100
AcDbLine
 62
7
  6
CONTINUOUS
 10
15.4628552569
 20
6.502743016
 11
16.2828552569
 21
6.502743016
  0
LINE
  5
2E9
100
AcDbEntity
  8
LAYER_CUT_FEAT
100
AcDbLine
 62
7
  6
CONTINUOUS
 10
16.2828552569
 20
6.5038383089
 11
15.4628552569
 21
6.5038383089
  0
LINE
  5
2EA
100
AcDbEntity
  8
LAYER_FEATURE
100
AcDbLine
 62
7
  6
CONTINUOUS
 10
15.4628552569
 20
6.5804226619
 11
16.2828552569
 21
6.5804226619
  0
LINE
  5
2EB
100
AcDbEntity
  8
LAYER_FEATURE
100
AcDbLine
 62
7
  6
CONTINUOUS
 10
15.4628552569
 20
6.5981608036
 11
16.2828552569
 21
6.5981608036
  0
LINE
  5
2EC
100
AcDbEntity
  8
LAYER_CUT_FEAT
100
AcDbLine
 62
7
  6
CONTINUOUS
 10
16.2828552569
 20
6.5986701008
 11
15.4628552569
 21
6.5986701008
  0
LINE
  5
2ED
100
AcDbEntity
  8
LAYER_FEATURE
100
AcDbLine
 62
7
  6
CONTINUOUS
 10
15.4628552569
 20
6.6644458706
 11
16.2828552569
 21
6.6644458706
  0
LINE
  5
2EE
100
AcDbEntity
  8
LAYER_FEATURE
100
AcDbLine
 62
7
  6
CONTINUOUS
 10
15.4628552569
 20
6.6792734147
 11
16.2828552569
 21
6.6792734147
  0
LINE
  5
2EF
100
AcDbEntity
  8
LAYER_CUT_FEAT
100
AcDbLine
 62
7
  6
CONTINUOUS
 10
16.2828552569
 20
6.679416672
 11
15.4628552569
 21
6.679416672
  0
LINE
  5
2F0
100
AcDbEntity
  8
LAYER_FEATURE
100
AcDbLine
 62
7
  6
CONTINUOUS
 10
15.4628552569
 20
6.7333303297
 11
16.2828552569
 21
6.7333303297
  0
LINE
  5
2F1
100
AcDbEntity
  8
LAYER_FEATURE
100
AcDbLine
 62
7
  6
CONTINUOUS
 10
15.4628552569
 20
6.7450608112
 11
16.2828552569
 21
6.7450608112
  0
LINE
  5
2F2
100
AcDbEntity
  8
LAYER_FEATURE
100
AcDbLine
 62
7
  6
CONTINUOUS
 10
15.4628552569
 20
6.786209777
 11
16.2828552569
 21
6.786209777
  0
LINE
  5
2F3
100
AcDbEntity
  8
LAYER_FEATURE
100
AcDbLine
 62
7
  6
CONTINUOUS
 10
15.4628552569
 20
6.7946956784
 11
16.2828552569
 21
6.7946956784
  0
LINE
  5
2F4
100
AcDbEntity
  8
LAYER_FEATURE
100
AcDbLine
 62
7
  6
CONTINUOUS
 10
15.4628552569
 20
6.822419223
 11
16.2828552569
 21
6.822419223
  0
LINE
  5
2F5
100
AcDbEntity
  8
LAYER_FEATURE
100
AcDbLine
 62
7
  6
CONTINUOUS
 10
15.4628552569
 20
6.827553829
 11
16.2828552569
 21
6.827553829
  0
LINE
  5
2F6
100
AcDbEntity
  8
LAYER_FEATURE
100
AcDbLine
 62
7
  6
CONTINUOUS
 10
15.4628552569
 20
6.8415033128
 11
16.2828552569
 21
6.8415033128
  0
LINE
  5
2F7
100
AcDbEntity
  8
LAYER_FEATURE
100
AcDbLine
 62
7
  6
CONTINUOUS
 10
15.4628552569
 20
6.8432220528
 11
16.2828552569
 21
6.8432220528
  0
LINE
  5
2F8
100
AcDbEntity
  8
LAYER_FEATURE
100
AcDbLine
 62
7
  6
CONTINUOUS
 10
16.4028552569
 20
7.0356247044
 11
16.3228552569
 21
7.0356247044
  0
LINE
  5
2F9
100
AcDbEntity
  8
LAYER_FEATURE
100
AcDbLine
 62
7
  6
CONTINUOUS
 10
15.4228552569
 20
7.0356247044
 11
15.3428552569
 21
7.0356247044
  0
LINE
  5
2FA
100
AcDbEntity
  8
LAYER_FEATURE
100
AcDbLine
 62
7
  6
CONTINUOUS
 10
13.8380294874
 20
12.6360572838
 11
13.8573947932
 21
12.6987234366
  0
LINE
  5
2FB
100
AcDbEntity
  8
LAYER_FEATURE
100
AcDbLine
 62
7
  6
CONTINUOUS
 10
14.0752544843
 20
13.4037176552
 11
14.0946197902
 21
13.466383808
  0
LINE
  5
2FC
100
AcDbEntity
  8
02___PRT_ALL_AXES
100
AcDbLine
 62
7
  6
CONTINUOUS
 10
14.166852275
 20
13.0532130566
 11
14.2480572126
 21
13.3159923309
  0
LINE
  5
2FD
100
AcDbEntity
  8
LAYER_FEATURE
100
AcDbLine
 62
7
  6
CONTINUOUS
 10
14.1672399329
 20
13.0534299117
 11
14.2532721229
 21
13.3318301806
  0
LINE
  5
2FE
100
AcDbEntity
  8
LAYER_FEATURE
100
AcDbLine
 62
7
  6
CONTINUOUS
 10
14.1776480592
 20
13.0592521997
 11
14.2821452117
 21
13.397405109
  0
LINE
  5
2FF
100
AcDbEntity
  8
LAYER_FEATURE
100
AcDbLine
 62
7
  6
CONTINUOUS
 10
14.1823749622
 20
13.061896421
 11
14.2908572063
 21
13.4129450916
  0
LINE
  5
300
100
AcDbEntity
  8
LAYER_FEATURE
100
AcDbLine
 62
7
  6
CONTINUOUS
 10
14.2098425236
 20
13.0759545353
 11
14.3326916255
 21
13.473494375
  0
LINE
  5
301
100
AcDbEntity
  8
LAYER_FEATURE
100
AcDbLine
 62
7
  6
CONTINUOUS
 10
14.2186556276
 20
13.0803635027
 11
14.3445327753
 21
13.4877021021
  0
LINE
  5
302
100
AcDbEntity
  8
LAYER_FEATURE
100
AcDbLine
 62
7
  6
CONTINUOUS
 10
14.2621495287
 20
13.1002553378
 11
14.398802433
 21
13.5424642981
  0
LINE
  5
303
100
AcDbEntity
  8
LAYER_FEATURE
100
AcDbLine
 62
7
  6
CONTINUOUS
 10
14.2746920768
 20
13.1055777852
 11
14.4136238287
 21
13.5551610994
  0
LINE
  5
304
100
AcDbEntity
  8
LAYER_FEATURE
100
AcDbLine
 62
7
  6
CONTINUOUS
 10
14.4796462524
 20
13.6034475416
 11
14.4793475992
 21
13.6026765893
  0
LINE
  5
305
100
AcDbEntity
  8
0
100
AcDbLine
 62
7
  6
CONTINUOUS
 10
14.4793475831
 20
13.6026765943
 11
14.3325412784
 21
13.1276112183
  0
LINE
  5
306
100
AcDbEntity
  8
LAYER_FEATURE
100
AcDbLine
 62
7
  6
CONTINUOUS
 10
14.3326090584
 20
13.1276350074
 11
14.4796462524
 21
13.6034475416
  0
LINE
  5
307
100
AcDbEntity
  8
LAYER_FEATURE
100
AcDbLine
 62
7
  6
CONTINUOUS
 10
14.3485454023
 20
13.1332282579
 11
14.4972615064
 21
13.6144737473
  0
LINE
  5
308
100
AcDbEntity
  8
LAYER_CUT_FEAT
100
AcDbLine
 62
7
  6
CONTINUOUS
 10
14.1953568831
 20
12.5256347669
 11
14.2050395361
 21
12.5569678432
  0
LINE
  5
309
100
AcDbEntity
  8
0
100
AcDbLine
 62
7
  6
CONTINUOUS
 10
14.5733078157
 20
13.6538932409
 11
14.4190609364
 21
13.1547501565
  0
LINE
  5
30A
100
AcDbEntity
  8
LAYER_FEATURE
100
AcDbLine
 62
7
  6
CONTINUOUS
 10
14.4194396835
 20
13.1548518442
 11
14.5742064258
 21
13.6556772057
  0
LINE
  5
30B
100
AcDbEntity
  8
LAYER_FEATURE
100
AcDbLine
 62
7
  6
CONTINUOUS
 10
14.4383477875
 20
13.1599283746
 11
14.594394016
 21
13.6648941549
  0
LINE
  5
30C
100
AcDbEntity
  8
0
100
AcDbLine
 62
7
  6
CONTINUOUS
 10
14.6795902844
 20
13.6957887565
 11
14.5197692931
 21
13.1786078392
  0
LINE
  5
30D
100
AcDbEntity
  8
LAYER_FEATURE
100
AcDbLine
 62
7
  6
CONTINUOUS
 10
14.5206918172
 20
13.1787882522
 11
14.681293804
 21
13.6984964721
  0
LINE
  5
30E
100
AcDbEntity
  8
LAYER_FEATURE
100
AcDbLine
 62
7
  6
CONTINUOUS
 10
14.5422472209
 20
13.1830037252
 11
14.7037998598
 21
13.7057882563
  0
LINE
  5
30F
100
AcDbEntity
  8
02___PRT_ALL_AXES
100
AcDbLine
 62
7
  6
CONTINUOUS
 10
14.2074423954
 20
11.9855681478
 11
14.3587338475
 21
12.4751474663
  0
LINE
  5
310
100
AcDbEntity
  8
0
100
AcDbLine
 62
7
  6
CONTINUOUS
 10
14.7968584252
 20
13.7278362807
 11
14.6328534583
 21
13.197116013
  0
LINE
  5
311
100
AcDbEntity
  8
LAYER_FEATURE
100
AcDbLine
 62
7
  6
CONTINUOUS
 10
14.6345331038
 20
13.1973341265
 11
14.7995617013
 21
13.7313668637
  0
LINE
  5
312
100
AcDbEntity
  8
LAYER_FEATURE
100
AcDbLine
 62
7
  6
CONTINUOUS
 10
14.6583986618
 20
13.2004217155
 11
14.8241031959
 21
13.7366417845
  0
LINE
  5
313
100
AcDbEntity
  8
0
100
AcDbLine
 62
7
  6
CONTINUOUS
 10
14.9236375235
 20
13.7496327973
 11
14.7565231063
 21
13.2088503451
  0
LINE
  5
314
100
AcDbEntity
  8
LAYER_FEATURE
100
AcDbLine
 62
7
  6
CONTINUOUS
 10
14.7591540688
 20
13.2090335049
 11
14.9275228301
 21
13.7538750162
  0
LINE
  5
315
100
AcDbEntity
  8
LAYER_FEATURE
100
AcDbLine
 62
7
  6
CONTINUOUS
 10
14.7848403882
 20
13.2103419051
 11
14.9537911401
 21
13.7570667385
  0
LINE
  5
316
100
AcDbEntity
  8
0
100
AcDbLine
 62
7
  6
CONTINUOUS
 10
15.0583332584
 20
13.7609042025
 11
14.8889095734
 21
13.2126489568
  0
LINE
  5
317
100
AcDbEntity
  8
LAYER_FEATURE
100
AcDbLine
 62
7
  6
CONTINUOUS
 10
14.8926352511
 20
13.2125992823
 11
15.0635680051
 21
13.7657378767
  0
LINE
  5
318
100
AcDbEntity
  8
LAYER_FEATURE
100
AcDbLine
 62
7
  6
CONTINUOUS
 10
14.9198577185
 20
13.2122363244
 11
15.0912327911
 21
13.7668062626
  0
LINE
  5
319
100
AcDbEntity
  8
0
100
AcDbLine
 62
7
  6
CONTINUOUS
 10
15.1992105553
 20
13.7613782809
 11
15.0281174238
 21
13.2077207045
  0
LINE
  5
31A
100
AcDbEntity
  8
LAYER_FEATURE
100
AcDbLine
 62
7
  6
CONTINUOUS
 10
15.0331152317
 20
13.2073950243
 11
15.2059863791
 21
13.7668062626
  0
LINE
  5
31B
100
AcDbEntity
  8
LAYER_FEATURE
100
AcDbLine
 62
7
  6
CONTINUOUS
 10
15.0615568669
 20
13.2054473322
 11
15.2346997405
 21
13.7657378767
  0
LINE
  5
31C
100
AcDbEntity
  8
LAYER_FEATURE
100
AcDbLine
 62
7
  6
CONTINUOUS
 10
15.1992735633
 20
13.7615778245
 11
15.1992105817
 21
13.7613782728
  0
LINE
  5
31D
100
AcDbEntity
  8
LAYER_CUT_FEAT
100
AcDbLine
 62
7
  6
CONTINUOUS
 10
16.2447474395
 20
11.8673955985
 11
16.1933771177
 21
11.8673955985
  0
LINE
  5
31E
100
AcDbEntity
  8
LAYER_CUT_FEAT
100
AcDbLine
 62
7
  6
CONTINUOUS
 10
15.3437066306
 20
13.7492978813
 11
15.1721380891
 21
13.1941018776
  0
LINE
  5
31F
100
AcDbEntity
  8
LAYER_FEATURE
100
AcDbLine
 62
7
  6
CONTINUOUS
 10
15.1787737503
 20
13.1933125896
 11
15.3529869587
 21
13.7570667385
  0
LINE
  5
320
100
AcDbEntity
  8
LAYER_FEATURE
100
AcDbLine
 62
7
  6
CONTINUOUS
 10
15.2079031686
 20
13.1892425156
 11
15.3823878082
 21
13.7538750162
  0
LINE
  5
321
100
AcDbEntity
  8
LAYER_CUT_FEAT
100
AcDbLine
 62
7
  6
CONTINUOUS
 10
14.9292223722
 20
12.6307440884
 11
14.8657673991
 21
12.5665112818
  0
LINE
  5
322
100
AcDbEntity
  8
LAYER_CUT_FEAT
100
AcDbLine
 62
7
  6
CONTINUOUS
 10
16.2501553657
 20
11.9610571131
 11
16.1855925747
 21
11.9610571131
  0
LINE
  5
323
100
AcDbEntity
  8
LAYER_CUT_FEAT
100
AcDbLine
 62
7
  6
CONTINUOUS
 10
14.8657673991
 20
12.5665112818
 11
14.8972882823
 21
12.5022784752
  0
LINE
  5
324
100
AcDbEntity
  8
LAYER_CUT_FEAT
100
AcDbLine
 62
7
  6
CONTINUOUS
 10
14.9292223722
 20
12.6307440884
 11
14.9792492384
 21
12.5288000536
  0
LINE
  5
325
100
AcDbEntity
  8
LAYER_CUT_FEAT
100
AcDbLine
 62
7
  6
CONTINUOUS
 10
14.8657673991
 20
12.5665112818
 11
14.8895234952
 21
12.5022784752
  0
LINE
  5
326
100
AcDbEntity
  8
LAYER_CUT_FEAT
100
AcDbLine
 62
7
  6
CONTINUOUS
 10
15.4904282206
 20
13.7268228209
 11
15.3187616148
 21
13.1713094809
  0
LINE
  5
327
100
AcDbEntity
  8
LAYER_FEATURE
100
AcDbLine
 62
7
  6
CONTINUOUS
 10
15.3275110985
 20
13.1696619275
 11
15.502721126
 21
13.7366417845
  0
LINE
  5
328
100
AcDbEntity
  8
LAYER_FEATURE
100
AcDbLine
 62
7
  6
CONTINUOUS
 10
15.3571359094
 20
13.1640834891
 11
15.532439731
 21
13.7313668637
  0
LINE
  5
329
100
AcDbEntity
  8
LAYER_CUT_FEAT
100
AcDbLine
 62
7
  6
CONTINUOUS
 10
14.9792492384
 20
12.5288000536
 11
14.9530488256
 21
12.5022784752
  0
LINE
  5
32A
100
AcDbEntity
  8
LAYER_CUT_FEAT
100
AcDbLine
 62
7
  6
CONTINUOUS
 10
14.9767345645
 20
12.5022784752
 11
15.0401895377
 21
12.5665112818
  0
LINE
  5
32B
100
AcDbEntity
  8
LAYER_CUT_FEAT
100
AcDbLine
 62
7
  6
CONTINUOUS
 10
15.0401895377
 20
12.5665112818
 11
15.0164334415
 21
12.6307440884
  0
LINE
  5
32C
100
AcDbEntity
  8
LAYER_FEATURE
100
AcDbLine
 62
7
  6
CONTINUOUS
 10
15.4775872628
 20
13.1371625792
 11
15.6533058872
 21
13.7057882563
  0
LINE
  5
32D
100
AcDbEntity
  8
LAYER_FEATURE
100
AcDbLine
 62
7
  6
CONTINUOUS
 10
15.5071447311
 20
13.129530486
 11
15.6829685189
 21
13.6984964721
  0
LINE
  5
32E
100
AcDbEntity
  8
LAYER_FEATURE
100
AcDbLine
 62
7
  6
CONTINUOUS
 10
15.6269060629
 20
13.095547289
 11
15.8028475515
 21
13.6648941549
  0
LINE
  5
32F
100
AcDbEntity
  8
LAYER_FEATURE
100
AcDbLine
 62
7
  6
CONTINUOUS
 10
15.656180172
 20
13.0864613187
 11
15.8320811851
 21
13.6556772057
  0
LINE
  5
330
100
AcDbEntity
  8
LAYER_CUT_FEAT
100
AcDbLine
 62
7
  6
CONTINUOUS
 10
14.8895234952
 20
12.5022784752
 11
14.9767345645
 21
12.5022784752
  0
LINE
  5
331
100
AcDbEntity
  8
LAYER_CUT_FEAT
100
AcDbLine
 62
7
  6
CONTINUOUS
 10
15.0029349773
 20
12.5288000536
 11
14.9792492384
 21
12.5288000536
  0
LINE
  5
332
100
AcDbEntity
  8
LAYER_FEATURE
100
AcDbLine
 62
7
  6
CONTINUOUS
 10
15.7737320477
 20
13.0457999395
 11
15.9494655457
 21
13.6144737473
  0
LINE
  5
333
100
AcDbEntity
  8
LAYER_FEATURE
100
AcDbLine
 62
7
  6
CONTINUOUS
 10
15.8022153311
 20
13.0349234885
 11
15.9779025513
 21
13.6034475416
  0
LINE
  5
334
100
AcDbEntity
  8
LAYER_CUT_FEAT
100
AcDbLine
 62
7
  6
CONTINUOUS
 10
15.0164334415
 20
12.6307440884
 11
14.9292223722
 21
12.6307440884
  0
LINE
  5
335
100
AcDbEntity
  8
LAYER_FEATURE
100
AcDbLine
 62
7
  6
CONTINUOUS
 10
15.916094852
 20
12.9881450516
 11
16.0913160634
 21
13.5551610994
  0
LINE
  5
336
100
AcDbEntity
  8
LAYER_FEATURE
100
AcDbLine
 62
7
  6
CONTINUOUS
 10
15.9435540803
 20
12.9760192832
 11
16.1185988292
 21
13.5424642981
  0
LINE
  5
337
100
AcDbEntity
  8
LAYER_FEATURE
100
AcDbLine
 62
7
  6
CONTINUOUS
 10
16.2126551375
 20
12.0748741084
 11
16.2374656334
 21
12.0451498896
  0
LINE
  5
338
100
AcDbEntity
  8
LAYER_CUT_FEAT
100
AcDbLine
 62
7
  6
CONTINUOUS
 10
16.1229305957
 20
13.5280260688
 11
15.9512917042
 21
12.9726024124
  0
LINE
  5
339
100
AcDbEntity
  8
LAYER_FEATURE
100
AcDbLine
 62
7
  6
CONTINUOUS
 10
16.0523514389
 20
12.9237841963
 11
16.226615252
 21
13.4877021021
  0
LINE
  5
33A
100
AcDbEntity
  8
LAYER_FEATURE
100
AcDbLine
 62
7
  6
CONTINUOUS
 10
16.0783569181
 20
12.9102885505
 11
16.2524006814
 21
13.473494375
  0
LINE
  5
33B
100
AcDbEntity
  8
LAYER_CUT_FEAT
100
AcDbLine
 62
7
  6
CONTINUOUS
 10
16.181573464
 20
11.8914489158
 11
16.2104564886
 21
11.8325914999
  0
LINE
  5
33C
100
AcDbEntity
  8
LAYER_CUT_FEAT
100
AcDbLine
 62
7
  6
CONTINUOUS
 10
16.2501553657
 20
11.9610571131
 11
16.221272341
 21
12.019914529
  0
LINE
  5
33D
100
AcDbEntity
  8
LAYER_CUT_FEAT
100
AcDbLine
 62
7
  6
CONTINUOUS
 10
16.2555043553
 20
13.4624432751
 11
16.0839581666
 21
12.9073196051
  0
LINE
  5
33E
100
AcDbEntity
  8
LAYER_FEATURE
100
AcDbLine
 62
7
  6
CONTINUOUS
 10
16.1807697699
 20
12.8534667759
 11
16.3536616459
 21
13.4129450916
  0
LINE
  5
33F
100
AcDbEntity
  8
LAYER_FEATURE
100
AcDbLine
 62
7
  6
CONTINUOUS
 10
16.2050649633
 20
12.8389990977
 11
16.3776254721
 21
13.397405109
  0
LINE
  5
340
100
AcDbEntity
  8
LAYER_CUT_FEAT
100
AcDbLine
 62
7
  6
CONTINUOUS
 10
16.380009931
 20
13.3894478769
 11
16.2091556216
 21
12.8365631291
  0
LINE
  5
341
100
AcDbEntity
  8
LAYER_CUT_FEAT
100
AcDbLine
 62
7
  6
CONTINUOUS
 10
16.1869813902
 20
11.9851104304
 11
16.181573464
 21
11.8914489158
  0
LINE
  5
342
100
AcDbEntity
  8
LAYER_FEATURE
100
AcDbLine
 62
7
  6
CONTINUOUS
 10
16.29986389
 20
12.7784944526
 11
16.4708575628
 21
13.3318301806
  0
LINE
  5
343
100
AcDbEntity
  8
LAYER_FEATURE
100
AcDbLine
 62
7
  6
CONTINUOUS
 10
16.3221798582
 20
12.7633550764
 11
16.4926984268
 21
13.3151533668
  0
LINE
  5
344
100
AcDbEntity
  8
LAYER_CUT_FEAT
100
AcDbLine
 62
7
  6
CONTINUOUS
 10
16.4941402111
 20
13.308430074
 11
16.3250677143
 21
12.7613112737
  0
LINE
  5
345
100
AcDbEntity
  8
LAYER_CUT_FEAT
100
AcDbLine
 62
7
  6
CONTINUOUS
 10
16.2447474395
 20
11.8673955985
 11
16.2501553657
 21
11.9610571131
  0
LINE
  5
346
100
AcDbEntity
  8
LAYER_FEATURE
100
AcDbLine
 62
7
  6
CONTINUOUS
 10
16.4083355108
 20
12.7004552706
 11
16.5767291961
 21
13.2453774361
  0
LINE
  5
347
100
AcDbEntity
  8
LAYER_FEATURE
100
AcDbLine
 62
7
  6
CONTINUOUS
 10
16.4283081769
 20
12.684564569
 11
16.5961724364
 21
13.2277735118
  0
LINE
  5
348
100
AcDbEntity
  8
LAYER_CUT_FEAT
100
AcDbLine
 62
7
  6
CONTINUOUS
 10
16.5968696844
 20
13.2223018752
 11
16.4302250056
 21
12.6830394971
  0
LINE
  5
349
100
AcDbEntity
  8
LAYER_CUT_FEAT
100
AcDbLine
 62
7
  6
CONTINUOUS
 10
16.221272341
 20
12.019914529
 11
16.1869813902
 21
11.9851104304
  0
LINE
  5
34A
100
AcDbEntity
  8
LAYER_FEATURE
100
AcDbLine
 62
7
  6
CONTINUOUS
 10
16.5048520046
 20
12.6204324418
 11
16.6699451486
 21
13.1546740517
  0
LINE
  5
34B
100
AcDbEntity
  8
LAYER_FEATURE
100
AcDbLine
 62
7
  6
CONTINUOUS
 10
16.5224310026
 20
12.6046400441
 11
16.6867462551
 21
13.1363643963
  0
LINE
  5
34C
100
AcDbEntity
  8
LAYER_CUT_FEAT
100
AcDbLine
 62
7
  6
CONTINUOUS
 10
16.686906468
 20
13.1321463926
 11
16.5235766316
 21
12.6036108484
  0
LINE
  5
34D
100
AcDbEntity
  8
02___PRT_ALL_AXES
100
AcDbLine
 62
7
  6
CONTINUOUS
 10
16.1756093345
 20
11.3773585626
 11
16.3269007867
 21
11.8669378811
  0
LINE
  5
34E
100
AcDbEntity
  8
LAYER_FEATURE
100
AcDbLine
 62
7
  6
CONTINUOUS
 10
16.2126551375
 20
11.7776319205
 11
16.2374656334
 21
11.8073561393
  0
LINE
  5
34F
100
AcDbEntity
  8
LAYER_CUT_FEAT
100
AcDbLine
 62
7
  6
CONTINUOUS
 10
16.2104564886
 20
11.8325914999
 11
16.2447474395
 21
11.8673955985
  0
LINE
  5
350
100
AcDbEntity
  8
LAYER_FEATURE
100
AcDbLine
 62
7
  6
CONTINUOUS
 10
16.5886272536
 20
12.5408161205
 11
16.7493331756
 21
13.0608606748
  0
LINE
  5
351
100
AcDbEntity
  8
LAYER_FEATURE
100
AcDbLine
 62
7
  6
CONTINUOUS
 10
16.603639782
 20
12.52547681
 11
16.7632808647
 21
13.042075543
  0
LINE
  5
352
100
AcDbEntity
  8
LAYER_CUT_FEAT
100
AcDbLine
 62
7
  6
CONTINUOUS
 10
16.7631182971
 20
13.0390973838
 11
16.6042156917
 21
12.5248883643
  0
LINE
  5
353
100
AcDbEntity
  8
LAYER_FEATURE
100
AcDbLine
 62
7
  6
CONTINUOUS
 10
16.6589867587
 20
12.4638340481
 11
16.8138949266
 21
12.9651170633
  0
LINE
  5
354
100
AcDbEntity
  8
LAYER_FEATURE
100
AcDbLine
 62
7
  6
CONTINUOUS
 10
16.6713102956
 20
12.4493551731
 11
16.824813798
 21
12.9460926889
  0
LINE
  5
355
100
AcDbEntity
  8
LAYER_CUT_FEAT
100
AcDbLine
 62
7
  6
CONTINUOUS
 10
16.8245467638
 20
12.9443249939
 11
16.6715151456
 21
12.4491144957
  0
LINE
  5
356
100
AcDbEntity
  8
LAYER_CUT_FEAT
100
AcDbLine
 62
7
  6
CONTINUOUS
 10
16.490277751
 20
11.8164505806
 11
16.499960404
 21
11.847783657
  0
LINE
  5
357
100
AcDbEntity
  8
LAYER_FEATURE
100
AcDbLine
 62
7
  6
CONTINUOUS
 10
16.8704193268
 20
12.8490210541
 11
16.8705712427
 21
12.8496228742
  0
LINE
  5
358
100
AcDbEntity
  8
LAYER_FEATURE
100
AcDbLine
 62
7
  6
CONTINUOUS
 10
16.7156078668
 20
12.3922734646
 11
16.8628185001
 21
12.8686472486
  0
LINE
  5
359
100
AcDbEntity
  8
LAYER_FEATURE
100
AcDbLine
 62
7
  6
CONTINUOUS
 10
16.7251791569
 20
12.3791339122
 11
16.8705712427
 21
12.8496228742
  0
LINE
  5
35A
100
AcDbEntity
  8
LAYER_CUT_FEAT
100
AcDbLine
 62
7
  6
CONTINUOUS
 10
16.8704193695
 20
12.8490210409
 11
16.7252031049
 21
12.3791010363
  0
LINE
  5
35B
100
AcDbEntity
  8
LAYER_FEATURE
100
AcDbLine
 62
7
  6
CONTINUOUS
 10
16.7586434238
 20
12.329833068
 11
16.8954886538
 21
12.7726643946
  0
LINE
  5
35C
100
AcDbEntity
  8
LAYER_FEATURE
100
AcDbLine
 62
7
  6
CONTINUOUS
 10
16.765471728
 20
12.3186175436
 11
16.8999777723
 21
12.7538792627
  0
LINE
  5
35D
100
AcDbEntity
  8
LAYER_FEATURE
100
AcDbLine
 62
7
  6
CONTINUOUS
 10
16.7883446575
 20
12.2798623702
 11
16.9114945416
 21
12.6783755413
  0
LINE
  5
35E
100
AcDbEntity
  8
LAYER_FEATURE
100
AcDbLine
 62
7
  6
CONTINUOUS
 10
16.7927149197
 20
12.2719118701
 11
16.9126635827
 21
12.6600658859
  0
LINE
  5
35F
100
AcDbEntity
  8
LAYER_FEATURE
100
AcDbLine
 62
7
  6
CONTINUOUS
 10
16.8057578593
 20
12.2475842619
 11
16.9106348801
 21
12.5869664258
  0
LINE
  5
360
100
AcDbEntity
  8
LAYER_FEATURE
100
AcDbLine
 62
7
  6
CONTINUOUS
 10
16.8077669649
 20
12.2434901351
 11
16.9084691425
 21
12.5693625014
  0
LINE
  5
361
100
AcDbEntity
  8
LAYER_FEATURE
100
AcDbLine
 62
7
  6
CONTINUOUS
 10
16.8114569965
 20
12.2359706413
 11
16.8929204801
 21
12.4995865707
  0
LINE
  5
362
100
AcDbEntity
  8
LAYER_FEATURE
100
AcDbLine
 62
7
  6
CONTINUOUS
 10
16.8476051468
 20
11.7060280636
 11
16.8669704526
 21
11.7686942164
  0
LINE
  5
363
100
AcDbEntity
  8
LAYER_FEATURE
100
AcDbLine
 62
7
  6
CONTINUOUS
 10
17.0848301437
 20
12.4736884351
 11
17.1041954496
 21
12.5363545878
  0
CIRCLE
  5
364
100
AcDbEntity
  8
LAYER_FEATURE
100
AcDbCircle
 62
7
  6
CONTINUOUS
 10
6.1303672762
 20
5.5201198968
 40
1.575
  0
CIRCLE
  5
365
100
AcDbEntity
  8
LAYER_FEATURE
100
AcDbCircle
 62
7
  6
CONTINUOUS
 10
6.1303672762
 20
5.5201198968
 40
1.47
  0
CIRCLE
  5
366
100
AcDbEntity
  8
LAYER_CUT_FEAT
100
AcDbCircle
 62
7
  6
CONTINUOUS
 10
6.1303672762
 20
5.5201198968
 40
1.201
  0
CIRCLE
  5
367
100
AcDbEntity
  8
02___PRT_ALL_AXES
100
AcDbCircle
 62
7
  6
CONTINUOUS
 10
6.1303672762
 20
5.5201198968
 40
1.03
  0
CIRCLE
  5
368
100
AcDbEntity
  8
LAYER_CHAMFER_FEAT
100
AcDbCircle
 62
7
  6
CONTINUOUS
 10
6.1303672762
 20
5.5201198968
 40
0.2875
  0
CIRCLE
  5
369
100
AcDbEntity
  8
LAYER_CHAMFER_FEAT
100
AcDbCircle
 62
7
  6
CONTINUOUS
 10
6.1303672762
 20
5.5201198968
 40
0.25
  0
ARC
  5
36A
100
AcDbEntity
  8
LAYER_FEATURE
100
AcDbCircle
 62
7
  6
CONTINUOUS
 10
7.5064592907
 20
12.3155477814
 40
0.187
100
AcDbArc
 50
69.1455419604
 51
90.0
  0
ARC
  5
36B
100
AcDbEntity
  8
LAYER_FEATURE
100
AcDbCircle
 62
7
  6
CONTINUOUS
 10
4.635284877
 20
12.3155477814
 40
0.187
100
AcDbArc
 50
90.0
 51
110.8544580396
  0
ARC
  5
36C
100
AcDbEntity
  8
LAYER_FEATURE
100
AcDbCircle
 62
7
  6
CONTINUOUS
 10
7.5064592907
 20
13.5095477814
 40
0.187
100
AcDbArc
 50
270.0
 51
290.8544580396
  0
ARC
  5
36D
100
AcDbEntity
  8
LAYER_FEATURE
100
AcDbCircle
 62
7
  6
CONTINUOUS
 10
4.635284877
 20
13.5095477814
 40
0.187
100
AcDbArc
 50
249.1455419604
 51
270.0
  0
CIRCLE
  5
36E
100
AcDbEntity
  8
02___PRT_ALL_AXES
100
AcDbCircle
 62
7
  6
CONTINUOUS
 10
6.0708720839
 20
12.0700477814
 40
0.164
  0
CIRCLE
  5
36F
100
AcDbEntity
  8
LAYER_FEATURE
100
AcDbCircle
 62
7
  6
CONTINUOUS
 10
6.0708720839
 20
12.0700477814
 40
0.1312
  0
ARC
  5
370
100
AcDbEntity
  8
LAYER_FEATURE
100
AcDbCircle
 62
7
  6
CONTINUOUS
 10
15.2758552569
 20
4.0250374976
 40
0.187
100
AcDbArc
 50
339.1455419604
 51
360.0
  0
ARC
  5
371
100
AcDbEntity
  8
LAYER_FEATURE
100
AcDbCircle
 62
7
  6
CONTINUOUS
 10
15.2758552569
 20
6.8962119113
 40
0.187
100
AcDbArc
 50
0.0
 51
20.8544580396
  0
ARC
  5
372
100
AcDbEntity
  8
LAYER_FEATURE
100
AcDbCircle
 62
7
  6
CONTINUOUS
 10
16.4698552569
 20
4.0250374976
 40
0.187
100
AcDbArc
 50
180.0
 51
200.8544580396
  0
ARC
  5
373
100
AcDbEntity
  8
LAYER_FEATURE
100
AcDbCircle
 62
7
  6
CONTINUOUS
 10
16.4698552569
 20
6.8962119113
 40
0.187
100
AcDbArc
 50
159.1455419604
 51
180.0
  0
CIRCLE
  5
374
100
AcDbEntity
  8
02___PRT_ALL_AXES
100
AcDbCircle
 62
7
  6
CONTINUOUS
 10
15.0303552569
 20
5.4606247044
 40
0.164
  0
CIRCLE
  5
375
100
AcDbEntity
  8
LAYER_FEATURE
100
AcDbCircle
 62
7
  6
CONTINUOUS
 10
15.0303552569
 20
5.4606247044
 40
0.1312
  0
ARC
  5
376
100
AcDbEntity
  8
LAYER_FEATURE
100
AcDbCircle
 62
7
  6
CONTINUOUS
 10
15.0906751216
 20
11.3551096258
 40
2.4170838092
100
AcDbArc
 50
72.1373774903
 51
72.8639776893
  0
ARC
  5
377
100
AcDbEntity
  8
LAYER_FEATURE
100
AcDbCircle
 62
7
  6
CONTINUOUS
 10
15.0973800526
 20
11.3803294002
 40
2.3909856598
100
AcDbArc
 50
75.8231841735
 51
76.5551641036
  0
ARC
  5
378
100
AcDbEntity
  8
LAYER_FEATURE
100
AcDbCircle
 62
7
  6
CONTINUOUS
 10
15.1024910596
 20
11.3879110257
 40
2.3822147957
100
AcDbArc
 50
68.4398381059
 51
69.1734093579
  0
ARC
  5
379
100
AcDbEntity
  8
LAYER_FEATURE
100
AcDbCircle
 62
7
  6
CONTINUOUS
 10
15.1146049671
 20
11.4636634225
 40
2.305876143
100
AcDbArc
 50
79.5600829589
 51
80.3100700314
  0
ARC
  5
37A
100
AcDbEntity
  8
LAYER_FEATURE
100
AcDbCircle
 62
7
  6
CONTINUOUS
 10
15.1391942089
 20
11.4735898288
 40
2.2889899476
100
AcDbArc
 50
64.667137922
 51
65.4203894612
  0
ARC
  5
37B
100
AcDbEntity
  8
LAYER_FEATURE
100
AcDbCircle
 62
7
  6
CONTINUOUS
 10
15.1337035528
 20
11.6001068451
 40
2.1680777647
100
AcDbArc
 50
83.4135255965
 51
84.1950726806
  0
ARC
  5
37C
100
AcDbEntity
  8
LAYER_FEATURE
100
AcDbCircle
 62
7
  6
CONTINUOUS
 10
15.2047051136
 20
11.6025472536
 40
2.1443202032
100
AcDbArc
 50
60.7519854326
 51
61.5386377019
  0
ARC
  5
37D
100
AcDbEntity
  8
LAYER_FEATURE
100
AcDbCircle
 62
7
  6
CONTINUOUS
 10
15.1464388995
 20
11.7800639379
 40
1.9876345155
100
AcDbArc
 50
87.4549460601
 51
88.2832206738
  0
ARC
  5
37E
100
AcDbEntity
  8
LAYER_FEATURE
100
AcDbCircle
 62
7
  6
CONTINUOUS
 10
15.2999574057
 20
11.7618066082
 40
1.9587115452
100
AcDbArc
 50
56.6197914737
 51
57.4552716359
  0
ARC
  5
37F
100
AcDbEntity
  8
LAYER_FEATURE
100
AcDbCircle
 62
7
  6
CONTINUOUS
 10
15.1459845835
 20
11.9903531585
 40
1.7772966521
100
AcDbArc
 50
91.7653457124
 51
92.6578658715
  0
ARC
  5
380
100
AcDbEntity
  8
LAYER_FEATURE
100
AcDbCircle
 62
7
  6
CONTINUOUS
 10
15.4226888082
 20
11.9364508679
 40
1.7452051926
100
AcDbArc
 50
52.1849972642
 51
53.0871793619
  0
ARC
  5
381
100
AcDbEntity
  8
LAYER_FEATURE
100
AcDbCircle
 62
7
  6
CONTINUOUS
 10
15.1277586891
 20
12.2155983189
 40
1.5512542013
100
AcDbArc
 50
96.439060029
 51
97.41643104
  0
ARC
  5
382
100
AcDbEntity
  8
LAYER_FEATURE
100
AcDbCircle
 62
7
  6
CONTINUOUS
 10
15.5675890495
 20
12.111259679
 40
1.5180865991
100
AcDbArc
 50
47.3473176147
 51
48.3372511972
  0
ARC
  5
383
100
AcDbEntity
  8
LAYER_FEATURE
100
AcDbCircle
 62
7
  6
CONTINUOUS
 10
15.089996314
 20
12.4398508751
 40
1.3237695468
100
AcDbArc
 50
101.5872878758
 51
102.6737756729
  0
ARC
  5
384
100
AcDbEntity
  8
LAYER_FEATURE
100
AcDbCircle
 62
7
  6
CONTINUOUS
 10
15.7267894124
 20
12.2723625071
 40
1.2915170941
100
AcDbArc
 50
41.9885555862
 51
43.0909954781
  0
ARC
  5
385
100
AcDbEntity
  8
LAYER_FEATURE
100
AcDbCircle
 62
7
  6
CONTINUOUS
 10
15.0339955712
 20
12.6482625279
 40
1.10787629
100
AcDbArc
 50
107.3401498529
 51
108.5636792929
  0
ARC
  5
386
100
AcDbEntity
  8
LAYER_FEATURE
100
AcDbCircle
 62
7
  6
CONTINUOUS
 10
15.8906403068
 20
12.4087230766
 40
1.078256412
100
AcDbArc
 50
35.9717127233
 51
37.21499322
  0
ARC
  5
387
100
AcDbEntity
  8
LAYER_FEATURE
100
AcDbCircle
 62
7
  6
CONTINUOUS
 10
14.9640088691
 20
12.8286219237
 40
0.9143119732
100
AcDbArc
 50
113.8444271772
 51
115.2351417776
  0
ARC
  5
388
100
AcDbEntity
  8
LAYER_FEATURE
100
AcDbCircle
 62
7
  6
CONTINUOUS
 10
16.0486909379
 20
12.5132894209
 40
0.8886424269
100
AcDbArc
 50
29.1461302005
 51
30.5604454253
  0
ARC
  5
389
100
AcDbEntity
  8
LAYER_FEATURE
100
AcDbCircle
 62
7
  6
CONTINUOUS
 10
14.8867912115
 20
12.9725845887
 40
0.7508362558
100
AcDbArc
 50
121.2514223057
 51
122.8373010683
  0
ARC
  5
38A
100
AcDbEntity
  8
LAYER_FEATURE
100
AcDbCircle
 62
7
  6
CONTINUOUS
 10
16.1907623757
 20
12.5836815556
 40
0.7299759452
100
AcDbArc
 50
21.3654438515
 51
22.9779486833
  0
ARC
  5
38B
100
AcDbEntity
  8
LAYER_CUT_FEAT
100
AcDbCircle
 62
7
  6
CONTINUOUS
 10
14.8913153915
 20
12.4927453261
 40
0.7294618847
100
AcDbArc
 50
206.1685742516
 51
209.1562940981
  0
ARC
  5
38C
100
AcDbEntity
  8
LAYER_FEATURE
100
AcDbCircle
 62
7
  6
CONTINUOUS
 10
14.8108558932
 20
13.0764598281
 40
0.6220516217
100
AcDbArc
 50
129.6862950425
 51
131.4839632881
  0
ARC
  5
38D
100
AcDbEntity
  8
LAYER_FEATURE
100
AcDbCircle
 62
7
  6
CONTINUOUS
 10
16.3079949389
 20
12.6223409582
 40
0.6064206466
100
AcDbArc
 50
12.5275684518
 51
14.3524759238
  0
ARC
  5
38E
100
AcDbEntity
  8
LAYER_FEATURE
100
AcDbCircle
 62
7
  6
CONTINUOUS
 10
14.7455209491
 20
13.1414681719
 40
0.5297824553
100
AcDbArc
 50
139.1909761436
 51
141.1913266279
  0
ARC
  5
38F
100
AcDbEntity
  8
LAYER_FEATURE
100
AcDbCircle
 62
7
  6
CONTINUOUS
 10
16.3937534057
 20
12.6361264801
 40
0.5194620939
100
AcDbArc
 50
2.6414110138
 51
4.6651520696
  0
ARC
  5
390
100
AcDbEntity
  8
LAYER_FEATURE
100
AcDbCircle
 62
7
  6
CONTINUOUS
 10
14.6998533583
 20
13.1734424298
 40
0.473961367
100
AcDbArc
 50
149.6473324316
 51
151.8011147948
  0
ARC
  5
391
100
AcDbEntity
  8
LAYER_FEATURE
100
AcDbCircle
 62
7
  6
CONTINUOUS
 10
16.4442897163
 20
12.6354037485
 40
0.4688539069
100
AcDbArc
 50
351.9025731202
 51
354.0701897025
  0
ARC
  5
392
100
AcDbEntity
  8
LAYER_FEATURE
100
AcDbCircle
 62
7
  6
CONTINUOUS
 10
14.6816411842
 20
13.1820041206
 40
0.453814831
100
AcDbArc
 50
160.7222411121
 51
162.8275526758
  0
ARC
  5
393
100
AcDbEntity
  8
LAYER_FEATURE
100
AcDbCircle
 62
7
  6
CONTINUOUS
 10
16.852943877
 20
12.6950985528
 40
0.0904326733
100
AcDbArc
 50
68.9075790762
 51
78.5054730323
  0
ARC
  5
394
100
AcDbEntity
  8
LAYER_FEATURE
100
AcDbCircle
 62
7
  6
CONTINUOUS
 10
14.4041039284
 20
13.467323217
 40
0.0902990533
100
AcDbArc
 50
66.4912503955
 51
76.0986327696
  0
ARC
  5
395
100
AcDbEntity
  8
LAYER_FEATURE
100
AcDbCircle
 62
7
  6
CONTINUOUS
 10
14.3402330308
 20
13.399753401
 40
0.0901082141
100
AcDbArc
 50
70.1639096528
 51
79.7848843255
  0
ARC
  5
396
100
AcDbEntity
  8
LAYER_FEATURE
100
AcDbCircle
 62
7
  6
CONTINUOUS
 10
16.8647650348
 20
12.6040905408
 40
0.0898354481
100
AcDbArc
 50
65.2049263107
 51
74.8454121031
  0
ARC
  5
397
100
AcDbEntity
  8
LAYER_FEATURE
100
AcDbCircle
 62
7
  6
CONTINUOUS
 10
14.292254639
 20
13.3282789084
 40
0.0868390335
100
AcDbArc
 50
75.6278194881
 51
83.6252417991
  0
ARC
  5
398
100
AcDbEntity
  8
LAYER_FEATURE
100
AcDbCircle
 62
7
  6
CONTINUOUS
 10
16.8616984773
 20
12.5197974311
 40
0.0852767885
100
AcDbArc
 50
61.30865978
 51
67.9277225812
  0
ARC
  5
399
100
AcDbEntity
  8
LAYER_FEATURE
100
AcDbCircle
 62
7
  6
CONTINUOUS
 10
16.9101782808
 20
12.771614931
 40
0.0837349284
100
AcDbArc
 50
249.7374908528
 51
254.8187127759
  0
ARC
  5
39A
100
AcDbEntity
  8
LAYER_FEATURE
100
AcDbCircle
 62
7
  6
CONTINUOUS
 10
14.3991741395
 20
13.5632192568
 40
0.0836590543
100
AcDbArc
 50
250.1810202989
 51
256.7864904793
  0
ARC
  5
39B
100
AcDbEntity
  8
LAYER_FEATURE
100
AcDbCircle
 62
7
  6
CONTINUOUS
 10
15.3601974447
 20
13.7441916472
 40
0.0172632707
100
AcDbArc
 50
150.9573167851
 51
162.7953253493
  0
ARC
  5
39C
100
AcDbEntity
  8
LAYER_FEATURE
100
AcDbCircle
 62
7
  6
CONTINUOUS
 10
16.2390712767
 20
13.4675154704
 40
0.0171980583
100
AcDbArc
 50
342.8467588245
 51
352.7285317916
  0
SPLINE
  5
39D
100
AcDbEntity
  8
02___PRT_ALL_AXES
100
AcDbSpline
 62
7
  6
CONTINUOUS
 70
0
 71
3
 72
21
 73
17
 74
0
 42
0.0000001
 43
0.0000001
 44
0.0000000001
 40
0.0
 40
0.0
 40
0.0
 40
0.0
 40
0.0384204845
 40
0.0848835055
 40
0.1471928717
 40
0.222910817
 40
0.3091669931
 40
0.4027150148
 40
0.500000001
 40
0.5972849871
 40
0.6908330087
 40
0.7770891846
 40
0.8528071289
 40
0.9151164948
 40
0.9615795157
 40
1.0
 40
1.0
 40
1.0
 40
1.0
 10
7.1008720839
 20
11.9060477814
 30
0.0
 10
7.1002087607
 20
11.9102137106
 30
0.0
 10
7.0987963732
 20
11.9194260903
 30
0.0
 10
7.0965531462
 20
11.9354312663
 30
0.0
 10
7.0940770338
 20
11.9555368009
 30
0.0
 10
7.091593295
 20
11.980038833
 30
0.0
 10
7.0894796468
 20
12.0080177801
 30
0.0
 10
7.0880623227
 20
12.0384124581
 30
0.0
 10
7.0875635484
 20
12.0700477817
 30
0.0
 10
7.0880623227
 20
12.1016831053
 30
0.0
 10
7.0894796468
 20
12.1320777832
 30
0.0
 10
7.0915932951
 20
12.1600567301
 30
0.0
 10
7.0940770339
 20
12.1845587622
 30
0.0
 10
7.0965531462
 20
12.2046642965
 30
0.0
 10
7.0987963733
 20
12.2206694725
 30
0.0
 10
7.1002087607
 20
12.2298818522
 30
0.0
 10
7.1008720839
 20
12.2340477814
 30
0.0
  0
SPLINE
  5
39E
100
AcDbEntity
  8
02___PRT_ALL_AXES
100
AcDbSpline
 62
7
  6
CONTINUOUS
 70
0
 71
3
 72
21
 73
17
 74
0
 42
0.0000001
 43
0.0000001
 44
0.0000000001
 40
0.0
 40
0.0
 40
0.0
 40
0.0
 40
0.0384204739
 40
0.0848835052
 40
0.147192892
 40
0.2229108262
 40
0.309166992
 40
0.4027150078
 40
0.5000000005
 40
0.5972849929
 40
0.6908330085
 40
0.7770891744
 40
0.8528071085
 40
0.9151164952
 40
0.9615795263
 40
1.0
 40
1.0
 40
1.0
 40
1.0
 10
15.1943552569
 20
6.4906247044
 30
0.0
 10
15.1901893287
 20
6.4899613825
 30
0.0
 10
15.1809769489
 20
6.4885489956
 30
0.0
 10
15.164971771
 20
6.4863057662
 30
0.0
 10
15.1448662343
 20
6.4838296535
 30
0.0
 10
15.1203642018
 20
6.4813459184
 30
0.0
 10
15.0923852578
 20
6.4792322695
 30
0.0
 10
15.0619905812
 20
6.4778149387
 30
0.0
 10
15.0303552568
 20
6.4773161612
 30
0.0
 10
14.9987199324
 20
6.4778149387
 30
0.0
 10
14.9683252558
 20
6.4792322695
 30
0.0
 10
14.9403463119
 20
6.4813459184
 30
0.0
 10
14.9158442794
 20
6.4838296535
 30
0.0
 10
14.8957387428
 20
6.4863057663
 30
0.0
 10
14.8797335649
 20
6.4885489956
 30
0.0
 10
14.8705211851
 20
6.4899613825
 30
0.0
 10
14.8663552569
 20
6.4906247044
 30
0.0
  0
SPLINE
  5
39F
100
AcDbEntity
  8
02___PRT_ALL_AXES
100
AcDbSpline
 62
7
  6
CONTINUOUS
 70
0
 71
3
 72
59
 73
55
 74
0
 42
0.0000001
 43
0.0000001
 44
0.0000000001
 40
0.0
 40
0.0
 40
0.0
 40
0.0
 40
0.013713814
 40
0.0279126165
 40
0.0425786529
 40
0.057695511
 40
0.0732454245
 40
0.0892087564
 40
0.1055649725
 40
0.1222928311
 40
0.1393702044
 40
0.1567743955
 40
0.1924685493
 40
0.2291853175
 40
0.2667293224
 40
0.3049031459
 40
0.3435092685
 40
0.3823516283
 40
0.4212368794
 40
0.4599756877
 40
0.498383884
 40
0.5362836222
 40
0.5735048021
 40
0.6098865908
 40
0.6277165725
 40
0.6452815895
 40
0.6625649474
 40
0.6795509614
 40
0.6962249013
 40
0.7125731853
 40
0.7285833377
 40
0.7442441868
 40
0.7595458543
 40
0.7744798539
 40
0.7890392372
 40
0.8032185816
 40
0.8170142274
 40
0.8304242027
 40
0.8434485407
 40
0.8560892198
 40
0.8683504449
 40
0.8802387004
 40
0.8917629449
 40
0.9029348115
 40
0.9137687038
 40
0.9242820707
 40
0.9344954277
 40
0.9444326335
 40
0.9541208183
 40
0.9635904769
 40
0.9728752932
 40
0.9820119431
 40
0.9910397222
 40
1.0
 40
1.0
 40
1.0
 40
1.0
 10
16.1761655378
 20
11.7977874013
 30
0.0
 10
16.1755089235
 20
11.7991254405
 30
0.0
 10
16.1742057339
 20
11.8018652693
 30
0.0
 10
16.1723118047
 20
11.8060879295
 30
0.0
 10
16.1704473311
 20
11.8104897704
 30
0.0
 10
16.1686156028
 20
11.8150638727
 30
0.0
 10
16.1668198943
 20
11.8198033017
 30
0.0
 10
16.1650636231
 20
11.824700809
 30
0.0
 10
16.1633502821
 20
11.829748874
 30
0.0
 10
16.1616834228
 20
11.8349397787
 30
0.0
 10
16.1600666247
 20
11.8402656411
 30
0.0
 10
16.1579648938
 20
11.8475975562
 30
0.0
 10
16.155491087
 20
11.8570419772
 30
0.0
 10
16.1528046454
 20
11.8686880974
 30
0.0
 10
16.1504052291
 20
11.8806717818
 30
0.0
 10
16.1483216112
 20
11.8929227728
 30
0.0
 10
16.1465816137
 20
11.9053698688
 30
0.0
 10
16.1452116677
 20
11.9179410201
 30
0.0
 10
16.1442363499
 20
11.9305635592
 30
0.0
 10
16.1436778907
 20
11.9431643746
 30
0.0
 10
16.1435556522
 20
11.9556700868
 30
0.0
 10
16.1438855948
 20
11.9680073722
 30
0.0
 10
16.1446797375
 20
11.9801029821
 30
0.0
 10
16.1457416664
 20
11.9899867539
 30
0.0
 10
16.1468354021
 20
11.9977112421
 30
0.0
 10
16.1477690017
 20
12.0033604396
 30
0.0
 10
16.1488209056
 20
12.0088954782
 30
0.0
 10
16.1499901688
 20
12.0143079218
 30
0.0
 10
16.151275686
 20
12.0195894381
 30
0.0
 10
16.1526757785
 20
12.0247319453
 30
0.0
 10
16.1541886165
 20
12.0297275323
 30
0.0
 10
16.155811857
 20
12.0345685679
 30
0.0
 10
16.1575429077
 20
12.0392476525
 30
0.0
 10
16.1593788148
 20
12.0437576657
 30
0.0
 10
16.1613162449
 20
12.0480917989
 30
0.0
 10
16.1633516707
 20
12.0522434994
 30
0.0
 10
16.165481091
 20
12.0562066053
 30
0.0
 10
16.1677004256
 20
12.0599751819
 30
0.0
 10
16.1700051213
 20
12.063543732
 30
0.0
 10
16.1723905649
 20
12.0669069903
 30
0.0
 10
16.1748517735
 20
12.070060113
 30
0.0
 10
16.1773836482
 20
12.0729985339
 30
0.0
 10
16.179980871
 20
12.075718037
 30
0.0
 10
16.1826379365
 20
12.0782147574
 30
0.0
 10
16.1853492564
 20
12.0804850807
 30
0.0
 10
16.1881090089
 20
12.0825258146
 30
0.0
 10
16.1909113674
 20
12.0843339286
 30
0.0
 10
16.1937502782
 20
12.0859068512
 30
0.0
 10
16.1966196853
 20
12.0872421455
 30
0.0
 10
16.1995133566
 20
12.0883378168
 30
0.0
 10
16.2024249949
 20
12.0891920613
 30
0.0
 10
16.2053482773
 20
12.0898034695
 30
0.0
 10
16.2082764734
 20
12.0901709536
 30
0.0
 10
16.2102324404
 20
12.0902530091
 30
0.0
 10
16.2112062757
 20
12.0902530061
 30
0.0
  0
SPLINE
  5
3A0
100
AcDbEntity
  8
02___PRT_ALL_AXES
100
AcDbSpline
 62
7
  6
CONTINUOUS
 70
0
 71
3
 72
30
 73
26
 74
0
 42
0.0000001
 43
0.0000001
 44
0.0000000001
 40
0.0
 40
0.0
 40
0.0
 40
0.0
 40
0.074342376
 40
0.1471201628
 40
0.2182289835
 40
0.2875931699
 40
0.3551618219
 40
0.4209157469
 40
0.4848687796
 40
0.516188381
 40
0.5470795545
 40
0.6076177381
 40
0.6666183851
 40
0.6955977747
 40
0.7242578001
 40
0.7526247965
 40
0.7807272852
 40
0.8085957527
 40
0.8362624416
 40
0.8637612554
 40
0.8911273695
 40
0.9183970582
 40
0.9456073629
 40
0.972795782
 40
1.0
 40
1.0
 40
1.0
 40
1.0
 10
14.9132795913
 20
12.4380456686
 30
0.0
 10
14.9102409139
 20
12.4380456686
 30
0.0
 10
14.9042265059
 20
12.4381804051
 30
0.0
 10
14.8953248516
 20
12.4388003612
 30
0.0
 10
14.8866662267
 20
12.4398347752
 30
0.0
 10
14.8782825568
 20
12.4412811833
 30
0.0
 10
14.8702037373
 20
12.4431363236
 30
0.0
 10
14.8624584597
 20
12.4453958341
 30
0.0
 10
14.8562611628
 20
12.4476270181
 30
0.0
 10
14.8515008582
 20
12.4496123053
 30
0.0
 10
14.8469373643
 20
12.451699305
 30
0.0
 10
14.8414809671
 20
12.4545456514
 30
0.0
 10
14.8363151746
 20
12.4577461192
 30
0.0
 10
14.8324160951
 20
12.4604914736
 30
0.0
 10
14.8296240131
 20
12.4626291177
 30
0.0
 10
14.8269492373
 20
12.4648562185
 30
0.0
 10
14.8243937944
 20
12.4671714361
 30
0.0
 10
14.8219596631
 20
12.4695733361
 30
0.0
 10
14.8196487418
 20
12.4720604619
 30
0.0
 10
14.8174627494
 20
12.4746312098
 30
0.0
 10
14.8154034111
 20
12.4772840037
 30
0.0
 10
14.8134722165
 20
12.4800170739
 30
0.0
 10
14.8116706759
 20
12.482828705
 30
0.0
 10
14.8100001205
 20
12.4857169139
 30
0.0
 10
14.8089752546
 20
12.487690874
 30
0.0
 10
14.8084853976
 20
12.4886891065
 30
0.0
  0
SPLINE
  5
3A1
100
AcDbEntity
  8
LAYER_CUT_FEAT
100
AcDbSpline
 62
7
  6
CONTINUOUS
 70
0
 71
3
 72
22
 73
18
 74
0
 42
0.0000001
 43
0.0000001
 44
0.0000000001
 40
0.0
 40
0.0
 40
0.0
 40
0.0
 40
0.1381197631
 40
0.2053664309
 40
0.2714549167
 40
0.336437138
 40
0.400372579
 40
0.4633278437
 40
0.5253764097
 40
0.5865986125
 40
0.6470813093
 40
0.7069174431
 40
0.7662055021
 40
0.8250488573
 40
0.8835549588
 40
0.9418344159
 40
1.0
 40
1.0
 40
1.0
 40
1.0
 10
14.2366230633
 20
12.1710426737
 30
0.0
 10
14.2292044823
 20
12.1861601522
 30
0.0
 10
14.2189822594
 20
12.2090525942
 30
0.0
 10
14.2073234958
 20
12.2400340719
 30
0.0
 10
14.199742393
 20
12.2630017159
 30
0.0
 10
14.1932553378
 20
12.2858824544
 30
0.0
 10
14.1878684548
 20
12.3086550674
 30
0.0
 10
14.1835871996
 20
12.331297608
 30
0.0
 10
14.1804159284
 20
12.353788442
 30
0.0
 10
14.1783579528
 20
12.3761059612
 30
0.0
 10
14.1774154815
 20
12.3982286918
 30
0.0
 10
14.1775896649
 20
12.4201352854
 30
0.0
 10
14.1788805872
 20
12.4418045644
 30
0.0
 10
14.1812871778
 20
12.4632154566
 30
0.0
 10
14.1848073119
 20
12.4843473683
 30
0.0
 10
14.1894374423
 20
12.5051789551
 30
0.0
 10
14.1932631226
 20
12.5188593191
 30
0.0
 10
14.1953568864
 20
12.5256347658
 30
0.0
  0
SPLINE
  5
3A2
100
AcDbEntity
  8
LAYER_CHAMFER_FEAT
100
AcDbSpline
 62
7
  6
CONTINUOUS
 70
0
 71
3
 72
23
 73
19
 74
0
 42
0.0000001
 43
0.0000001
 44
0.0000000001
 40
0.0
 40
0.0
 40
0.0
 40
0.0
 40
0.0739140794
 40
0.1460357174
 40
0.2163696214
 40
0.2849351758
 40
0.3517673206
 40
0.4169173198
 40
0.4804539656
 40
0.5424641862
 40
0.6030533674
 40
0.6623457903
 40
0.7204842453
 40
0.777629088
 40
0.8339569955
 40
0.8896587583
 40
0.9449364232
 40
1.0
 40
1.0
 40
1.0
 40
1.0
 10
15.0448178724
 20
11.8552925983
 30
0.0
 10
15.0421457129
 20
11.8544691379
 30
0.0
 10
15.0368985962
 20
11.8527343794
 30
0.0
 10
15.0292430794
 20
11.8498303648
 30
0.0
 10
15.021912906
 20
11.8466614478
 30
0.0
 10
15.0149221653
 20
11.8432336033
 30
0.0
 10
15.0082840977
 20
11.8395532094
 30
0.0
 10
15.0020113949
 20
11.8356270569
 30
0.0
 10
14.9961160455
 20
11.8314624456
 30
0.0
 10
14.9906093579
 20
11.827067129
 30
0.0
 10
14.9855020078
 20
11.8224492391
 30
0.0
 10
14.980803927
 20
11.817617413
 30
0.0
 10
14.9765243129
 20
11.8125807424
 30
0.0
 10
14.972671682
 20
11.8073487041
 30
0.0
 10
14.9692537259
 20
11.8019313298
 30
0.0
 10
14.966277248
 20
11.7963389426
 30
0.0
 10
14.9637484507
 20
11.7905828399
 30
0.0
 10
14.9623631645
 20
11.7866401436
 30
0.0
 10
14.9617481521
 20
11.7846499537
 30
0.0
  0
SPLINE
  5
3A3
100
AcDbEntity
  8
LAYER_CHAMFER_FEAT
100
AcDbSpline
 62
7
  6
CONTINUOUS
 70
0
 71
3
 72
23
 73
19
 74
0
 42
0.0000001
 43
0.0000001
 44
0.0000000001
 40
0.0
 40
0.0
 40
0.0
 40
0.0
 40
0.0738673067
 40
0.1459471554
 40
0.2162450186
 40
0.2847807513
 40
0.3515898209
 40
0.4167239154
 40
0.4802519397
 40
0.5422609257
 40
0.6028561991
 40
0.6621616597
 40
0.7203196383
 40
0.7774898332
 40
0.8338479862
 40
0.8895838526
 40
0.9448982943
 40
1.0
 40
1.0
 40
1.0
 40
1.0
 10
15.4110244581
 20
11.7418426108
 30
0.0
 10
15.4127526199
 20
11.73966174
 30
0.0
 10
15.4160798847
 20
11.735282647
 30
0.0
 10
15.4207246112
 20
11.7285875425
 30
0.0
 10
15.4249538157
 20
11.721858162
 30
0.0
 10
15.4287593163
 20
11.7151072263
 30
0.0
 10
15.4321339096
 20
11.7083473522
 30
0.0
 10
15.4350710778
 20
11.7015911838
 30
0.0
 10
15.4375650856
 20
11.6948513565
 30
0.0
 10
15.4396110716
 20
11.6881405282
 30
0.0
 10
15.4412049088
 20
11.6814713066
 30
0.0
 10
15.4423432773
 20
11.674856278
 30
0.0
 10
15.4430237842
 20
11.6683080107
 30
0.0
 10
15.4432448097
 20
11.6618389975
 30
0.0
 10
15.4430056334
 20
11.6554617223
 30
0.0
 10
15.4423064978
 20
11.6491884163
 30
0.0
 10
15.4411486849
 20
11.6430317571
 30
0.0
 10
15.4400713883
 20
11.6390094223
 30
0.0
 10
15.4394585521
 20
11.6370262749
 30
0.0
  0
SPLINE
  5
3A4
100
AcDbEntity
  8
LAYER_FEATURE
100
AcDbSpline
 62
7
  6
CONTINUOUS
 70
0
 71
3
 72
39
 73
35
 74
0
 42
0.0000001
 43
0.0000001
 44
0.0000000001
 40
0.0
 40
0.0
 40
0.0
 40
0.0
 40
0.0202790193
 40
0.0417769263
 40
0.0645047688
 40
0.08845739
 40
0.1136159928
 40
0.13995012
 40
0.1674191618
 40
0.1959737213
 40
0.2255568274
 40
0.2561048511
 40
0.2875482223
 40
0.3198122288
 40
0.3528177074
 40
0.3864815897
 40
0.4207173968
 40
0.4554358371
 40
0.4905452996
 40
0.5259522891
 40
0.5615618912
 40
0.5972782689
 40
0.6330050878
 40
0.6686459479
 40
0.7041048655
 40
0.739286707
 40
0.7740976201
 40
0.8084455345
 40
0.842240589
 40
0.8753957794
 40
0.9078272017
 40
0.9394541264
 40
0.970203295
 40
1.0
 40
1.0
 40
1.0
 40
1.0
 10
16.2374656315
 20
12.0451498792
 30
0.0
 10
16.2383626099
 20
12.0440752512
 30
0.0
 10
16.2401285902
 20
12.0417921565
 30
0.0
 10
16.242623122
 20
12.0381010085
 30
0.0
 10
16.2450324525
 20
12.0340556959
 30
0.0
 10
16.2473490089
 20
12.0296690907
 30
0.0
 10
16.2495656727
 20
12.0249548279
 30
0.0
 10
16.2516754801
 20
12.019927702
 30
0.0
 10
16.2536717984
 20
12.0146035175
 30
0.0
 10
16.255548327
 20
12.0089990655
 30
0.0
 10
16.2572991148
 20
12.0031320425
 30
0.0
 10
16.2589185856
 20
11.9970209983
 30
0.0
 10
16.260401595
 20
11.9906852856
 30
0.0
 10
16.2617434271
 20
11.9841449866
 30
0.0
 10
16.2629398021
 20
11.9774208395
 30
0.0
 10
16.2639868929
 20
11.9705341761
 30
0.0
 10
16.2648813719
 20
11.9635068586
 30
0.0
 10
16.2656203897
 20
11.9563612008
 30
0.0
 10
16.2662015825
 20
11.9491198942
 30
0.0
 10
16.2666230867
 20
11.9418059393
 30
0.0
 10
16.2668835703
 20
11.934442572
 30
0.0
 10
16.266982204
 20
11.9270531856
 30
0.0
 10
16.2669186641
 20
11.9196612569
 30
0.0
 10
16.2666931496
 20
11.9122902714
 30
0.0
 10
16.266306392
 20
11.9049636465
 30
0.0
 10
16.2657596259
 20
11.8977046571
 30
0.0
 10
16.2650545846
 20
11.8905363621
 30
0.0
 10
16.2641935182
 20
11.8834815305
 30
0.0
 10
16.263179187
 20
11.8765625567
 30
0.0
 10
16.2620148201
 20
11.8698014
 30
0.0
 10
16.2607041197
 20
11.8632195659
 30
0.0
 10
16.259251274
 20
11.856837776
 30
0.0
 10
16.2576609032
 20
11.8506765106
 30
0.0
 10
16.2564931589
 20
11.8466628523
 30
0.0
 10
16.2558859077
 20
11.8446977866
 30
0.0
  0
SPLINE
  5
3A5
100
AcDbEntity
  8
LAYER_FEATURE
100
AcDbSpline
 62
7
  6
CONTINUOUS
 70
0
 71
3
 72
15
 73
11
 74
0
 42
0.0000001
 43
0.0000001
 44
0.0000000001
 40
0.0
 40
0.0
 40
0.0
 40
0.0
 40
0.1030416377
 40
0.2124415657
 40
0.3282548618
 40
0.4504493942
 40
0.578918699
 40
0.7134885551
 40
0.8539457104
 40
1.0
 40
1.0
 40
1.0
 40
1.0
 10
16.2374656333
 20
11.8073561397
 30
0.0
 10
16.238387618
 20
11.8084607189
 30
0.0
 10
16.2402018898
 20
11.8108112676
 30
0.0
 10
16.2427602164
 20
11.8146176212
 30
0.0
 10
16.245228237
 20
11.8187967471
 30
0.0
 10
16.2475977608
 20
11.8233346578
 30
0.0
 10
16.2498610703
 20
11.8282164511
 30
0.0
 10
16.2520107877
 20
11.8334260638
 30
0.0
 10
16.2540396197
 20
11.8389460409
 30
0.0
 10
16.25528378
 20
11.8427493006
 30
0.0
 10
16.2558859077
 20
11.8446977866
 30
0.0
  0
SPLINE
  5
3A6
100
AcDbEntity
  8
02___PRT_ALL_AXES
100
AcDbSpline
 62
7
  6
CONTINUOUS
 70
0
 71
3
 72
26
 73
22
 74
0
 42
0.0000001
 43
0.0000001
 44
0.0000000001
 40
0.0
 40
0.0
 40
0.0
 40
0.0
 40
0.02094117
 40
0.0420182546
 40
0.0633168374
 40
0.0849192779
 40
0.1069040478
 40
0.1293452201
 40
0.1758494302
 40
0.2249338027
 40
0.2769923192
 40
0.3323363285
 40
0.3912018013
 40
0.4537615866
 40
0.5201334454
 40
0.5903891412
 40
0.664562137
 40
0.7426496129
 40
0.8246243745
 40
0.9104381921
 40
1.0
 40
1.0
 40
1.0
 40
1.0
 10
16.2112062756
 20
11.7622530228
 30
0.0
 10
16.2108422659
 20
11.7622530245
 30
0.0
 10
16.2101116603
 20
11.7622771651
 30
0.0
 10
16.2090156537
 20
11.762385408
 30
0.0
 10
16.2079175001
 20
11.7625657253
 30
0.0
 10
16.2068174689
 20
11.762817984
 30
0.0
 10
16.2057157063
 20
11.7631420559
 30
0.0
 10
16.2042272096
 20
11.7636759517
 30
0.0
 10
16.2023575878
 20
11.764531165
 30
0.0
 10
16.2001393822
 20
11.7658293344
 30
0.0
 10
16.1979207453
 20
11.7674086556
 30
0.0
 10
16.195703141
 20
11.7692661319
 30
0.0
 10
16.1934878862
 20
11.7713985621
 30
0.0
 10
16.1912767553
 20
11.7738024358
 30
0.0
 10
16.1890717618
 20
11.7764737938
 30
0.0
 10
16.186875224
 20
11.7794082128
 30
0.0
 10
16.184689774
 20
11.7826007514
 30
0.0
 10
16.1825182215
 20
11.7860459401
 30
0.0
 10
16.1803636215
 20
11.7897379213
 30
0.0
 10
16.1782293788
 20
11.7936700766
 30
0.0
 10
16.176851378
 20
11.7963898059
 30
0.0
 10
16.1761655378
 20
11.7977874013
 30
0.0
  0
SPLINE
  5
3A7
100
AcDbEntity
  8
LAYER_FEATURE
100
AcDbSpline
 62
7
  6
CONTINUOUS
 70
0
 71
3
 72
40
 73
36
 74
0
 42
0.0000001
 43
0.0000001
 44
0.0000000001
 40
0.0
 40
0.0
 40
0.0
 40
0.0
 40
0.0259499588
 40
0.0519425839
 40
0.0780201953
 40
0.1042244316
 40
0.1305959283
 40
0.1571740184
 40
0.1839964743
 40
0.2110992772
 40
0.2385164116
 40
0.2662797168
 40
0.2944187739
 40
0.3229608109
 40
0.3519306454
 40
0.3813506766
 40
0.3962365149
 40
0.4112421842
 40
0.4416201351
 40
0.4725010354
 40
0.5038977947
 40
0.5358210755
 40
0.5682793622
 40
0.6012790602
 40
0.6348245735
 40
0.6689183687
 40
0.7035610797
 40
0.7387515989
 40
0.7744871437
 40
0.810763337
 40
0.8475743062
 40
0.8849127541
 40
0.9227700149
 40
0.9611361455
 40
1.0
 40
1.0
 40
1.0
 40
1.0
 10
13.8380294878
 20
12.6360572837
 30
0.0
 10
13.8355137107
 20
12.6279162139
 30
0.0
 10
13.8308808719
 20
12.6114930504
 30
0.0
 10
13.8251507959
 20
12.5865132421
 30
0.0
 10
13.820641673
 20
12.5611990743
 30
0.0
 10
13.8173573491
 20
12.535571961
 30
0.0
 10
13.8153003125
 20
12.5096525564
 30
0.0
 10
13.81447206
 20
12.4834619932
 30
0.0
 10
13.81487308
 20
12.4570215075
 30
0.0
 10
13.8165028842
 20
12.4303525193
 30
0.0
 10
13.8193599194
 20
12.4034765858
 30
0.0
 10
13.8234416534
 20
12.3764153817
 30
0.0
 10
13.8287446013
 20
12.3491907146
 30
0.0
 10
13.8352643153
 20
12.3218244137
 30
0.0
 10
13.8429952502
 20
12.2943386697
 30
0.0
 10
13.8504125017
 20
12.2714429184
 30
0.0
 10
13.8569370158
 20
12.2530917855
 30
0.0
 10
13.8639134478
 20
12.2345710908
 30
0.0
 10
13.8733873622
 20
12.2113836986
 30
0.0
 10
13.8858900393
 20
12.1836403685
 30
0.0
 10
13.8995627005
 20
12.1558878544
 30
0.0
 10
13.9143941781
 20
12.1281486059
 30
0.0
 10
13.9303724933
 20
12.1004447228
 30
0.0
 10
13.9474847557
 20
12.072798379
 30
0.0
 10
13.9657172046
 20
12.0452316924
 30
0.0
 10
13.9850551456
 20
12.0177667029
 30
0.0
 10
14.0054830211
 20
11.9904253781
 30
0.0
 10
14.0269844313
 20
11.9632296084
 30
0.0
 10
14.0495421053
 20
11.9362011634
 30
0.0
 10
14.0731379093
 20
11.9093616698
 30
0.0
 10
14.0977529084
 20
11.8827326209
 30
0.0
 10
14.123367349
 20
11.856335372
 30
0.0
 10
14.1499607029
 20
11.830191018
 30
0.0
 10
14.1775114443
 20
11.8043206546
 30
0.0
 10
14.1963829695
 20
11.7873772544
 30
0.0
 10
14.2059703357
 20
11.7789550262
 30
0.0
  0
SPLINE
  5
3A8
100
AcDbEntity
  8
LAYER_FEATURE
100
AcDbSpline
 62
7
  6
CONTINUOUS
 70
0
 71
3
 72
23
 73
19
 74
0
 42
0.0000001
 43
0.0000001
 44
0.0000000001
 40
0.0
 40
0.0
 40
0.0
 40
0.0
 40
0.0592042249
 40
0.1184926116
 40
0.1779487315
 40
0.2376549942
 40
0.2976920797
 40
0.3581384369
 40
0.4190698228
 40
0.4805588513
 40
0.5426746635
 40
0.6054826351
 40
0.6690440869
 40
0.7334161469
 40
0.7986516265
 40
0.8647988817
 40
0.9319018391
 40
1.0
 40
1.0
 40
1.0
 40
1.0
 10
14.0752544847
 20
13.4037176551
 30
0.0
 10
14.0729155725
 20
13.3961489212
 30
0.0
 10
14.0685826017
 20
13.3808905683
 30
0.0
 10
14.0631362603
 20
13.3577030363
 30
0.0
 10
14.0587445294
 20
13.3342240452
 30
0.0
 10
14.0554106859
 20
13.3104707292
 30
0.0
 10
14.0531368905
 20
13.2864596174
 30
0.0
 10
14.0519246376
 20
13.262207607
 30
0.0
 10
14.0517747044
 20
13.2377316835
 30
0.0
 10
14.0526870189
 20
13.2130489823
 30
0.0
 10
14.0546607954
 20
13.1881767461
 30
0.0
 10
14.057694559
 20
13.1631323311
 30
0.0
 10
14.0617860006
 20
13.137933179
 30
0.0
 10
14.0669321258
 20
13.1125968065
 30
0.0
 10
14.0731292475
 20
13.0871408497
 30
0.0
 10
14.0803729179
 20
13.0615828616
 30
0.0
 10
14.0886578295
 20
13.0359409384
 30
0.0
 10
14.0948252996
 20
13.0189294074
 30
0.0
 10
14.0980761474
 20
13.0104170897
 30
0.0
  0
SPLINE
  5
3A9
100
AcDbEntity
  8
LAYER_FEATURE
100
AcDbSpline
 62
7
  6
CONTINUOUS
 70
0
 71
3
 72
39
 73
35
 74
0
 42
0.0000001
 43
0.0000001
 44
0.0000000001
 40
0.0
 40
0.0
 40
0.0
 40
0.0
 40
0.0259506936
 40
0.0519440455
 40
0.078022368
 40
0.1042272928
 40
0.1305994464
 40
0.157178156
 40
0.1840011897
 40
0.2111045215
 40
0.2385221299
 40
0.2662858527
 40
0.2944252693
 40
0.3229676002
 40
0.3519376638
 40
0.3813578616
 40
0.4112481702
 40
0.4416261537
 40
0.4725070241
 40
0.5039036938
 40
0.5358268211
 40
0.5682848962
 40
0.6012843317
 40
0.6348295303
 40
0.6689229609
 40
0.7035652663
 40
0.7387553442
 40
0.7744904104
 40
0.8107660963
 40
0.8475765385
 40
0.8849144403
 40
0.9227711395
 40
0.9611367058
 40
1.0
 40
1.0
 40
1.0
 40
1.0
 10
16.8476051464
 20
11.7060280638
 30
0.0
 10
16.8450896402
 20
11.6978878708
 30
0.0
 10
16.8396499232
 20
11.6817159784
 30
0.0
 10
16.8302893384
 20
11.6578609615
 30
0.0
 10
16.8197322746
 20
11.6344186136
 30
0.0
 10
16.8079876328
 20
11.6114087825
 30
0.0
 10
16.7950650318
 20
11.5888499067
 30
0.0
 10
16.7809751433
 20
11.5667602778
 30
0.0
 10
16.7657295276
 20
11.5451577084
 30
0.0
 10
16.7493406807
 20
11.5240595961
 30
0.0
 10
16.7318220472
 20
11.5034828517
 30
0.0
 10
16.7131879322
 20
11.4834439486
 30
0.0
 10
16.6934534917
 20
11.4639589191
 30
0.0
 10
16.6726347768
 20
11.4450432918
 30
0.0
 10
16.6507486782
 20
11.4267121184
 30
0.0
 10
16.6278128899
 20
11.4089799952
 30
0.0
 10
16.6038459264
 20
11.3918610304
 30
0.0
 10
16.578867132
 20
11.3753688017
 30
0.0
 10
16.5528966182
 20
11.3595164103
 30
0.0
 10
16.5259552593
 20
11.3443164725
 30
0.0
 10
16.4980647177
 20
11.329781048
 30
0.0
 10
16.4692473991
 20
11.3159216748
 30
0.0
 10
16.4395264247
 20
11.3027493858
 30
0.0
 10
16.4089256374
 20
11.2902746668
 30
0.0
 10
16.377469594
 20
11.2785074193
 30
0.0
 10
16.3451835186
 20
11.2674570128
 30
0.0
 10
16.3120932911
 20
11.2571322725
 30
0.0
 10
16.2782254495
 20
11.247541408
 30
0.0
 10
16.2436071531
 20
11.2386920547
 30
0.0
 10
16.2082661478
 20
11.2305912862
 30
0.0
 10
16.172230785
 20
11.2232455756
 30
0.0
 10
16.1355299042
 20
11.2166607569
 30
0.0
 10
16.0981931649
 20
11.2108421134
 30
0.0
 10
16.0730567994
 20
11.2074980561
 30
0.0
 10
16.0603913588
 20
11.2059523712
 30
0.0
  0
SPLINE
  5
3AA
100
AcDbEntity
  8
LAYER_FEATURE
100
AcDbSpline
 62
7
  6
CONTINUOUS
 70
0
 71
3
 72
23
 73
19
 74
0
 42
0.0000001
 43
0.0000001
 44
0.0000000001
 40
0.0
 40
0.0
 40
0.0
 40
0.0
 40
0.0592047605
 40
0.1184936674
 40
0.1779502793
 40
0.2376569899
 40
0.2976944637
 40
0.3581411425
 40
0.4190727666
 40
0.4805619372
 40
0.5426777941
 40
0.6054856972
 40
0.669046958
 40
0.7334187101
 40
0.7986537493
 40
0.8648004275
 40
0.9319026822
 40
1.0
 40
1.0
 40
1.0
 40
1.0
 10
17.0848301433
 20
12.4736884352
 30
0.0
 10
17.0824914487
 20
12.4661204056
 30
0.0
 10
17.0774611671
 20
12.4510790854
 30
0.0
 10
17.0688772092
 20
12.4288634628
 30
0.0
 10
17.0592582406
 20
12.4070021144
 30
0.0
 10
17.0486112463
 20
12.3855110228
 30
0.0
 10
17.0369437732
 20
12.3644050439
 30
0.0
 10
17.0242640902
 20
12.3436989839
 30
0.0
 10
17.0105811548
 20
12.3234072912
 30
0.0
 10
16.9959046969
 20
12.3035440631
 30
0.0
 10
16.9802450649
 20
12.2841231081
 30
0.0
 10
16.9636132842
 20
12.2651579068
 30
0.0
 10
16.9460211008
 20
12.246661549
 30
0.0
 10
16.9274808441
 20
12.228646826
 30
0.0
 10
16.9080055223
 20
12.2111261981
 30
0.0
 10
16.8876087072
 20
12.1941116423
 30
0.0
 10
16.8663049659
 20
12.1776151279
 30
0.0
 10
16.8516175347
 20
12.1670493868
 30
0.0
 10
16.8441321638
 20
12.161855373
 30
0.0
  0
SPLINE
  5
3AB
100
AcDbEntity
  8
LAYER_CUT_FEAT
100
AcDbSpline
 62
7
  6
CONTINUOUS
 70
0
 71
3
 72
29
 73
25
 74
0
 42
0.0000001
 43
0.0000001
 44
0.0000000001
 40
0.0
 40
0.0
 40
0.0
 40
0.0
 40
0.0287420674
 40
0.0575009
 40
0.0862932113
 40
0.1151356255
 40
0.1440446139
 40
0.1730364679
 40
0.2021272418
 40
0.2313327096
 40
0.2901434297
 40
0.349593926
 40
0.4097968495
 40
0.4708573331
 40
0.5328723358
 40
0.5642681282
 40
0.5959349009
 40
0.6601149616
 40
0.7254875601
 40
0.7586425838
 40
0.7921179708
 40
0.8600505184
 40
0.9293328162
 40
1.0
 40
1.0
 40
1.0
 40
1.0
 10
16.4902777477
 20
11.8164505816
 30
0.0
 10
16.4891359778
 20
11.8127557996
 30
0.0
 10
16.4867426738
 20
11.8053972872
 30
0.0
 10
16.4828274084
 20
11.7944651115
 30
0.0
 10
16.4785874915
 20
11.7836400976
 30
0.0
 10
16.4740241112
 20
11.7729254979
 30
0.0
 10
16.4691386378
 20
11.7623243024
 30
0.0
 10
16.4639324407
 20
11.7518395988
 30
0.0
 10
16.4584069607
 20
11.7414742798
 30
0.0
 10
16.4505988085
 20
11.7277865184
 30
0.0
 10
16.4400340472
 20
11.7109782175
 30
0.0
 10
16.4261360879
 20
11.6913826334
 30
0.0
 10
16.4110039614
 20
11.6723354267
 30
0.0
 10
16.3946558575
 20
11.6538589588
 30
0.0
 10
16.3800944105
 20
11.6390155329
 30
0.0
 10
16.367869533
 20
11.6274478426
 30
0.0
 10
16.3551486791
 20
11.6159877793
 30
0.0
 10
16.3385102022
 20
11.6020569887
 30
0.0
 10
16.3210845093
 20
11.5887923838
 30
0.0
 10
16.3066003486
 20
11.5785115812
 30
0.0
 10
16.2916090248
 20
11.5683576955
 30
0.0
 10
16.2721803645
 20
11.5560976349
 30
0.0
 10
16.2479230257
 20
11.5421584169
 30
0.0
 10
16.2312317455
 20
11.5334304007
 30
0.0
 10
16.2227242319
 20
11.5291846754
 30
0.0
  0
SPLINE
  5
3AC
100
AcDbEntity
  8
02___PRT_ALL_AXES
100
AcDbSpline
 62
7
  6
CONTINUOUS
 70
0
 71
3
 72
48
 73
44
 74
0
 42
0.0000001
 43
0.0000001
 44
0.0000000001
 40
0.0
 40
0.0
 40
0.0
 40
0.0
 40
0.013391864
 40
0.0267696905
 40
0.0401412644
 40
0.0535145242
 40
0.0668975543
 40
0.0802985343
 40
0.0937257182
 40
0.1071873769
 40
0.1206917825
 40
0.1342471488
 40
0.1478615909
 40
0.1615430585
 40
0.1752993145
 40
0.1891378705
 40
0.217084494
 40
0.2454423273
 40
0.2742577119
 40
0.3035687688
 40
0.3184220264
 40
0.333409204
 40
0.3637883937
 40
0.3947197191
 40
0.4103942311
 40
0.4262051411
 40
0.4582243229
 40
0.4907583937
 40
0.5237746146
 40
0.5572307675
 40
0.591075714
 40
0.6252499426
 40
0.659686301
 40
0.6943106412
 40
0.7290427171
 40
0.7637970519
 40
0.7984840388
 40
0.8330111771
 40
0.8672844351
 40
0.9012099155
 40
0.93469553
 40
0.9676530377
 40
1.0
 40
1.0
 40
1.0
 40
1.0
 10
15.1029413715
 20
12.6331871107
 30
0.0
 10
15.1035708639
 20
12.6319043299
 30
0.0
 10
15.1047732984
 20
12.6293122418
 30
0.0
 10
15.1064038769
 20
12.6253502776
 30
0.0
 10
15.1078579176
 20
12.6213221925
 30
0.0
 10
15.1091332232
 20
12.6172334411
 30
0.0
 10
15.1102278384
 20
12.6130894025
 30
0.0
 10
15.1111400415
 20
12.6088955432
 30
0.0
 10
15.1118682938
 20
12.6046573502
 30
0.0
 10
15.1124113361
 20
12.6003803513
 30
0.0
 10
15.1127680875
 20
12.5960700849
 30
0.0
 10
15.1129377767
 20
12.5917321072
 30
0.0
 10
15.11291981
 20
12.5873719644
 30
0.0
 10
15.1127139343
 20
12.5829952229
 30
0.0
 10
15.1123200444
 20
12.5786073197
 30
0.0
 10
15.1115421687
 20
12.5727308646
 30
0.0
 10
15.1100955688
 20
12.5653783145
 30
0.0
 10
15.1076228298
 20
12.5566292871
 30
0.0
 10
15.10441938
 20
12.5479655851
 30
0.0
 10
15.1011682796
 20
12.5408812319
 30
0.0
 10
15.0982256883
 20
12.5352964216
 30
0.0
 10
15.0950278808
 20
12.5297218345
 30
0.0
 10
15.0906050401
 20
12.5228788493
 30
0.0
 10
15.0856880134
 20
12.5162909807
 30
0.0
 10
15.081451668
 20
12.5111509566
 30
0.0
 10
15.076978788
 20
12.506059787
 30
0.0
 10
15.0710223783
 20
12.4998834603
 30
0.0
 10
15.0633624996
 20
12.4928247953
 30
0.0
 10
15.0551984943
 20
12.4861120319
 30
0.0
 10
15.0465711463
 20
12.4797678685
 30
0.0
 10
15.0375228587
 20
12.4738127745
 30
0.0
 10
15.0280977568
 20
12.4682654536
 30
0.0
 10
15.0183414533
 20
12.4631428911
 30
0.0
 10
15.0083009176
 20
12.4584604944
 30
0.0
 10
14.9980243358
 20
12.4542321819
 30
0.0
 10
14.9875609574
 20
12.4504704495
 30
0.0
 10
14.9769609265
 20
12.4471864076
 30
0.0
 10
14.966275083
 20
12.4443897911
 30
0.0
 10
14.9555547069
 20
12.4420889446
 30
0.0
 10
14.9448512865
 20
12.4402907951
 30
0.0
 10
14.9342160293
 20
12.4390008103
 30
0.0
 10
14.9237001049
 20
12.4382229662
 30
0.0
 10
14.9167310105
 20
12.4380456686
 30
0.0
 10
14.9132795913
 20
12.4380456686
 30
0.0
  0
SPLINE
  5
3AD
100
AcDbEntity
  8
02___PRT_ALL_AXES
100
AcDbSpline
 62
7
  6
CONTINUOUS
 70
0
 71
3
 72
72
 73
68
 74
0
 42
0.0000001
 43
0.0000001
 44
0.0000000001
 40
0.0
 40
0.0
 40
0.0
 40
0.0
 40
0.010625356
 40
0.0212733554
 40
0.031966404
 40
0.0427264401
 40
0.0535747196
 40
0.0645316224
 40
0.0756164845
 40
0.0868474577
 40
0.0982413997
 40
0.1098137921
 40
0.1215786868
 40
0.1335486761
 40
0.1396144689
 40
0.1457355832
 40
0.1581476775
 40
0.1707938916
 40
0.1836810623
 40
0.1968146742
 40
0.2101989113
 40
0.2238367119
 40
0.2377298264
 40
0.2518788757
 40
0.26628341
 40
0.2809419662
 40
0.2958521245
 40
0.3110105637
 40
0.3264131135
 40
0.3420548056
 40
0.3579299222
 40
0.3740320427
 40
0.3903540877
 40
0.4068883621
 40
0.4236265957
 40
0.4405599825
 40
0.4576792184
 40
0.4749745368
 40
0.4924357439
 40
0.5100522521
 40
0.5278131126
 40
0.545707047
 40
0.5637224786
 40
0.5818475619
 40
0.6000702124
 40
0.6183781354
 40
0.6367588541
 40
0.6551997379
 40
0.6736880299
 40
0.6922108743
 40
0.7107553436
 40
0.7293084655
 40
0.7478572497
 40
0.7663887148
 40
0.7848899155
 40
0.8033479692
 40
0.8217500831
 40
0.8400835816
 40
0.8583359338
 40
0.8764947813
 40
0.8945479665
 40
0.9124835612
 40
0.9302898968
 40
0.9479555894
 40
0.9654695892
 40
0.9828211481
 40
1.0
 40
1.0
 40
1.0
 40
1.0
 10
14.2074423954
 20
11.9855681478
 30
0.0
 10
14.2055687013
 20
11.9795048706
 30
0.0
 10
14.2021590855
 20
11.9672567427
 30
0.0
 10
14.1980800715
 20
11.948595285
 30
0.0
 10
14.1950380223
 20
11.9296550376
 30
0.0
 10
14.1930362614
 20
11.9104568594
 30
0.0
 10
14.192076662
 20
11.8910208786
 30
0.0
 10
14.1921600365
 20
11.8713676855
 30
0.0
 10
14.1932860479
 20
11.8515179718
 30
0.0
 10
14.195453255
 20
11.8314925886
 30
0.0
 10
14.1986591121
 20
11.8113125242
 30
0.0
 10
14.2029000191
 20
11.7909988007
 30
0.0
 10
14.2081712174
 20
11.7705728081
 30
0.0
 10
14.2133945043
 20
11.7535508804
 30
0.0
 10
14.2180742266
 20
11.7399017673
 30
0.0
 10
14.2231361555
 20
11.7261080535
 30
0.0
 10
14.2301045753
 20
11.7088322529
 30
0.0
 10
14.2394294353
 20
11.6881694886
 30
0.0
 10
14.2497457188
 20
11.6675007767
 30
0.0
 10
14.2610424789
 20
11.6468477745
 30
0.0
 10
14.2733078921
 20
11.6262317998
 30
0.0
 10
14.2865291148
 20
11.6056742231
 30
0.0
 10
14.3006923355
 20
11.5851963347
 30
0.0
 10
14.3157827749
 20
11.5648193548
 30
0.0
 10
14.3317847016
 20
11.5445644049
 30
0.0
 10
14.3486814446
 20
11.5244524871
 30
0.0
 10
14.366455409
 20
11.504504463
 30
0.0
 10
14.3850880932
 20
11.4847410312
 30
0.0
 10
14.4045601062
 20
11.4651827061
 30
0.0
 10
14.4248511873
 20
11.4458497959
 30
0.0
 10
14.4459402249
 20
11.4267623806
 30
0.0
 10
14.4678052789
 20
11.4079402912
 30
0.0
 10
14.490423601
 20
11.3894030875
 30
0.0
 10
14.5137716589
 20
11.3711700374
 30
0.0
 10
14.5378251606
 20
11.3532600969
 30
0.0
 10
14.5625590792
 20
11.3356918895
 30
0.0
 10
14.5879476791
 20
11.3184836864
 30
0.0
 10
14.6139645423
 20
11.3016533871
 30
0.0
 10
14.6405825957
 20
11.2852185008
 30
0.0
 10
14.6677741392
 20
11.2691961267
 30
0.0
 10
14.695510874
 20
11.253602936
 30
0.0
 10
14.7237639331
 20
11.2384551552
 30
0.0
 10
14.7525039109
 20
11.2237685485
 30
0.0
 10
14.7817008941
 20
11.2095584012
 30
0.0
 10
14.8113244928
 20
11.1958395035
 30
0.0
 10
14.8413438722
 20
11.1826261355
 30
0.0
 10
14.8717277846
 20
11.1699320511
 30
0.0
 10
14.9024446018
 20
11.1577704637
 30
0.0
 10
14.9334623487
 20
11.1461540328
 30
0.0
 10
14.9647487364
 20
11.1350948507
 30
0.0
 10
14.9962711963
 20
11.12460443
 30
0.0
 10
15.0279969138
 20
11.1146936914
 30
0.0
 10
15.0598928626
 20
11.1053729523
 30
0.0
 10
15.0919258391
 20
11.0966519158
 30
0.0
 10
15.1240624973
 20
11.0885396599
 30
0.0
 10
15.1562693833
 20
11.0810446289
 30
0.0
 10
15.1885129709
 20
11.074174625
 30
0.0
 10
15.2207596962
 20
11.0679367994
 30
0.0
 10
15.2529759927
 20
11.0623376455
 30
0.0
 10
15.2851283266
 20
11.0573829921
 30
0.0
 10
15.3171832319
 20
11.0530779974
 30
0.0
 10
15.3491073441
 20
11.0494271419
 30
0.0
 10
15.3808674398
 20
11.0464342271
 30
0.0
 10
15.4124304566
 20
11.044102367
 30
0.0
 10
15.4437635842
 20
11.0424339957
 30
0.0
 10
15.4748340431
 20
11.041430844
 30
0.0
 10
15.4954586098
 20
11.0412050879
 30
0.0
 10
15.5057189876
 20
11.0412050879
 30
0.0
  0
SPLINE
  5
3AE
100
AcDbEntity
  8
02___PRT_ALL_AXES
100
AcDbSpline
 62
7
  6
CONTINUOUS
 70
0
 71
3
 72
40
 73
36
 74
0
 42
0.0000001
 43
0.0000001
 44
0.0000000001
 40
0.0
 40
0.0
 40
0.0
 40
0.0
 40
0.0248034544
 40
0.0496642477
 40
0.074639066
 40
0.0997833134
 40
0.1251505278
 40
0.1507918582
 40
0.1767556163
 40
0.203086911
 40
0.2298273672
 40
0.2570149261
 40
0.2846837209
 40
0.3128640191
 40
0.3271552545
 40
0.3415839426
 40
0.370862636
 40
0.4007206727
 40
0.4311732879
 40
0.4622322332
 40
0.4939059234
 40
0.5261995942
 40
0.5591154632
 40
0.5926528912
 40
0.6268085414
 40
0.6615765342
 40
0.6969485985
 40
0.7329142184
 40
0.7694607723
 40
0.8065736668
 40
0.8442364641
 40
0.8824309972
 40
0.9211375225
 40
0.9603346864
 40
1.0
 40
1.0
 40
1.0
 40
1.0
 10
16.1756093345
 20
11.3773585626
 30
0.0
 10
16.1736575986
 20
11.3710427419
 30
0.0
 10
16.1693768188
 20
11.3585082692
 30
0.0
 10
16.1618512921
 20
11.3400825668
 30
0.0
 10
16.153226729
 20
11.3220436453
 30
0.0
 10
16.1435134851
 20
11.3044130619
 30
0.0
 10
16.1327228533
 20
11.2872107349
 30
0.0
 10
16.1208674562
 20
11.270456305
 30
0.0
 10
16.1079610973
 20
11.2541687394
 30
0.0
 10
16.0940187508
 20
11.2383664163
 30
0.0
 10
16.0790565409
 20
11.2230671064
 30
0.0
 10
16.063091631
 20
11.2082879119
 30
0.0
 10
16.0461425264
 20
11.1940454986
 30
0.0
 10
16.0312840023
 20
11.1826907128
 30
0.0
 10
16.0189339858
 20
11.1738884752
 30
0.0
 10
16.006152177
 20
11.1651939532
 30
0.0
 10
15.9895872326
 20
11.1546934647
 30
0.0
 10
15.9689046262
 20
11.1427501654
 30
0.0
 10
15.9473444817
 20
11.1314163875
 30
0.0
 10
15.9249314162
 20
11.1207049172
 30
0.0
 10
15.9016906745
 20
11.1106276416
 30
0.0
 10
15.8776485062
 20
11.101195808
 30
0.0
 10
15.8528320292
 20
11.0924199374
 30
0.0
 10
15.8272692336
 20
11.0843098315
 30
0.0
 10
15.8009889454
 20
11.0768745559
 30
0.0
 10
15.7740207991
 20
11.0701224272
 30
0.0
 10
15.7463952058
 20
11.0640610024
 30
0.0
 10
15.718143319
 20
11.058697071
 30
0.0
 10
15.6892970009
 20
11.0540366451
 30
0.0
 10
15.6598887882
 20
11.0500849511
 30
0.0
 10
15.6299518521
 20
11.0468464231
 30
0.0
 10
15.5995199762
 20
11.0443246909
 30
0.0
 10
15.5686274607
 20
11.0425225889
 30
0.0
 10
15.5373093504
 20
11.0414421278
 30
0.0
 10
15.5162904189
 20
11.0412050879
 30
0.0
 10
15.5057189876
 20
11.0412050879
 30
0.0
  0
SPLINE
  5
3AF
100
AcDbEntity
  8
LAYER_CHAMFER_FEAT
100
AcDbSpline
 62
7
  6
CONTINUOUS
 70
0
 71
3
 72
15
 73
11
 74
0
 42
0.0000001
 43
0.0000001
 44
0.0000000001
 40
0.0
 40
0.0
 40
0.0
 40
0.0
 40
0.1317621271
 40
0.2617726774
 40
0.389919274
 40
0.5161208126
 40
0.6402988927
 40
0.7623789888
 40
0.8822975184
 40
1.0
 40
1.0
 40
1.0
 40
1.0
 10
15.1038263283
 20
11.8601762211
 30
0.0
 10
15.1005068648
 20
11.8601762211
 30
0.0
 10
15.0939117294
 20
11.8600925263
 30
0.0
 10
15.0840948753
 20
11.8597106001
 30
0.0
 10
15.0744315437
 20
11.8590734994
 30
0.0
 10
15.0649358693
 20
11.8581821822
 30
0.0
 10
15.0556212421
 20
11.857037968
 30
0.0
 10
15.0465009493
 20
11.8556423757
 30
0.0
 10
15.0375881765
 20
11.8539974934
 30
0.0
 10
15.0317375482
 20
11.8527241226
 30
0.0
 10
15.0288510364
 20
11.8520452838
 30
0.0
  0
SPLINE
  5
3B0
100
AcDbEntity
  8
LAYER_CHAMFER_FEAT
100
AcDbSpline
 62
7
  6
CONTINUOUS
 70
0
 71
3
 72
34
 73
30
 74
0
 42
0.0000001
 43
0.0000001
 44
0.0000000001
 40
0.0
 40
0.0
 40
0.0
 40
0.0
 40
0.030540153
 40
0.0614606621
 40
0.0927286168
 40
0.1243153571
 40
0.1561893701
 40
0.1883177853
 40
0.2206672927
 40
0.2532037295
 40
0.3186931772
 40
0.384506992
 40
0.4503572026
 40
0.5159553632
 40
0.5810163142
 40
0.6132604025
 40
0.6452667249
 40
0.6770022651
 40
0.7084349754
 40
0.7395338401
 40
0.7702690666
 40
0.8006122282
 40
0.8305363413
 40
0.8600161123
 40
0.8890280485
 40
0.9175505837
 40
0.9455643673
 40
0.9730523524
 40
1.0
 40
1.0
 40
1.0
 40
1.0
 10
15.1038263283
 20
11.8601762211
 30
0.0
 10
15.1074151171
 20
11.8601762211
 30
0.0
 10
15.114637745
 20
11.8600771372
 30
0.0
 10
15.1255266813
 20
11.8596384343
 30
0.0
 10
15.1365233333
 20
11.8589092802
 30
0.0
 10
15.1476094438
 20
11.85789092
 30
0.0
 10
15.1587671628
 20
11.856585043
 30
0.0
 10
15.1699782562
 20
11.8549937325
 30
0.0
 10
15.1812245127
 20
11.8531195824
 30
0.0
 10
15.1962734642
 20
11.8502416512
 30
0.0
 10
15.2150512292
 20
11.8459561778
 30
0.0
 10
15.2373822493
 20
11.8397565457
 30
0.0
 10
15.2594157641
 20
11.8325286549
 30
0.0
 10
15.2810079609
 20
11.8243196657
 30
0.0
 10
15.298569997
 20
11.8166826475
 30
0.0
 10
15.3122786509
 20
11.8101243237
 30
0.0
 10
15.3223333184
 20
11.8050102145
 30
0.0
 10
15.3321747422
 20
11.7996947576
 30
0.0
 10
15.3417869725
 20
11.7941866055
 30
0.0
 10
15.3511543132
 20
11.7884947077
 30
0.0
 10
15.3602615131
 20
11.7826283387
 30
0.0
 10
15.3690937512
 20
11.7765970745
 30
0.0
 10
15.3776366175
 20
11.770410694
 30
0.0
 10
15.3858762142
 20
11.7640792889
 30
0.0
 10
15.3937991335
 20
11.7576131651
 30
0.0
 10
15.4013924373
 20
11.7510228108
 30
0.0
 10
15.4086438184
 20
11.7443189384
 30
0.0
 10
15.4155413572
 20
11.7375125528
 30
0.0
 10
15.4199408772
 20
11.7328668967
 30
0.0
 10
15.4220770045
 20
11.7305292661
 30
0.0
  0
SPLINE
  5
3B1
100
AcDbEntity
  8
LAYER_FEATURE
100
AcDbSpline
 62
7
  6
CONTINUOUS
 70
0
 71
3
 72
46
 73
42
 74
0
 42
0.0000001
 43
0.0000001
 44
0.0000000001
 40
0.0
 40
0.0
 40
0.0
 40
0.0
 40
0.0396645078
 40
0.0788613625
 40
0.1175671524
 40
0.1557611441
 40
0.1934233488
 40
0.2305356756
 40
0.2670816668
 40
0.3030467311
 40
0.3384182489
 40
0.373185705
 40
0.4073408296
 40
0.4408777429
 40
0.4737931061
 40
0.5060862783
 40
0.5377594784
 40
0.5688179438
 40
0.5992700904
 40
0.6291276687
 40
0.6584059125
 40
0.6728343747
 40
0.6871253929
 40
0.7153052552
 40
0.7429736226
 40
0.7701607626
 40
0.7969008076
 40
0.8232316975
 40
0.8491950558
 40
0.8620540739
 40
0.8748384068
 40
0.8875541856
 40
0.9002077255
 40
0.9128055046
 40
0.9253541479
 40
0.9378604202
 40
0.9503311966
 40
0.9627734571
 40
0.9751942581
 40
0.9876007192
 40
1.0
 40
1.0
 40
1.0
 40
1.0
 10
14.881741683
 20
13.2127445265
 30
0.0
 10
14.8655767095
 20
13.2127445265
 30
0.0
 10
14.8334360699
 20
13.2123820493
 30
0.0
 10
14.7855467414
 20
13.2107299154
 30
0.0
 10
14.7383081053
 20
13.2079742427
 30
0.0
 10
14.6917739675
 20
13.2041182138
 30
0.0
 10
14.6459965983
 20
13.1991660891
 30
0.0
 10
14.6010277318
 20
13.1931234571
 30
0.0
 10
14.5569180692
 20
13.1859970779
 30
0.0
 10
14.5137173703
 20
13.1777949469
 30
0.0
 10
14.4714743537
 20
13.1685262603
 30
0.0
 10
14.4302366556
 20
13.1582014014
 30
0.0
 10
14.3900507769
 20
13.1468319283
 30
0.0
 10
14.350962033
 20
13.1344305574
 30
0.0
 10
14.3130145053
 20
13.1210111466
 30
0.0
 10
14.2762509974
 20
13.1065886798
 30
0.0
 10
14.2407129739
 20
13.0911792493
 30
0.0
 10
14.2064405707
 20
13.0748000566
 30
0.0
 10
14.1734723865
 20
13.0574692826
 30
0.0
 10
14.1418460695
 20
13.0392064707
 30
0.0
 10
14.1165161695
 20
13.0231499126
 30
0.0
 10
14.096971185
 20
13.0098548696
 30
0.0
 10
14.078086438
 20
12.9963951569
 30
0.0
 10
14.0553658907
 20
12.9790322437
 30
0.0
 10
14.0294485665
 20
12.9572537908
 30
0.0
 10
14.0050362216
 20
12.9346545622
 30
0.0
 10
13.9821570482
 20
12.9112598971
 30
0.0
 10
13.960837666
 20
12.8870964873
 30
0.0
 10
13.944338266
 20
12.8662744392
 30
0.0
 10
13.9319588179
 20
12.8492690551
 30
0.0
 10
13.9231074315
 20
12.836380777
 30
0.0
 10
13.9146628853
 20
12.8233220448
 30
0.0
 10
13.9066274772
 20
12.8100964649
 30
0.0
 10
13.8990035001
 20
12.7967078206
 30
0.0
 10
13.8917931782
 20
12.7831598657
 30
0.0
 10
13.8849984879
 20
12.7694564864
 30
0.0
 10
13.8786214519
 20
12.7556015209
 30
0.0
 10
13.8726638191
 20
12.7415989473
 30
0.0
 10
13.8671273128
 20
12.7274526766
 30
0.0
 10
13.8620135641
 20
12.7131668903
 30
0.0
 10
13.8588867457
 20
12.7035514023
 30
0.0
 10
13.8573947937
 20
12.6987234364
 30
0.0
  0
SPLINE
  5
3B2
100
AcDbEntity
  8
LAYER_FEATURE
100
AcDbSpline
 62
7
  6
CONTINUOUS
 70
0
 71
3
 72
46
 73
42
 74
0
 42
0.0000001
 43
0.0000001
 44
0.0000000001
 40
0.0
 40
0.0
 40
0.0
 40
0.0
 40
0.0396645078
 40
0.0788613625
 40
0.1175671524
 40
0.1557611441
 40
0.1934233488
 40
0.2305356756
 40
0.2670816668
 40
0.3030467311
 40
0.3384182489
 40
0.373185705
 40
0.4073408296
 40
0.4408777429
 40
0.4737931061
 40
0.5060862783
 40
0.5377594784
 40
0.5688179438
 40
0.5992700904
 40
0.6291276687
 40
0.6584059125
 40
0.6728343747
 40
0.6871253929
 40
0.7153052552
 40
0.7429736226
 40
0.7701607626
 40
0.7969008076
 40
0.8232316975
 40
0.8491950558
 40
0.8620540739
 40
0.8748384068
 40
0.8875541856
 40
0.9002077255
 40
0.9128055046
 40
0.9253541479
 40
0.9378604202
 40
0.9503311966
 40
0.9627734571
 40
0.9751942581
 40
0.9876007192
 40
1.0
 40
1.0
 40
1.0
 40
1.0
 10
15.1189666799
 20
13.9804048979
 30
0.0
 10
15.1028017065
 20
13.9804048979
 30
0.0
 10
15.0706610669
 20
13.9800424207
 30
0.0
 10
15.0227717383
 20
13.9783902868
 30
0.0
 10
14.9755331022
 20
13.9756346141
 30
0.0
 10
14.9289989644
 20
13.9717785853
 30
0.0
 10
14.8832215952
 20
13.9668264606
 30
0.0
 10
14.8382527287
 20
13.9607838285
 30
0.0
 10
14.7941430662
 20
13.9536574493
 30
0.0
 10
14.7509423672
 20
13.9454553183
 30
0.0
 10
14.7086993506
 20
13.9361866317
 30
0.0
 10
14.6674616526
 20
13.9258617729
 30
0.0
 10
14.6272757738
 20
13.9144922998
 30
0.0
 10
14.5881870299
 20
13.9020909288
 30
0.0
 10
14.5502395022
 20
13.8886715181
 30
0.0
 10
14.5134759943
 20
13.8742490513
 30
0.0
 10
14.4779379708
 20
13.8588396208
 30
0.0
 10
14.4436655676
 20
13.8424604281
 30
0.0
 10
14.4106973835
 20
13.825129654
 30
0.0
 10
14.3790710664
 20
13.8068668421
 30
0.0
 10
14.3537411665
 20
13.790810284
 30
0.0
 10
14.3341961819
 20
13.777515241
 30
0.0
 10
14.3153114349
 20
13.7640555283
 30
0.0
 10
14.2925908876
 20
13.7466926151
 30
0.0
 10
14.2666735635
 20
13.7249141622
 30
0.0
 10
14.2422612185
 20
13.7023149337
 30
0.0
 10
14.2193820452
 20
13.6789202685
 30
0.0
 10
14.1980626629
 20
13.6547568587
 30
0.0
 10
14.181563263
 20
13.6339348106
 30
0.0
 10
14.1691838148
 20
13.6169294266
 30
0.0
 10
14.1603324284
 20
13.6040411485
 30
0.0
 10
14.1518878822
 20
13.5909824162
 30
0.0
 10
14.1438524741
 20
13.5777568364
 30
0.0
 10
14.1362284971
 20
13.5643681921
 30
0.0
 10
14.1290181751
 20
13.5508202371
 30
0.0
 10
14.1222234848
 20
13.5371168579
 30
0.0
 10
14.1158464488
 20
13.5232618923
 30
0.0
 10
14.109888816
 20
13.5092593187
 30
0.0
 10
14.1043523097
 20
13.495113048
 30
0.0
 10
14.0992385611
 20
13.4808272618
 30
0.0
 10
14.0961117427
 20
13.4712117737
 30
0.0
 10
14.0946197906
 20
13.4663838079
 30
0.0
  0
SPLINE
  5
3B3
100
AcDbEntity
  8
LAYER_FEATURE
100
AcDbSpline
 62
7
  6
CONTINUOUS
 70
0
 71
3
 72
78
 73
74
 74
0
 42
0.0000001
 43
0.0000001
 44
0.0000000001
 40
0.0
 40
0.0
 40
0.0
 40
0.0
 40
0.0171786494
 40
0.034530259
 40
0.052044083
 40
0.0697096926
 40
0.0875159169
 40
0.1054514052
 40
0.1235044838
 40
0.1416632229
 40
0.1599154662
 40
0.1782488551
 40
0.1966508594
 40
0.2151088034
 40
0.2336098939
 40
0.2521412485
 40
0.2706899221
 40
0.2892429336
 40
0.3077872924
 40
0.3263100264
 40
0.3447982082
 40
0.3632389822
 40
0.3816195916
 40
0.3999274055
 40
0.4181499471
 40
0.4362749223
 40
0.4542902467
 40
0.472184075
 40
0.4899448297
 40
0.5075612324
 40
0.5250223351
 40
0.5423175506
 40
0.5594366852
 40
0.5763699716
 40
0.5931081049
 40
0.60964228
 40
0.6259642276
 40
0.6420662527
 40
0.6579412756
 40
0.6735828743
 40
0.6889853316
 40
0.7041436801
 40
0.71905375
 40
0.7337122195
 40
0.748116668
 40
0.7622656323
 40
0.7761586636
 40
0.7897963834
 40
0.8031805416
 40
0.8163140755
 40
0.8292011685
 40
0.8418473065
 40
0.8542593269
 40
0.8603804056
 40
0.8664461623
 40
0.8784160809
 40
0.8901809052
 40
0.8959906881
 40
0.901754044
 40
0.9131479177
 40
0.9243788243
 40
0.9354636208
 40
0.9464204585
 40
0.9518573841
 40
0.9572696635
 40
0.9626598748
 40
0.9680306504
 40
0.9733846742
 40
0.9787246697
 40
0.9840533993
 40
0.9893736532
 40
0.9946882442
 40
1.0
 40
1.0
 40
1.0
 40
1.0
 10
15.1189666799
 20
13.9804048979
 30
0.0
 10
15.134656001
 20
13.9804048979
 30
0.0
 10
15.1661936155
 20
13.9800596732
 30
0.0
 10
15.2137042536
 20
13.9785257565
 30
0.0
 10
15.2616166546
 20
13.9759745749
 30
0.0
 10
15.3098804423
 20
13.9724088876
 30
0.0
 10
15.358445653
 20
13.9678323397
 30
0.0
 10
15.4072616462
 20
13.9622497206
 30
0.0
 10
15.4562776423
 20
13.9556668353
 30
0.0
 10
15.505442619
 20
13.9480905436
 30
0.0
 10
15.5547054022
 20
13.9395287335
 30
0.0
 10
15.6040147155
 20
13.9299903155
 30
0.0
 10
15.6533192307
 20
13.9194852133
 30
0.0
 10
15.7025676235
 20
13.9080243605
 30
0.0
 10
15.7517086291
 20
13.8956196942
 30
0.0
 10
15.800691093
 20
13.8822841289
 30
0.0
 10
15.8494640253
 20
13.8680315462
 30
0.0
 10
15.8979766526
 20
13.8528767795
 30
0.0
 10
15.9461784714
 20
13.8368355995
 30
0.0
 10
15.9940193056
 20
13.8199247113
 30
0.0
 10
16.0414493549
 20
13.8021617218
 30
0.0
 10
16.0884192461
 20
13.7835651218
 30
0.0
 10
16.1348800845
 20
13.7641542677
 30
0.0
 10
16.1807835036
 20
13.7439493587
 30
0.0
 10
16.2260817231
 20
13.7229714299
 30
0.0
 10
16.2707275947
 20
13.7012423205
 30
0.0
 10
16.3146746495
 20
13.6787846471
 30
0.0
 10
16.3578771451
 20
13.6556217818
 30
0.0
 10
16.4002901132
 20
13.6317778251
 30
0.0
 10
16.4418694117
 20
13.6072775888
 30
0.0
 10
16.4825717729
 20
13.5821465717
 30
0.0
 10
16.5223548415
 20
13.5564109213
 30
0.0
 10
16.5611772188
 20
13.5300974102
 30
0.0
 10
16.5989985044
 20
13.5032334059
 30
0.0
 10
16.635779341
 20
13.4758468434
 30
0.0
 10
16.6714814645
 20
13.4479662061
 30
0.0
 10
16.7060677328
 20
13.4196204816
 30
0.0
 10
16.7395021629
 20
13.3908391333
 30
0.0
 10
16.7717499676
 20
13.3616520695
 30
0.0
 10
16.8027775901
 20
13.3320896084
 30
0.0
 10
16.8325527518
 20
13.3021824587
 30
0.0
 10
16.8610444758
 20
13.2719616766
 30
0.0
 10
16.8882231125
 20
13.2414586309
 30
0.0
 10
16.9140603691
 20
13.2107049725
 30
0.0
 10
16.9385293344
 20
13.1797325973
 30
0.0
 10
16.9616045163
 20
13.1485736214
 30
0.0
 10
16.9832618663
 20
13.1172603449
 30
0.0
 10
17.0034787866
 20
13.0858252163
 30
0.0
 10
17.0222341568
 20
13.0543007906
 30
0.0
 10
17.0395083308
 20
13.0227197444
 30
0.0
 10
17.0552832237
 20
12.9911146728
 30
0.0
 10
17.0695421073
 20
12.9595186995
 30
0.0
 10
17.0801976987
 20
12.9331018147
 30
0.0
 10
17.0879380356
 20
12.912009497
 30
0.0
 10
17.0950939259
 20
12.8911382437
 30
0.0
 10
17.1030809464
 20
12.8651098266
 30
0.0
 10
17.1098259058
 20
12.8389727903
 30
0.0
 10
17.114422731
 20
12.8181579071
 30
0.0
 10
17.1184587751
 20
12.7975723123
 30
0.0
 10
17.1225283939
 20
12.7719553787
 30
0.0
 10
17.1258422673
 20
12.7413342023
 30
0.0
 10
17.1275641313
 20
12.7109817842
 30
0.0
 10
17.1276705563
 20
12.6858728756
 30
0.0
 10
17.1269529834
 20
12.6659682687
 30
0.0
 10
17.1260181699
 20
12.6511643364
 30
0.0
 10
17.1246855715
 20
12.6364516379
 30
0.0
 10
17.1229554837
 20
12.6218338978
 30
0.0
 10
17.1208284316
 20
12.6073149648
 30
0.0
 10
17.1183048777
 20
12.5928986371
 30
0.0
 10
17.1153855407
 20
12.5785886917
 30
0.0
 10
17.1120711532
 20
12.5643888344
 30
0.0
 10
17.1083625885
 20
12.5503029377
 30
0.0
 10
17.1056277647
 20
12.5409895695
 30
0.0
 10
17.1041954492
 20
12.536354588
 30
0.0
  0
SPLINE
  5
3B4
100
AcDbEntity
  8
LAYER_FEATURE
100
AcDbSpline
 62
7
  6
CONTINUOUS
 70
0
 71
3
 72
78
 73
74
 74
0
 42
0.0000001
 43
0.0000001
 44
0.0000000001
 40
0.0
 40
0.0
 40
0.0
 40
0.0
 40
0.0171786494
 40
0.034530259
 40
0.052044083
 40
0.0697096926
 40
0.0875159169
 40
0.1054514052
 40
0.1235044838
 40
0.1416632229
 40
0.1599154662
 40
0.1782488551
 40
0.1966508594
 40
0.2151088034
 40
0.2336098939
 40
0.2521412485
 40
0.2706899221
 40
0.2892429336
 40
0.3077872924
 40
0.3263100264
 40
0.3447982082
 40
0.3632389822
 40
0.3816195916
 40
0.3999274055
 40
0.4181499471
 40
0.4362749223
 40
0.4542902467
 40
0.472184075
 40
0.4899448297
 40
0.5075612324
 40
0.5250223351
 40
0.5423175506
 40
0.5594366852
 40
0.5763699716
 40
0.5931081049
 40
0.60964228
 40
0.6259642276
 40
0.6420662527
 40
0.6579412756
 40
0.6735828743
 40
0.6889853316
 40
0.7041436801
 40
0.71905375
 40
0.7337122195
 40
0.748116668
 40
0.7622656323
 40
0.7761586636
 40
0.7897963834
 40
0.8031805416
 40
0.8163140755
 40
0.8292011685
 40
0.8418473065
 40
0.8542593269
 40
0.8603804056
 40
0.8664461623
 40
0.8784160809
 40
0.8901809052
 40
0.8959906881
 40
0.901754044
 40
0.9131479177
 40
0.9243788243
 40
0.9354636208
 40
0.9464204585
 40
0.9518573841
 40
0.9572696635
 40
0.9626598748
 40
0.9680306504
 40
0.9733846742
 40
0.9787246697
 40
0.9840533993
 40
0.9893736532
 40
0.9946882442
 40
1.0
 40
1.0
 40
1.0
 40
1.0
 10
14.881741683
 20
13.2127445265
 30
0.0
 10
14.8974310041
 20
13.2127445265
 30
0.0
 10
14.9289686186
 20
13.2123993018
 30
0.0
 10
14.9764792566
 20
13.2108653851
 30
0.0
 10
15.0243916576
 20
13.2083142035
 30
0.0
 10
15.0726554453
 20
13.2047485161
 30
0.0
 10
15.1212206561
 20
13.2001719682
 30
0.0
 10
15.1700366492
 20
13.1945893492
 30
0.0
 10
15.2190526454
 20
13.1880064639
 30
0.0
 10
15.268217622
 20
13.1804301721
 30
0.0
 10
15.3174804053
 20
13.171868362
 30
0.0
 10
15.3667897186
 20
13.1623299441
 30
0.0
 10
15.4160942337
 20
13.1518248419
 30
0.0
 10
15.4653426266
 20
13.1403639891
 30
0.0
 10
15.5144836321
 20
13.1279593227
 30
0.0
 10
15.5634660961
 20
13.1146237575
 30
0.0
 10
15.6122390284
 20
13.1003711748
 30
0.0
 10
15.6607516557
 20
13.085216408
 30
0.0
 10
15.7089534745
 20
13.069175228
 30
0.0
 10
15.7567943087
 20
13.0522643399
 30
0.0
 10
15.804224358
 20
13.0345013504
 30
0.0
 10
15.8511942492
 20
13.0159047504
 30
0.0
 10
15.8976550875
 20
12.9964938963
 30
0.0
 10
15.9435585067
 20
12.9762889873
 30
0.0
 10
15.9888567261
 20
12.9553110584
 30
0.0
 10
16.0335025978
 20
12.933581949
 30
0.0
 10
16.0774496525
 20
12.9111242757
 30
0.0
 10
16.1206521482
 20
12.8879614104
 30
0.0
 10
16.1630651162
 20
12.8641174536
 30
0.0
 10
16.2046444147
 20
12.8396172174
 30
0.0
 10
16.2453467759
 20
12.8144862002
 30
0.0
 10
16.2851298446
 20
12.7887505499
 30
0.0
 10
16.3239522219
 20
12.7624370388
 30
0.0
 10
16.3617735074
 20
12.7355730344
 30
0.0
 10
16.3985543441
 20
12.7081864719
 30
0.0
 10
16.4342564676
 20
12.6803058347
 30
0.0
 10
16.4688427359
 20
12.6519601102
 30
0.0
 10
16.502277166
 20
12.6231787619
 30
0.0
 10
16.5345249707
 20
12.593991698
 30
0.0
 10
16.5655525932
 20
12.5644292369
 30
0.0
 10
16.5953277549
 20
12.5345220873
 30
0.0
 10
16.6238194788
 20
12.5043013051
 30
0.0
 10
16.6509981156
 20
12.4737982594
 30
0.0
 10
16.6768353722
 20
12.443044601
 30
0.0
 10
16.7013043375
 20
12.4120722259
 30
0.0
 10
16.7243795194
 20
12.38091325
 30
0.0
 10
16.7460368693
 20
12.3495999735
 30
0.0
 10
16.7662537897
 20
12.3181648449
 30
0.0
 10
16.7850091598
 20
12.2866404191
 30
0.0
 10
16.8022833339
 20
12.255059373
 30
0.0
 10
16.8180582268
 20
12.2234543014
 30
0.0
 10
16.8323171103
 20
12.1918583281
 30
0.0
 10
16.8429727017
 20
12.1654414432
 30
0.0
 10
16.8507130387
 20
12.1443491255
 30
0.0
 10
16.857868929
 20
12.1234778723
 30
0.0
 10
16.8658559495
 20
12.0974494552
 30
0.0
 10
16.8726009088
 20
12.0713124189
 30
0.0
 10
16.8771977341
 20
12.0504975357
 30
0.0
 10
16.8812337782
 20
12.0299119408
 30
0.0
 10
16.885303397
 20
12.0042950073
 30
0.0
 10
16.8886172703
 20
11.9736738308
 30
0.0
 10
16.8903391344
 20
11.9433214127
 30
0.0
 10
16.8904455594
 20
11.9182125042
 30
0.0
 10
16.8897279865
 20
11.8983078973
 30
0.0
 10
16.888793173
 20
11.883503965
 30
0.0
 10
16.8874605746
 20
11.8687912665
 30
0.0
 10
16.8857304867
 20
11.8541735263
 30
0.0
 10
16.8836034346
 20
11.8396545934
 30
0.0
 10
16.8810798808
 20
11.8252382657
 30
0.0
 10
16.8781605438
 20
11.8109283202
 30
0.0
 10
16.8748461562
 20
11.796728463
 30
0.0
 10
16.8711375916
 20
11.7826425663
 30
0.0
 10
16.8684027677
 20
11.7733291981
 30
0.0
 10
16.8669704522
 20
11.7686942165
 30
0.0
  0
SPLINE
  5
3B5
100
AcDbEntity
  8
02___PRT_ALL_AXES
100
AcDbSpline
 62
7
  6
CONTINUOUS
 70
0
 71
3
 72
40
 73
36
 74
0
 42
0.0000001
 43
0.0000001
 44
0.0000000001
 40
0.0
 40
0.0
 40
0.0
 40
0.0
 40
0.0396653136
 40
0.0788624775
 40
0.1175690028
 40
0.1557635359
 40
0.1934263332
 40
0.2305392277
 40
0.2670857816
 40
0.3030514015
 40
0.3384234658
 40
0.3731914586
 40
0.4073471088
 40
0.4408845368
 40
0.4738004058
 40
0.5060940766
 40
0.5377677668
 40
0.5688267121
 40
0.5992793273
 40
0.629137364
 40
0.6584160574
 40
0.6728447455
 40
0.6871359809
 40
0.7153162791
 40
0.7429850739
 40
0.7701726328
 40
0.796913089
 40
0.8232443837
 40
0.8492081418
 40
0.8748494722
 40
0.9002166866
 40
0.925360934
 40
0.9503357523
 40
0.9751965456
 40
1.0
 40
1.0
 40
1.0
 40
1.0
 10
14.8773327423
 20
12.3217216225
 30
0.0
 10
14.8667613109
 20
12.3217216225
 30
0.0
 10
14.8457423794
 20
12.3214845826
 30
0.0
 10
14.8144242692
 20
12.3204041215
 30
0.0
 10
14.7835317537
 20
12.3186020195
 30
0.0
 10
14.7530998778
 20
12.3160802873
 30
0.0
 10
14.7231629416
 20
12.3128417592
 30
0.0
 10
14.693754729
 20
12.3088900653
 30
0.0
 10
14.6649084109
 20
12.3042296393
 30
0.0
 10
14.6366565241
 20
12.298865708
 30
0.0
 10
14.6090309307
 20
12.2928042832
 30
0.0
 10
14.5820627845
 20
12.2860521545
 30
0.0
 10
14.5557824963
 20
12.2786168789
 30
0.0
 10
14.5302197007
 20
12.270506773
 30
0.0
 10
14.5054032237
 20
12.2617309024
 30
0.0
 10
14.4813610554
 20
12.2522990688
 30
0.0
 10
14.4581203137
 20
12.2422217931
 30
0.0
 10
14.4357072482
 20
12.2315103229
 30
0.0
 10
14.4141471037
 20
12.220176545
 30
0.0
 10
14.3934644973
 20
12.2082332456
 30
0.0
 10
14.3768995529
 20
12.1977327572
 30
0.0
 10
14.3641177441
 20
12.1890382352
 30
0.0
 10
14.3517677276
 20
12.1802359976
 30
0.0
 10
14.3369092035
 20
12.1688812117
 30
0.0
 10
14.3199600988
 20
12.1546387985
 30
0.0
 10
14.3039951889
 20
12.139859604
 30
0.0
 10
14.2890329791
 20
12.1245602941
 30
0.0
 10
14.2750906325
 20
12.108757971
 30
0.0
 10
14.2621842737
 20
12.0924704054
 30
0.0
 10
14.2503288765
 20
12.0757159755
 30
0.0
 10
14.2395382448
 20
12.0585136485
 30
0.0
 10
14.2298250009
 20
12.0408830651
 30
0.0
 10
14.2212004378
 20
12.0228441436
 30
0.0
 10
14.2136749111
 20
12.0044184412
 30
0.0
 10
14.2093941313
 20
11.9918839685
 30
0.0
 10
14.2074423954
 20
11.9855681478
 30
0.0
  0
SPLINE
  5
3B6
100
AcDbEntity
  8
LAYER_FEATURE
100
AcDbSpline
 62
7
  6
CONTINUOUS
 70
0
 71
3
 72
80
 73
76
 74
0
 42
0.0000001
 43
0.0000001
 44
0.0000000001
 40
0.0
 40
0.0
 40
0.0
 40
0.0
 40
0.005354095
 40
0.0107128794
 40
0.016081022
 40
0.0214631515
 40
0.026863837
 40
0.0322875689
 40
0.0377387416
 40
0.0432216369
 40
0.0487404093
 40
0.054299072
 40
0.0599014848
 40
0.0655513445
 40
0.0712521748
 40
0.0770073207
 40
0.0828199409
 40
0.0886930059
 40
0.100630124
 40
0.1128399036
 40
0.1190529642
 40
0.125340226
 40
0.1381426333
 40
0.1512590077
 40
0.1646973085
 40
0.1784628141
 40
0.1925582767
 40
0.2069840815
 40
0.2217384053
 40
0.2368173707
 40
0.2522151958
 40
0.2679243362
 40
0.2839356199
 40
0.3002383757
 40
0.3168205532
 40
0.3336688375
 40
0.350768757
 40
0.3681047856
 40
0.3856604408
 40
0.4034183763
 40
0.4213604718
 40
0.4394679185
 40
0.4577213026
 40
0.4761006857
 40
0.4945856837
 40
0.5131555436
 40
0.5317892189
 40
0.5504654444
 40
0.5691628098
 40
0.5878598332
 40
0.6065350335
 40
0.6251670039
 40
0.6437344852
 40
0.6622164391
 40
0.680592123
 40
0.6988411659
 40
0.7169436448
 40
0.734880164
 40
0.7526319353
 40
0.7701808617
 40
0.787509623
 40
0.8046017656
 40
0.8214417956
 40
0.8380152765
 40
0.8543089319
 40
0.8703107538
 40
0.8860101164
 40
0.9013978979
 40
0.9164666077
 40
0.9312105223
 40
0.9456258271
 40
0.9597107683
 40
0.9734657993
 40
0.9868937615
 40
1.0
 40
1.0
 40
1.0
 40
1.0
 10
14.2050395394
 20
12.5569678422
 30
0.0
 10
14.206438936
 20
12.5614963076
 30
0.0
 10
14.2094029418
 20
12.5705074614
 30
0.0
 10
14.2143371738
 20
12.5838639823
 30
0.0
 10
14.2197584648
 20
12.5970573627
 30
0.0
 10
14.2256643609
 20
12.6100817042
 30
0.0
 10
14.232052352
 20
12.6229314544
 30
0.0
 10
14.2389196422
 20
12.6356010846
 30
0.0
 10
14.2462632762
 20
12.6480851488
 30
0.0
 10
14.2540800585
 20
12.6603782985
 30
0.0
 10
14.2623666158
 20
12.6724752593
 30
0.0
 10
14.2711193564
 20
12.6843708562
 30
0.0
 10
14.2803345006
 20
12.6960600003
 30
0.0
 10
14.290008067
 20
12.7075376947
 30
0.0
 10
14.3001358863
 20
12.7187990496
 30
0.0
 10
14.3107135708
 20
12.729839232
 30
0.0
 10
14.3217366657
 20
12.7406536336
 30
0.0
 10
14.3371036618
 20
12.7548413753
 30
0.0
 10
14.3574293272
 20
12.7719872572
 30
0.0
 10
14.3789353325
 20
12.7881306546
 30
0.0
 10
14.3969483077
 20
12.8005458584
 30
0.0
 10
14.4157236618
 20
12.8127657224
 30
0.0
 10
14.4402191016
 20
12.8273804705
 30
0.0
 10
14.470994235
 20
12.8437422694
 30
0.0
 10
14.503273653
 20
12.8590061039
 30
0.0
 10
14.537001689
 20
12.8731460875
 30
0.0
 10
14.5721209612
 20
12.8861386244
 30
0.0
 10
14.6085715606
 20
12.8979618849
 30
0.0
 10
14.646291383
 20
12.9085960046
 30
0.0
 10
14.6852161538
 20
12.9180230821
 30
0.0
 10
14.7252795471
 20
12.9262272286
 30
0.0
 10
14.7664132866
 20
12.9331945995
 30
0.0
 10
14.8085472599
 20
12.9389134261
 30
0.0
 10
14.8516096341
 20
12.9433740415
 30
0.0
 10
14.895526978
 20
12.9465689034
 30
0.0
 10
14.940224386
 20
12.948492611
 30
0.0
 10
14.9856256067
 20
12.9491419194
 30
0.0
 10
15.0316531733
 20
12.9485157478
 30
0.0
 10
15.0782285371
 20
12.9466151847
 30
0.0
 10
15.1252722019
 20
12.943443488
 30
0.0
 10
15.1727038617
 20
12.9390060819
 30
0.0
 10
15.2204425385
 20
12.9333105487
 30
0.0
 10
15.268406722
 20
12.9263666172
 30
0.0
 10
15.3165145096
 20
12.9181861471
 30
0.0
 10
15.3646837479
 20
12.9087831095
 30
0.0
 10
15.4128321738
 20
12.8981735632
 30
0.0
 10
15.4608775558
 20
12.8863756282
 30
0.0
 10
15.5087378362
 20
12.8734094543
 30
0.0
 10
15.5563312712
 20
12.8592971872
 30
0.0
 10
15.6035765723
 20
12.8440629301
 30
0.0
 10
15.6503930454
 20
12.8277327031
 30
0.0
 10
15.6967007299
 20
12.8103343975
 30
0.0
 10
15.7424205359
 20
12.7918977285
 30
0.0
 10
15.7874743797
 20
12.7724541835
 30
0.0
 10
15.8317853186
 20
12.7520369674
 30
0.0
 10
15.8752776824
 20
12.7306809456
 30
0.0
 10
15.9178772033
 20
12.708422583
 30
0.0
 10
15.9595111435
 20
12.6852998806
 30
0.0
 10
16.0001084198
 20
12.661352309
 30
0.0
 10
16.0395997251
 20
12.6366207399
 30
0.0
 10
16.077917647
 20
12.6111473735
 30
0.0
 10
16.1149967824
 20
12.5849756651
 30
0.0
 10
16.1507738493
 20
12.5581502477
 30
0.0
 10
16.1851877934
 20
12.5307168533
 30
0.0
 10
16.218179891
 20
12.5027222315
 30
0.0
 10
16.2496938468
 20
12.4742140661
 30
0.0
 10
16.2796758871
 20
12.4452408901
 30
0.0
 10
16.3080748463
 20
12.4158519994
 30
0.0
 10
16.3348422507
 20
12.3860973625
 30
0.0
 10
16.3599323863
 20
12.3560275416
 30
0.0
 10
16.3833023895
 20
12.3256935677
 30
0.0
 10
16.4049122339
 20
12.2951469856
 30
0.0
 10
16.4247250361
 20
12.2644392854
 30
0.0
 10
16.4427062315
 20
12.2336235523
 30
0.0
 10
16.4535828668
 20
12.2127916005
 30
0.0
 10
16.4586942238
 20
12.2023757501
 30
0.0
  0
SPLINE
  5
3B7
100
AcDbEntity
  8
LAYER_CUT_FEAT
100
AcDbSpline
 62
7
  6
CONTINUOUS
 70
0
 71
3
 72
80
 73
76
 74
0
 42
0.0000001
 43
0.0000001
 44
0.0000000001
 40
0.0
 40
0.0
 40
0.0
 40
0.0
 40
0.005354095
 40
0.0107128794
 40
0.016081022
 40
0.0214631515
 40
0.026863837
 40
0.0322875689
 40
0.0377387416
 40
0.0432216369
 40
0.0487404093
 40
0.054299072
 40
0.0599014848
 40
0.0655513445
 40
0.0712521748
 40
0.0770073207
 40
0.0828199409
 40
0.0886930059
 40
0.100630124
 40
0.1128399036
 40
0.1190529642
 40
0.125340226
 40
0.1381426333
 40
0.1512590077
 40
0.1646973085
 40
0.1784628141
 40
0.1925582767
 40
0.2069840815
 40
0.2217384053
 40
0.2368173707
 40
0.2522151958
 40
0.2679243362
 40
0.2839356199
 40
0.3002383757
 40
0.3168205532
 40
0.3336688375
 40
0.350768757
 40
0.3681047856
 40
0.3856604408
 40
0.4034183763
 40
0.4213604718
 40
0.4394679185
 40
0.4577213026
 40
0.4761006857
 40
0.4945856837
 40
0.5131555436
 40
0.5317892188
 40
0.5504654443
 40
0.5691628098
 40
0.5878598332
 40
0.6065350334
 40
0.6251670039
 40
0.6437344852
 40
0.662216439
 40
0.680592123
 40
0.6988411658
 40
0.7169436448
 40
0.734880164
 40
0.7526319353
 40
0.7701808617
 40
0.787509623
 40
0.8046017656
 40
0.8214417956
 40
0.8380152765
 40
0.8543089319
 40
0.8703107538
 40
0.8860101164
 40
0.9013978979
 40
0.9164666076
 40
0.9312105223
 40
0.9456258271
 40
0.9597107683
 40
0.9734657993
 40
0.9868937615
 40
1.0
 40
1.0
 40
1.0
 40
1.0
 10
14.1953568864
 20
12.5256347658
 30
0.0
 10
14.1967562831
 20
12.5301632312
 30
0.0
 10
14.1997202889
 20
12.539174385
 30
0.0
 10
14.2046545209
 20
12.5525309059
 30
0.0
 10
14.2100758118
 20
12.5657242863
 30
0.0
 10
14.215981708
 20
12.5787486278
 30
0.0
 10
14.222369699
 20
12.591598378
 30
0.0
 10
14.2292369892
 20
12.6042680082
 30
0.0
 10
14.2365806232
 20
12.6167520724
 30
0.0
 10
14.2443974056
 20
12.6290452221
 30
0.0
 10
14.2526839629
 20
12.6411421829
 30
0.0
 10
14.2614367035
 20
12.6530377798
 30
0.0
 10
14.2706518476
 20
12.6647269239
 30
0.0
 10
14.280325414
 20
12.6762046183
 30
0.0
 10
14.2904532333
 20
12.6874659732
 30
0.0
 10
14.3010309178
 20
12.6985061556
 30
0.0
 10
14.3120540127
 20
12.7093205572
 30
0.0
 10
14.3274210089
 20
12.723508299
 30
0.0
 10
14.3477466742
 20
12.7406541808
 30
0.0
 10
14.3692526796
 20
12.7567975782
 30
0.0
 10
14.3872656548
 20
12.769212782
 30
0.0
 10
14.4060410089
 20
12.781432646
 30
0.0
 10
14.4305364487
 20
12.7960473941
 30
0.0
 10
14.461311582
 20
12.812409193
 30
0.0
 10
14.4935910001
 20
12.8276730276
 30
0.0
 10
14.5273190361
 20
12.8418130111
 30
0.0
 10
14.5624383082
 20
12.854805548
 30
0.0
 10
14.5988889076
 20
12.8666288085
 30
0.0
 10
14.63660873
 20
12.8772629282
 30
0.0
 10
14.6755335009
 20
12.8866900057
 30
0.0
 10
14.7155968941
 20
12.8948941522
 30
0.0
 10
14.7567306337
 20
12.9018615231
 30
0.0
 10
14.7988646069
 20
12.9075803497
 30
0.0
 10
14.8419269812
 20
12.9120409652
 30
0.0
 10
14.885844325
 20
12.915235827
 30
0.0
 10
14.930541733
 20
12.9171595346
 30
0.0
 10
14.9759429537
 20
12.917808843
 30
0.0
 10
15.0219705204
 20
12.9171826714
 30
0.0
 10
15.0685458841
 20
12.9152821083
 30
0.0
 10
15.1155895489
 20
12.9121104116
 30
0.0
 10
15.1630212087
 20
12.9076730055
 30
0.0
 10
15.2107598855
 20
12.9019774723
 30
0.0
 10
15.258724069
 20
12.8950335408
 30
0.0
 10
15.3068318566
 20
12.8868530707
 30
0.0
 10
15.3550010949
 20
12.8774500331
 30
0.0
 10
15.4031495208
 20
12.8668404869
 30
0.0
 10
15.4511949029
 20
12.8550425518
 30
0.0
 10
15.4990551832
 20
12.842076378
 30
0.0
 10
15.5466486182
 20
12.8279641108
 30
0.0
 10
15.5938939193
 20
12.8127298537
 30
0.0
 10
15.6407103924
 20
12.7963996267
 30
0.0
 10
15.6870180769
 20
12.7790013211
 30
0.0
 10
15.7327378829
 20
12.7605646522
 30
0.0
 10
15.7777917267
 20
12.7411211071
 30
0.0
 10
15.8221026656
 20
12.720703891
 30
0.0
 10
15.8655950294
 20
12.6993478693
 30
0.0
 10
15.9081945503
 20
12.6770895067
 30
0.0
 10
15.9498284905
 20
12.6539668042
 30
0.0
 10
15.9904257669
 20
12.6300192327
 30
0.0
 10
16.0299170722
 20
12.6052876635
 30
0.0
 10
16.068234994
 20
12.5798142972
 30
0.0
 10
16.1053141294
 20
12.5536425888
 30
0.0
 10
16.1410911963
 20
12.5268171714
 30
0.0
 10
16.1755051405
 20
12.499383777
 30
0.0
 10
16.208497238
 20
12.4713891551
 30
0.0
 10
16.2400111938
 20
12.4428809897
 30
0.0
 10
16.2699932341
 20
12.4139078137
 30
0.0
 10
16.2983921934
 20
12.384518923
 30
0.0
 10
16.3251595977
 20
12.3547642861
 30
0.0
 10
16.3502497333
 20
12.3246944653
 30
0.0
 10
16.3736197365
 20
12.2943604913
 30
0.0
 10
16.3952295809
 20
12.2638139092
 30
0.0
 10
16.4150423832
 20
12.233106209
 30
0.0
 10
16.4330235786
 20
12.2022904759
 30
0.0
 10
16.4439002139
 20
12.1814585241
 30
0.0
 10
16.4490115709
 20
12.1710426737
 30
0.0
  0
SPLINE
  5
3B8
100
AcDbEntity
  8
LAYER_FEATURE
100
AcDbSpline
 62
7
  6
CONTINUOUS
 70
0
 71
3
 72
18
 73
14
 74
0
 42
0.0000001
 43
0.0000001
 44
0.0000000001
 40
0.0
 40
0.0
 40
0.0
 40
0.0
 40
0.0594343542
 40
0.1190533476
 40
0.178913034
 40
0.2390677313
 40
0.2995697488
 40
0.3604689679
 40
0.4836176689
 40
0.6088843292
 40
0.7365577414
 40
0.8668718005
 40
1.0
 40
1.0
 40
1.0
 40
1.0
 10
14.8124113385
 20
12.4816379795
 30
0.0
 10
14.8119563024
 20
12.4828566283
 30
0.0
 10
14.8111001028
 20
12.4853187622
 30
0.0
 10
14.809981734
 20
12.4890728153
 30
0.0
 10
14.8090287585
 20
12.4928885493
 30
0.0
 10
14.8082422407
 20
12.4967617016
 30
0.0
 10
14.8076230229
 20
12.5006881817
 30
0.0
 10
14.8070191041
 20
12.5060078315
 30
0.0
 10
14.8066897964
 20
12.5127785709
 30
0.0
 10
14.8069729102
 20
12.5210139412
 30
0.0
 10
14.8079308194
 20
12.5293561095
 30
0.0
 10
14.8095587767
 20
12.5377680393
 30
0.0
 10
14.811069559
 20
12.5433386089
 30
0.0
 10
14.8119298386
 20
12.5461224748
 30
0.0
  0
SPLINE
  5
3B9
100
AcDbEntity
  8
02___PRT_ALL_AXES
100
AcDbSpline
 62
7
  6
CONTINUOUS
 70
0
 71
3
 72
44
 73
40
 74
0
 42
0.0000001
 43
0.0000001
 44
0.0000000001
 40
0.0
 40
0.0
 40
0.0
 40
0.0
 40
0.0117314598
 40
0.0235081229
 40
0.0353491788
 40
0.0472731139
 40
0.0592975553
 40
0.0714390846
 40
0.0837131434
 40
0.0961338699
 40
0.1214592987
 40
0.147507067
 40
0.1743391579
 40
0.2019945866
 40
0.2304905647
 40
0.2598243928
 40
0.2899756769
 40
0.3209087768
 40
0.3525753476
 40
0.3849167511
 40
0.4178664556
 40
0.4513521071
 40
0.4852975091
 40
0.5196242518
 40
0.5542531538
 40
0.5891054847
 40
0.624103905
 40
0.6591733647
 40
0.6942416998
 40
0.729240292
 40
0.764104506
 40
0.7814688068
 40
0.7987773534
 40
0.8331971853
 40
0.8673171226
 40
0.9010927599
 40
0.9344855713
 40
0.9674632882
 40
1.0
 40
1.0
 40
1.0
 40
1.0
 10
14.8084853976
 20
12.4886891065
 30
0.0
 10
14.8079389948
 20
12.4898025682
 30
0.0
 10
14.8069003451
 20
12.4920618925
 30
0.0
 10
14.8055113444
 20
12.49553306
 30
0.0
 10
14.8042902165
 20
12.4990883797
 30
0.0
 10
14.8032380699
 20
12.502724535
 30
0.0
 10
14.8023557954
 20
12.5064382301
 30
0.0
 10
14.8016440955
 20
12.5102259608
 30
0.0
 10
14.8011035373
 20
12.5140842047
 30
0.0
 10
14.8006082585
 20
12.5193508506
 30
0.0
 10
14.8004268041
 20
12.5261022302
 30
0.0
 10
14.8008980263
 20
12.5343658546
 30
0.0
 10
14.8020523651
 20
12.5428102588
 30
0.0
 10
14.8038829549
 20
12.5513982501
 30
0.0
 10
14.8063801627
 20
12.5600914705
 30
0.0
 10
14.8095317201
 20
12.5688497794
 30
0.0
 10
14.8133227456
 20
12.5776317078
 30
0.0
 10
14.8177358402
 20
12.5863946868
 30
0.0
 10
14.8227512021
 20
12.5950953847
 30
0.0
 10
14.8283467773
 20
12.603690039
 30
0.0
 10
14.8344984122
 20
12.6121347823
 30
0.0
 10
14.8411800176
 20
12.6203859556
 30
0.0
 10
14.8483637076
 20
12.6284003899
 30
0.0
 10
14.8560199224
 20
12.6361356661
 30
0.0
 10
14.8641175169
 20
12.6435503484
 30
0.0
 10
14.8726238122
 20
12.6506042005
 30
0.0
 10
14.8815046306
 20
12.6572583989
 30
0.0
 10
14.8907242666
 20
12.6634757305
 30
0.0
 10
14.9002455585
 20
12.6692208541
 30
0.0
 10
14.9100295625
 20
12.674460395
 30
0.0
 10
14.9183799859
 20
12.6783850908
 30
0.0
 10
14.9251545246
 20
12.6812426698
 30
0.0
 10
14.9319601793
 20
12.6838986463
 30
0.0
 10
14.9405485352
 20
12.6868500461
 30
0.0
 10
14.9509658184
 20
12.6897856809
 30
0.0
 10
14.9614298916
 20
12.6920902204
 30
0.0
 10
14.9718937305
 20
12.6937486732
 30
0.0
 10
14.9823090115
 20
12.6947501441
 30
0.0
 10
14.9892374154
 20
12.6949768949
 30
0.0
 10
14.9926773454
 20
12.6949768949
 30
0.0
  0
SPLINE
  5
3BA
100
AcDbEntity
  8
LAYER_FEATURE
100
AcDbSpline
 62
7
  6
CONTINUOUS
 70
0
 71
3
 72
11
 73
7
 74
0
 42
0.0000001
 43
0.0000001
 44
0.0000000001
 40
0.0
 40
0.0
 40
0.0
 40
0.0
 40
0.2481727296
 40
0.4987737237
 40
0.749987697
 40
1.0
 40
1.0
 40
1.0
 40
1.0
 10
16.8521515535
 20
12.7899486799
 30
0.0
 10
16.8536376046
 20
12.7892475923
 30
0.0
 10
16.8566688948
 20
12.7879312766
 30
0.0
 10
16.861336921
 20
12.7862298535
 30
0.0
 10
16.8661093897
 20
12.7848051091
 30
0.0
 10
16.8693424583
 20
12.7840462628
 30
0.0
 10
16.8709647452
 20
12.7837172785
 30
0.0
  0
LINE
  5
3BB
100
AcDbEntity
  8
LAYER_FEATURE
100
AcDbLine
 62
7
  6
CONTINUOUS
 10
16.8245467639
 20
12.9443249939
 11
16.824813798
 21
12.9460926889
  0
SPLINE
  5
3BC
100
AcDbEntity
  8
LAYER_FEATURE
100
AcDbSpline
 62
7
  6
CONTINUOUS
 70
0
 71
3
 72
15
 73
11
 74
0
 42
0.0000001
 43
0.0000001
 44
0.0000000001
 40
0.0
 40
0.0
 40
0.0
 40
0.0
 40
0.1216405246
 40
0.2454071569
 40
0.3707366436
 40
0.4970424981
 40
0.6237254052
 40
0.750177395
 40
0.8758016515
 40
1.0
 40
1.0
 40
1.0
 40
1.0
 10
16.8072738993
 20
12.8884722549
 30
0.0
 10
16.8083914711
 20
12.887816183
 30
0.0
 10
16.8106822963
 20
12.8865532221
 30
0.0
 10
16.8142358668
 20
12.8848255686
 30
0.0
 10
16.8179168435
 20
12.8832575222
 30
0.0
 10
16.8216990396
 20
12.8818602424
 30
0.0
 10
16.8255556864
 20
12.8806436298
 30
0.0
 10
16.8294595289
 20
12.8796162573
 30
0.0
 10
16.8333827498
 20
12.8787854775
 30
0.0
 10
16.8360119506
 20
12.8783634806
 30
0.0
 10
16.8373233458
 20
12.8781873833
 30
0.0
  0
SPLINE
  5
3BD
100
AcDbEntity
  8
LAYER_FEATURE
100
AcDbSpline
 62
7
  6
CONTINUOUS
 70
0
 71
3
 72
11
 73
7
 74
0
 42
0.0000001
 43
0.0000001
 44
0.0000000001
 40
0.0
 40
0.0
 40
0.0
 40
0.0
 40
0.2439259951
 40
0.4903472656
 40
0.7416849577
 40
1.0
 40
1.0
 40
1.0
 40
1.0
 10
16.7631182903
 20
13.0390973859
 30
0.0
 10
16.7631905229
 20
13.039331146
 30
0.0
 10
16.7633065294
 20
13.0398106392
 30
0.0
 10
16.7633912049
 20
13.0405515221
 30
0.0
 10
16.7633866919
 20
13.0413115632
 30
0.0
 10
16.7633253708
 20
13.0418202956
 30
0.0
 10
16.7632808647
 20
13.042075543
 30
0.0
  0
SPLINE
  5
3BE
100
AcDbEntity
  8
LAYER_FEATURE
100
AcDbSpline
 62
7
  6
CONTINUOUS
 70
0
 71
3
 72
15
 73
11
 74
0
 42
0.0000001
 43
0.0000001
 44
0.0000000001
 40
0.0
 40
0.0
 40
0.0
 40
0.0
 40
0.1187754264
 40
0.241501443
 40
0.3671647148
 40
0.4946672609
 40
0.6228600419
 40
0.7505759263
 40
0.8766572986
 40
1.0
 40
1.0
 40
1.0
 40
1.0
 10
16.7471231139
 20
12.9873595244
 30
0.0
 10
16.7485214645
 20
12.9863465762
 30
0.0
 10
16.7514503339
 20
12.9844031062
 30
0.0
 10
16.7561096156
 20
12.9817900378
 30
0.0
 10
16.7610565084
 20
12.9794581975
 30
0.0
 10
16.7662242152
 20
12.9774391621
 30
0.0
 10
16.7715433693
 20
12.9757599916
 30
0.0
 10
16.7769425025
 20
12.974443291
 30
0.0
 10
16.7823486804
 20
12.9735067285
 30
0.0
 10
16.7859597261
 20
12.9731390857
 30
0.0
 10
16.787749143
 20
12.9730244761
 30
0.0
  0
SPLINE
  5
3BF
100
AcDbEntity
  8
LAYER_FEATURE
100
AcDbSpline
 62
7
  6
CONTINUOUS
 70
0
 71
3
 72
13
 73
9
 74
0
 42
0.0000001
 43
0.0000001
 44
0.0000000001
 40
0.0
 40
0.0
 40
0.0
 40
0.0
 40
0.119188324
 40
0.238975281
 40
0.3599434297
 40
0.4826429904
 40
0.7350841356
 40
1.0
 40
1.0
 40
1.0
 40
1.0
 10
16.6869064657
 20
13.1321463933
 30
0.0
 10
16.6869567944
 20
13.1323092641
 30
0.0
 10
16.6870435785
 20
13.1326403818
 30
0.0
 10
16.6871307414
 20
13.133148366
 30
0.0
 10
16.6871748427
 20
13.1336669635
 30
0.0
 10
16.6871761992
 20
13.134377228
 30
0.0
 10
16.6870662121
 20
13.1352899776
 30
0.0
 10
16.6868697715
 20
13.1360061972
 30
0.0
 10
16.6867462551
 20
13.1363643963
 30
0.0
  0
SPLINE
  5
3C0
100
AcDbEntity
  8
LAYER_FEATURE
100
AcDbSpline
 62
7
  6
CONTINUOUS
 70
0
 71
3
 72
23
 73
19
 74
0
 42
0.0000001
 43
0.0000001
 44
0.0000000001
 40
0.0
 40
0.0
 40
0.0
 40
0.0
 40
0.0567030547
 40
0.1151288538
 40
0.175118043
 40
0.2364901024
 40
0.2990469227
 40
0.3625759918
 40
0.4268533729
 40
0.4916465396
 40
0.5567172056
 40
0.621824099
 40
0.6867254522
 40
0.7511817698
 40
0.8149590276
 40
0.8778282385
 40
0.939579195
 40
1.0
 40
1.0
 40
1.0
 40
1.0
 10
16.672423253
 20
13.0853770348
 30
0.0
 10
16.6731926006
 20
13.0846834355
 30
0.0
 10
16.6747964137
 20
13.0833208589
 30
0.0
 10
16.6773444153
 20
13.0813842474
 30
0.0
 10
16.6800589524
 20
13.0795329512
 30
0.0
 10
16.6829249954
 20
13.0777772186
 30
0.0
 10
16.6859268141
 20
13.0761266632
 30
0.0
 10
16.6890478876
 20
13.0745903688
 30
0.0
 10
16.6922710434
 20
13.0731767942
 30
0.0
 10
16.6955785325
 20
13.0718937205
 30
0.0
 10
16.6989521374
 20
13.0707482072
 30
0.0
 10
16.7023732772
 20
13.0697465641
 30
0.0
 10
16.7058231076
 20
13.0688943101
 30
0.0
 10
16.7092826397
 20
13.0681961409
 30
0.0
 10
16.7127327855
 20
13.0676559216
 30
0.0
 10
16.7161546585
 20
13.0672765618
 30
0.0
 10
16.7195292286
 20
13.0670602457
 30
0.0
 10
16.7217618538
 20
13.0670250501
 30
0.0
 10
16.7228655611
 20
13.0670359254
 30
0.0
  0
SPLINE
  5
3C1
100
AcDbEntity
  8
LAYER_FEATURE
100
AcDbSpline
 62
7
  6
CONTINUOUS
 70
0
 71
3
 72
15
 73
11
 74
0
 42
0.0000001
 43
0.0000001
 44
0.0000000001
 40
0.0
 40
0.0
 40
0.0
 40
0.0
 40
0.116024559
 40
0.2330027613
 40
0.3518502379
 40
0.4734132824
 40
0.5984325701
 40
0.7275482225
 40
0.8612923247
 40
1.0
 40
1.0
 40
1.0
 40
1.0
 10
16.5968696792
 20
13.2223018768
 30
0.0
 10
16.5969342597
 20
13.2225108763
 30
0.0
 10
16.5970406481
 20
13.2229381986
 30
0.0
 10
16.5971290178
 20
13.2235969263
 30
0.0
 10
16.5971462529
 20
13.224271796
 30
0.0
 10
16.5970923179
 20
13.224959829
 30
0.0
 10
16.5969676533
 20
13.2256581972
 30
0.0
 10
16.5967728403
 20
13.2263640919
 30
0.0
 10
16.5965088072
 20
13.227074565
 30
0.0
 10
16.5962915355
 20
13.22754069
 30
0.0
 10
16.5961724364
 20
13.2277735118
 30
0.0
  0
SPLINE
  5
3C2
100
AcDbEntity
  8
LAYER_FEATURE
100
AcDbSpline
 62
7
  6
CONTINUOUS
 70
0
 71
3
 72
23
 73
19
 74
0
 42
0.0000001
 43
0.0000001
 44
0.0000000001
 40
0.0
 40
0.0
 40
0.0
 40
0.0
 40
0.0541937443
 40
0.1107908743
 40
0.1696159776
 40
0.2304438743
 40
0.2930084515
 40
0.3570105704
 40
0.4221252638
 40
0.4880084103
 40
0.5543030528
 40
0.6206454771
 40
0.6866712101
 40
0.7520208991
 40
0.8163465931
 40
0.8793173383
 40
0.9406273378
 40
1.0
 40
1.0
 40
1.0
 40
1.0
 10
16.5841499451
 20
13.1812696593
 30
0.0
 10
16.5849249106
 20
13.1803771584
 30
0.0
 10
16.5865855984
 20
13.1786178195
 30
0.0
 10
16.5893192666
 20
13.1761209478
 30
0.0
 10
16.5923299847
 20
13.1737262292
 30
0.0
 10
16.5955931263
 20
13.1714532002
 30
0.0
 10
16.5990822866
 20
13.1693201616
 30
0.0
 10
16.6027691158
 20
13.1673444237
 30
0.0
 10
16.6066236538
 20
13.1655420268
 30
0.0
 10
16.6106145477
 20
13.1639276284
 30
0.0
 10
16.6147093208
 20
13.1625143657
 30
0.0
 10
16.6188746419
 20
13.1613137423
 30
0.0
 10
16.6230766025
 20
13.160335533
 30
0.0
 10
16.6272810114
 20
13.1595876958
 30
0.0
 10
16.6314536439
 20
13.1590763227
 30
0.0
 10
16.6355606638
 20
13.1588055707
 30
0.0
 10
16.6395684669
 20
13.1587776575
 30
0.0
 10
16.6421987781
 20
13.1589236918
 30
0.0
 10
16.6434885489
 20
13.1590394827
 30
0.0
  0
SPLINE
  5
3C3
100
AcDbEntity
  8
LAYER_FEATURE
100
AcDbSpline
 62
7
  6
CONTINUOUS
 70
0
 71
3
 72
15
 73
11
 74
0
 42
0.0000001
 43
0.0000001
 44
0.0000000001
 40
0.0
 40
0.0
 40
0.0
 40
0.0
 40
0.1126618137
 40
0.2266976825
 40
0.3434010351
 40
0.4639155037
 40
0.5891967441
 40
0.7199807798
 40
0.856819481
 40
1.0
 40
1.0
 40
1.0
 40
1.0
 10
16.4941402129
 20
13.3084300734
 30
0.0
 10
16.4942190672
 20
13.3086852466
 30
0.0
 10
16.4943428671
 20
13.3092102114
 30
0.0
 10
16.4944218398
 20
13.3100227252
 30
0.0
 10
16.4943944567
 20
13.3108572153
 30
0.0
 10
16.4942611529
 20
13.3117081865
 30
0.0
 10
16.4940231467
 20
13.3125704489
 30
0.0
 10
16.4936822065
 20
13.3134389233
 30
0.0
 10
16.4932406327
 20
13.3143083872
 30
0.0
 10
16.4928890591
 20
13.3148725277
 30
0.0
 10
16.4926984268
 20
13.3151533668
 30
0.0
  0
SPLINE
  5
3C4
100
AcDbEntity
  8
LAYER_FEATURE
100
AcDbSpline
 62
7
  6
CONTINUOUS
 70
0
 71
3
 72
28
 73
24
 74
0
 42
0.0000001
 43
0.0000001
 44
0.0000000001
 40
0.0
 40
0.0
 40
0.0
 40
0.0
 40
0.0253203385
 40
0.0514147387
 40
0.0782788003
 40
0.1058997594
 40
0.1342579645
 40
0.1633268293
 40
0.2234507495
 40
0.28596506
 40
0.3504825673
 40
0.4165638454
 40
0.4837311054
 40
0.5514810177
 40
0.6192968876
 40
0.6866605218
 40
0.7530640868
 40
0.8180220212
 40
0.8810843101
 40
0.9117810958
 40
0.9418588155
 40
0.9712797399
 40
1.0
 40
1.0
 40
1.0
 40
1.0
 10
16.4834244185
 20
13.273849269
 30
0.0
 10
16.4837684419
 20
13.2733129011
 30
0.0
 10
16.4844984478
 20
13.2722436489
 30
0.0
 10
16.4856946489
 20
13.2706773982
 30
0.0
 10
16.4870052828
 20
13.2691289084
 30
0.0
 10
16.4884265136
 20
13.2676025697
 30
0.0
 10
16.4899543812
 20
13.2661026885
 30
0.0
 10
16.4921524428
 20
13.2641216559
 30
0.0
 10
16.4951436474
 20
13.26174225
 30
0.0
 10
16.4990406506
 20
13.2590900997
 30
0.0
 10
16.5032414727
 20
13.256638985
 30
0.0
 10
16.5076985607
 20
13.2544166184
 30
0.0
 10
16.5123616728
 20
13.252448026
 30
0.0
 10
16.5171781137
 20
13.2507554568
 30
0.0
 10
16.5220934523
 20
13.2493580404
 30
0.0
 10
16.5270521106
 20
13.2482715705
 30
0.0
 10
16.5319981169
 20
13.247508322
 30
0.0
 10
16.5368754451
 20
13.2470769265
 30
0.0
 10
16.5408726291
 20
13.2469973221
 30
0.0
 10
16.5439877884
 20
13.2471076543
 30
0.0
 10
16.5462521318
 20
13.2472743438
 30
0.0
 10
16.5484586097
 20
13.247525253
 30
0.0
 10
16.5499048259
 20
13.2477509248
 30
0.0
 10
16.5506163182
 20
13.2478781497
 30
0.0
  0
SPLINE
  5
3C5
100
AcDbEntity
  8
LAYER_FEATURE
100
AcDbSpline
 62
7
  6
CONTINUOUS
 70
0
 71
3
 72
15
 73
11
 74
0
 42
0.0000001
 43
0.0000001
 44
0.0000000001
 40
0.0
 40
0.0
 40
0.0
 40
0.0
 40
0.1092508851
 40
0.2203433712
 40
0.3349769358
 40
0.4545897103
 40
0.5802901642
 40
0.7128419654
 40
0.8527007488
 40
1.0
 40
1.0
 40
1.0
 40
1.0
 10
16.3800099288
 20
13.3894478776
 30
0.0
 10
16.38010307
 20
13.3897493137
 30
0.0
 10
16.3802421053
 20
13.3903735449
 30
0.0
 10
16.3803008908
 20
13.3913428076
 30
0.0
 10
16.3802109785
 20
13.3923395969
 30
0.0
 10
16.3799739583
 20
13.393354815
 30
0.0
 10
16.3795926375
 20
13.3943800342
 30
0.0
 10
16.3790708214
 20
13.3954069901
 30
0.0
 10
16.3784132482
 20
13.3964273331
 30
0.0
 10
16.3779011345
 20
13.3970811424
 30
0.0
 10
16.3776254721
 20
13.397405109
 30
0.0
  0
SPLINE
  5
3C6
100
AcDbEntity
  8
LAYER_FEATURE
100
AcDbSpline
 62
7
  6
CONTINUOUS
 70
0
 71
3
 72
33
 73
29
 74
0
 42
0.0000001
 43
0.0000001
 44
0.0000000001
 40
0.0
 40
0.0
 40
0.0
 40
0.0
 40
0.0484286291
 40
0.0740021014
 40
0.1004928737
 40
0.1278987176
 40
0.1562045587
 40
0.1853836117
 40
0.2153985491
 40
0.2462030528
 40
0.2777426239
 40
0.3099555739
 40
0.342774219
 40
0.3761254787
 40
0.4099317624
 40
0.478570249
 40
0.5480200198
 40
0.6175743624
 40
0.6865233623
 40
0.7541756677
 40
0.7873163233
 40
0.81989366
 40
0.851836608
 40
0.8830801345
 40
0.9135649258
 40
0.9432394399
 40
0.9720645989
 40
1.0
 40
1.0
 40
1.0
 40
1.0
 10
16.3715324664
 20
13.3620430837
 30
0.0
 10
16.3720552507
 20
13.3607728729
 30
0.0
 10
16.3730127892
 20
13.3588941212
 30
0.0
 10
16.3745540294
 20
13.3564953104
 30
0.0
 10
16.3758905456
 20
13.3546782712
 30
0.0
 10
16.3773809506
 20
13.3528837687
 30
0.0
 10
16.3790197744
 20
13.3511182156
 30
0.0
 10
16.380800754
 20
13.3493883508
 30
0.0
 10
16.3827171252
 20
13.3477006381
 30
0.0
 10
16.3847616346
 20
13.3460614703
 30
0.0
 10
16.386926535
 20
13.3444770496
 30
0.0
 10
16.3892036002
 20
13.3429533461
 30
0.0
 10
16.3915841964
 20
13.3414961605
 30
0.0
 10
16.3940593252
 20
13.3401109938
 30
0.0
 10
16.3974899722
 20
13.3383584821
 30
0.0
 10
16.4019527661
 20
13.3363837566
 30
0.0
 10
16.4074990598
 20
13.3343888866
 30
0.0
 10
16.4131806245
 20
13.3327866376
 30
0.0
 10
16.4189113788
 20
13.3316012939
 30
0.0
 10
16.4236893766
 20
13.3309713194
 30
0.0
 10
16.4274628386
 20
13.3306943905
 30
0.0
 10
16.4302320153
 20
13.3306011716
 30
0.0
 10
16.4329488871
 20
13.330621382
 30
0.0
 10
16.4356031896
 20
13.3307549482
 30
0.0
 10
16.438184835
 20
13.3310013445
 30
0.0
 10
16.4406841615
 20
13.3313596994
 30
0.0
 10
16.4430914883
 20
13.33182868
 30
0.0
 10
16.4446540689
 20
13.3322201392
 30
0.0
 10
16.4454167913
 20
13.3324347289
 30
0.0
  0
SPLINE
  5
3C7
100
AcDbEntity
  8
LAYER_FEATURE
100
AcDbSpline
 62
7
  6
CONTINUOUS
 70
0
 71
3
 72
39
 73
35
 74
0
 42
0.0000001
 43
0.0000001
 44
0.0000000001
 40
0.0
 40
0.0
 40
0.0
 40
0.0
 40
0.022417095
 40
0.0456860869
 40
0.0699036616
 40
0.0951380386
 40
0.1214306766
 40
0.1487984526
 40
0.1772363197
 40
0.2067198475
 40
0.2372075169
 40
0.2686427691
 40
0.3009561198
 40
0.3340669728
 40
0.3678851925
 40
0.4023125443
 40
0.4372442163
 40
0.4725701396
 40
0.5081761969
 40
0.543945434
 40
0.5797593196
 40
0.6154988879
 40
0.651045869
 40
0.6862839197
 40
0.7210998338
 40
0.7553847133
 40
0.7890352326
 40
0.8219551087
 40
0.8540563899
 40
0.8852611532
 40
0.9155030029
 40
0.9447280737
 40
0.9729020537
 40
1.0
 40
1.0
 40
1.0
 40
1.0
 10
16.2500314094
 20
13.4447467906
 30
0.0
 10
16.2501459379
 20
13.4440519602
 30
0.0
 10
16.2504562287
 20
13.4426476397
 30
0.0
 10
16.2511409561
 20
13.4405578968
 30
0.0
 10
16.252049095
 20
13.4384584521
 30
0.0
 10
16.2531757865
 20
13.4363597556
 30
0.0
 10
16.2545152896
 20
13.4342718083
 30
0.0
 10
16.2560608657
 20
13.4322046806
 30
0.0
 10
16.2578048438
 20
13.4301683435
 30
0.0
 10
16.2597386276
 20
13.4281726705
 30
0.0
 10
16.2618527146
 20
13.4262273794
 30
0.0
 10
16.2641367029
 20
13.4243419534
 30
0.0
 10
16.2665793635
 20
13.4225256126
 30
0.0
 10
16.2691686918
 20
13.4207872639
 30
0.0
 10
16.2718919595
 20
13.4191354543
 30
0.0
 10
16.2747357572
 20
13.4175782941
 30
0.0
 10
16.2776860818
 20
13.4161234417
 30
0.0
 10
16.2807284054
 20
13.4147780637
 30
0.0
 10
16.2838477448
 20
13.4135487997
 30
0.0
 10
16.2870287239
 20
13.412441696
 30
0.0
 10
16.2902556652
 20
13.4114622042
 30
0.0
 10
16.2935126667
 20
13.4106151549
 30
0.0
 10
16.2967836802
 20
13.4099047353
 30
0.0
 10
16.3000525853
 20
13.409334434
 30
0.0
 10
16.3033032792
 20
13.4089070565
 30
0.0
 10
16.3065197549
 20
13.4086247128
 30
0.0
 10
16.3096861814
 20
13.4084888098
 30
0.0
 10
16.312786982
 20
13.4085000138
 30
0.0
 10
16.3158069187
 20
13.4086582737
 30
0.0
 10
16.3187311696
 20
13.4089628437
 30
0.0
 10
16.3215453449
 20
13.4094122853
 30
0.0
 10
16.3242357901
 20
13.4100044228
 30
0.0
 10
16.3267890428
 20
13.4107364445
 30
0.0
 10
16.3284236476
 20
13.4113269911
 30
0.0
 10
16.3292129132
 20
13.411645872
 30
0.0
  0
SPLINE
  5
3C8
100
AcDbEntity
  8
LAYER_FEATURE
100
AcDbSpline
 62
7
  6
CONTINUOUS
 70
0
 71
3
 72
11
 73
7
 74
0
 42
0.0000001
 43
0.0000001
 44
0.0000000001
 40
0.0
 40
0.0
 40
0.0
 40
0.0
 40
0.2465479299
 40
0.4944940924
 40
0.7452270119
 40
1.0
 40
1.0
 40
1.0
 40
1.0
 10
16.1229305963
 20
13.5280260686
 30
0.0
 10
16.123085612
 20
13.5285276993
 30
0.0
 10
16.1233500915
 20
13.5295488195
 30
0.0
 10
16.1236054363
 20
13.531117294
 30
0.0
 10
16.123719282
 20
13.5327198414
 30
0.0
 10
16.1237008597
 20
13.5337977547
 30
0.0
 10
16.1236688348
 20
13.5343393608
 30
0.0
  0
SPLINE
  5
3C9
100
AcDbEntity
  8
LAYER_FEATURE
100
AcDbSpline
 62
7
  6
CONTINUOUS
 70
0
 71
3
 72
40
 73
36
 74
0
 42
0.0000001
 43
0.0000001
 44
0.0000000001
 40
0.0
 40
0.0
 40
0.0
 40
0.0
 40
0.0107461498
 40
0.0216183754
 40
0.0438436621
 40
0.0668924057
 40
0.0909292375
 40
0.1160763004
 40
0.1424145578
 40
0.1699868112
 40
0.198801631
 40
0.2288374687
 40
0.2600466573
 40
0.2923590532
 40
0.3256853131
 40
0.3599198365
 40
0.3949434202
 40
0.430625681
 40
0.4668273447
 40
0.5034023728
 40
0.5401999839
 40
0.577066609
 40
0.6138478117
 40
0.6503902121
 40
0.6865434328
 40
0.7221620639
 40
0.7571076921
 40
0.791251026
 40
0.8244741712
 40
0.8566731067
 40
0.8877603316
 40
0.9176681921
 40
0.9463508577
 40
0.9737917234
 40
1.0
 40
1.0
 40
1.0
 40
1.0
 10
16.1206347123
 20
13.5206438494
 30
0.0
 10
16.1205969911
 20
13.5202775284
 30
0.0
 10
16.1205460056
 20
13.5195377748
 30
0.0
 10
16.1205415053
 20
13.5180344499
 30
0.0
 10
16.1207228795
 20
13.5161133955
 30
0.0
 10
16.1212297949
 20
13.51378767
 30
0.0
 10
16.122023245
 20
13.5114379862
 30
0.0
 10
16.1230974898
 20
13.5090789651
 30
0.0
 10
16.1244452878
 20
13.5067247364
 30
0.0
 10
16.1260579567
 20
13.5043894927
 30
0.0
 10
16.1279253349
 20
13.5020873261
 30
0.0
 10
16.1300357829
 20
13.4998322054
 30
0.0
 10
16.1323762149
 20
13.4976378846
 30
0.0
 10
16.1349321465
 20
13.4955178094
 30
0.0
 10
16.1376877642
 20
13.4934850201
 30
0.0
 10
16.1406260123
 20
13.4915520578
 30
0.0
 10
16.1437286914
 20
13.4897308762
 30
0.0
 10
16.1469765661
 20
13.4880327504
 30
0.0
 10
16.1503494897
 20
13.486468206
 30
0.0
 10
16.1538265316
 20
13.485046949
 30
0.0
 10
16.1573861091
 20
13.4837778017
 30
0.0
 10
16.1610061222
 20
13.4826686453
 30
0.0
 10
16.1646640945
 20
13.4817263708
 30
0.0
 10
16.1683373135
 20
13.4809568275
 30
0.0
 10
16.1720029777
 20
13.4803647894
 30
0.0
 10
16.1756383429
 20
13.47995393
 30
0.0
 10
16.1792208659
 20
13.4797268023
 30
0.0
 10
16.1827283479
 20
13.4796848256
 30
0.0
 10
16.1861390776
 20
13.4798282835
 30
0.0
 10
16.1894319635
 20
13.480156331
 30
0.0
 10
16.1925866945
 20
13.4806669952
 30
0.0
 10
16.1955837751
 20
13.4813572418
 30
0.0
 10
16.1984049013
 20
13.4822229894
 30
0.0
 10
16.201032323
 20
13.4832590655
 30
0.0
 10
16.2026816242
 20
13.4840780027
 30
0.0
 10
16.2034660152
 20
13.4845154531
 30
0.0
  0
SPLINE
  5
3CA
100
AcDbEntity
  8
02___PRT_ALL_AXES
100
AcDbSpline
 62
7
  6
CONTINUOUS
 70
0
 71
3
 72
40
 73
36
 74
0
 42
0.0000001
 43
0.0000001
 44
0.0000000001
 40
0.0
 40
0.0
 40
0.0
 40
0.0
 40
0.0248034546
 40
0.049664248
 40
0.0746390663
 40
0.0997833135
 40
0.1251505275
 40
0.1507918574
 40
0.1767556158
 40
0.2030869115
 40
0.2298273685
 40
0.2570149276
 40
0.2846837213
 40
0.3128640179
 40
0.3271552563
 40
0.3415839409
 40
0.3708626359
 40
0.4007206744
 40
0.4311732902
 40
0.4622322343
 40
0.4939059225
 40
0.5261995923
 40
0.5591154628
 40
0.5926528929
 40
0.6268085439
 40
0.6615765358
 40
0.6969485987
 40
0.7329142173
 40
0.7694607716
 40
0.8065736704
 40
0.8442364555
 40
0.8824310358
 40
0.9211374221
 40
0.960334881
 40
1.0
 40
1.0
 40
1.0
 40
1.0
 10
14.3587338478
 20
12.4751474662
 30
0.0
 10
14.3606855813
 20
12.4814632877
 30
0.0
 10
14.3649663669
 20
12.4939977586
 30
0.0
 10
14.3724918938
 20
12.5124234607
 30
0.0
 10
14.381116458
 20
12.5304623816
 30
0.0
 10
14.3908297009
 20
12.5480929652
 30
0.0
 10
14.4016203306
 20
12.5652952931
 30
0.0
 10
14.4134757252
 20
12.5820497246
 30
0.0
 10
14.4263820848
 20
12.5983372898
 30
0.0
 10
14.4403244338
 20
12.6141396114
 30
0.0
 10
14.4552866458
 20
12.6294389197
 30
0.0
 10
14.4712515556
 20
12.6442181142
 30
0.0
 10
14.4882006597
 20
12.6584605265
 30
0.0
 10
14.5030591771
 20
12.6698153217
 30
0.0
 10
14.5154092021
 20
12.6786175463
 30
0.0
 10
14.5281910015
 20
12.6873120824
 30
0.0
 10
14.544755952
 20
12.6978125617
 30
0.0
 10
14.5654385593
 20
12.7097558609
 30
0.0
 10
14.5869987051
 20
12.7210896369
 30
0.0
 10
14.6094117688
 20
12.731801109
 30
0.0
 10
14.632652508
 20
12.7418783873
 30
0.0
 10
14.656694675
 20
12.7513102228
 30
0.0
 10
14.6815111535
 20
12.7600860914
 30
0.0
 10
14.7070739511
 20
12.7681961943
 30
0.0
 10
14.73335424
 20
12.7756314688
 30
0.0
 10
14.7603223854
 20
12.7823835987
 30
0.0
 10
14.7879479772
 20
12.7884450255
 30
0.0
 10
14.8161998629
 20
12.7938089587
 30
0.0
 10
14.8450461819
 20
12.7984693845
 30
0.0
 10
14.874454393
 20
12.802421074
 30
0.0
 10
14.9043913392
 20
12.8056596064
 30
0.0
 10
14.934823188
 20
12.8081813269
 30
0.0
 10
14.9657157564
 20
12.8099834493
 30
0.0
 10
14.997033857
 20
12.8110638924
 30
0.0
 10
15.018052815
 20
12.811300941
 30
0.0
 10
15.0286241944
 20
12.811300941
 30
0.0
  0
SPLINE
  5
3CB
100
AcDbEntity
  8
02___PRT_ALL_AXES
100
AcDbSpline
 62
7
  6
CONTINUOUS
 70
0
 71
3
 72
72
 73
68
 74
0
 42
0.0000001
 43
0.0000001
 44
0.0000000001
 40
0.0
 40
0.0
 40
0.0
 40
0.0
 40
0.0171787517
 40
0.0345304647
 40
0.0520443931
 40
0.0697101079
 40
0.0875164383
 40
0.1054520335
 40
0.1235052196
 40
0.1416640668
 40
0.1599164188
 40
0.178249917
 40
0.196652031
 40
0.2151100848
 40
0.2336112856
 40
0.2521427506
 40
0.2706915347
 40
0.2892446567
 40
0.3077891261
 40
0.3263119704
 40
0.3448002623
 40
0.3632411461
 40
0.381621865
 40
0.399929788
 40
0.4181524382
 40
0.4362775214
 40
0.4542929531
 40
0.472186888
 40
0.4899477485
 40
0.5075642561
 40
0.5250254628
 40
0.5423207814
 40
0.559440018
 40
0.5763734053
 40
0.5931116383
 40
0.6096459119
 40
0.6259679567
 40
0.6420700777
 40
0.6579451952
 40
0.6735868871
 40
0.6889894362
 40
0.704147875
 40
0.7190580337
 40
0.7337165906
 40
0.7481211248
 40
0.7622701734
 40
0.7761632875
 40
0.7898010885
 40
0.8031853264
 40
0.8163189386
 40
0.8292061084
 40
0.8418523217
 40
0.8542644161
 40
0.8603855312
 40
0.866451324
 40
0.878421314
 40
0.8901862084
 40
0.9017586001
 40
0.9131525417
 40
0.9243835152
 40
0.9354683778
 40
0.9464252807
 40
0.9572735599
 40
0.9680335958
 40
0.9787266445
 40
0.989374644
 40
1.0
 40
1.0
 40
1.0
 40
1.0
 10
15.0286241944
 20
12.811300941
 30
0.0
 10
15.0388845124
 20
12.811300941
 30
0.0
 10
15.059509111
 20
12.811075175
 30
0.0
 10
15.0905795601
 20
12.8100720422
 30
0.0
 10
15.1219127493
 20
12.8084036504
 30
0.0
 10
15.1534757342
 20
12.8060718041
 30
0.0
 10
15.1852358403
 20
12.8030788871
 30
0.0
 10
15.2171599501
 20
12.7994280314
 30
0.0
 10
15.2492148556
 20
12.7951230334
 30
0.0
 10
15.2813671895
 20
12.7901683791
 30
0.0
 10
15.3135834858
 20
12.7845692271
 30
0.0
 10
15.3458302114
 20
12.7783314046
 30
0.0
 10
15.378073799
 20
12.7714614012
 30
0.0
 10
15.4102806845
 20
12.7639663674
 30
0.0
 10
15.4424173421
 20
12.7558541094
 30
0.0
 10
15.4744503185
 20
12.747133073
 30
0.0
 10
15.5063462679
 20
12.7378123364
 30
0.0
 10
15.5380719861
 20
12.7279016
 30
0.0
 10
15.5695944454
 20
12.7174111776
 30
0.0
 10
15.6008808322
 20
12.7063519936
 30
0.0
 10
15.6318985787
 20
12.6947355624
 30
0.0
 10
15.6626153965
 20
12.6825739763
 30
0.0
 10
15.6929993098
 20
12.6698798939
 30
0.0
 10
15.7230186887
 20
12.6566665249
 30
0.0
 10
15.7526422861
 20
12.6429476254
 30
0.0
 10
15.7818392689
 20
12.6287374777
 30
0.0
 10
15.8105792475
 20
12.6140508722
 30
0.0
 10
15.8388323082
 20
12.5989030937
 30
0.0
 10
15.8665690428
 20
12.5833099029
 30
0.0
 10
15.8937605841
 20
12.5672875262
 30
0.0
 10
15.9203786362
 20
12.5508526388
 30
0.0
 10
15.9463955001
 20
12.5340223404
 30
0.0
 10
15.9717841024
 20
12.5168141395
 30
0.0
 10
15.9965180225
 20
12.4992459335
 30
0.0
 10
16.020571522
 20
12.481335991
 30
0.0
 10
16.0439195774
 20
12.4631029394
 30
0.0
 10
16.0665378989
 20
12.4445657354
 30
0.0
 10
16.0884029547
 20
12.4257436473
 30
0.0
 10
16.1094919953
 20
12.4066562342
 30
0.0
 10
16.1297830754
 20
12.3873233231
 30
0.0
 10
16.1492550859
 20
12.3677649966
 30
0.0
 10
16.1678877689
 20
12.3480015645
 30
0.0
 10
16.1856617345
 20
12.328053541
 30
0.0
 10
16.2025584801
 20
12.3079416247
 30
0.0
 10
16.2185604066
 20
12.2876866746
 30
0.0
 10
16.233650843
 20
12.2673096935
 30
0.0
 10
16.2478140623
 20
12.2468318048
 30
0.0
 10
16.2610352864
 20
12.2262742286
 30
0.0
 10
16.2733007031
 20
12.205658255
 30
0.0
 10
16.2845974645
 20
12.1850052533
 30
0.0
 10
16.2949137437
 20
12.1643365401
 30
0.0
 10
16.304238601
 20
12.1436737756
 30
0.0
 10
16.311207019
 20
12.1263979744
 30
0.0
 10
16.3162689547
 20
12.1126042626
 30
0.0
 10
16.3209486752
 20
12.0989551479
 30
0.0
 10
16.3261719677
 20
12.0819332218
 30
0.0
 10
16.3314431626
 20
12.0615072284
 30
0.0
 10
16.3356840652
 20
12.0411935049
 30
0.0
 10
16.3388899204
 20
12.0210134408
 30
0.0
 10
16.3410571297
 20
12.0009880577
 30
0.0
 10
16.3421831462
 20
11.9811383438
 30
0.0
 10
16.3422665208
 20
11.9614851504
 30
0.0
 10
16.3413069172
 20
11.9420491701
 30
0.0
 10
16.3393051544
 20
11.9228509924
 30
0.0
 10
16.3362631059
 20
11.9039107451
 30
0.0
 10
16.3321840973
 20
11.8852492861
 30
0.0
 10
16.3287744782
 20
11.8730011591
 30
0.0
 10
16.3269007864
 20
11.8669378812
 30
0.0
  0
SPLINE
  5
3CC
100
AcDbEntity
  8
LAYER_CHAMFER_FEAT
100
AcDbSpline
 62
7
  6
CONTINUOUS
 70
0
 71
3
 72
45
 73
41
 74
0
 42
0.0000001
 43
0.0000001
 44
0.0000000001
 40
0.0
 40
0.0
 40
0.0
 40
0.0
 40
0.0106260319
 40
0.0212747099
 40
0.031968437
 40
0.0427291605
 40
0.053578127
 40
0.064535731
 40
0.0756212941
 40
0.0868529867
 40
0.0982476485
 40
0.1098207825
 40
0.1215864205
 40
0.1335571769
 40
0.1581516049
 40
0.1836817504
 40
0.2101969448
 40
0.2377257324
 40
0.2662776555
 40
0.2958451198
 40
0.3264052175
 40
0.3579214464
 40
0.3903453004
 40
0.4236177281
 40
0.4576704682
 40
0.492427278
 40
0.52780507
 40
0.5637149736
 40
0.6000633356
 40
0.6367526737
 40
0.6736825931
 40
0.7107506774
 40
0.7478533607
 40
0.7848867904
 40
0.8217476894
 40
0.8583342142
 40
0.894546855
 40
0.9302892704
 40
0.9654693741
 40
1.0
 40
1.0
 40
1.0
 40
1.0
 10
14.9617481521
 20
11.7846499537
 30
0.0
 10
14.9612933738
 20
11.783178284
 30
0.0
 10
14.9604657737
 20
11.7802054436
 30
0.0
 10
14.9594757535
 20
11.7756759569
 30
0.0
 10
14.9587373614
 20
11.7710788143
 30
0.0
 10
14.9582515268
 20
11.7664190596
 30
0.0
 10
14.9580185858
 20
11.7617015897
 30
0.0
 10
14.9580388501
 20
11.7569313979
 30
0.0
 10
14.9583121279
 20
11.7521135039
 30
0.0
 10
14.9588381731
 20
11.747252979
 30
0.0
 10
14.9596162726
 20
11.7423548948
 30
0.0
 10
14.9606456319
 20
11.7374244081
 30
0.0
 10
14.9619250619
 20
11.7324665476
 30
0.0
 10
14.9639808882
 20
11.7257669069
 30
0.0
 10
14.9671873162
 20
11.7173435213
 30
0.0
 10
14.9719715457
 20
11.7073048039
 30
0.0
 10
14.9777061254
 20
11.6972846221
 30
0.0
 10
14.9843664453
 20
11.6873243677
 30
0.0
 10
14.9919245565
 20
11.6774644524
 30
0.0
 10
15.0003489091
 20
11.667745213
 30
0.0
 10
15.0096044965
 20
11.6582064622
 30
0.0
 10
15.0196529258
 20
11.6488873993
 30
0.0
 10
15.0304525472
 20
11.6398264083
 30
0.0
 10
15.0419586012
 20
11.6310608882
 30
0.0
 10
15.0541233905
 20
11.6226270783
 30
0.0
 10
15.0668964694
 20
11.6145598932
 30
0.0
 10
15.0802248495
 20
11.6068927644
 30
0.0
 10
15.0940532186
 20
11.5996574911
 30
0.0
 10
15.1083241709
 20
11.5928840997
 30
0.0
 10
15.1229784479
 20
11.586600712
 30
0.0
 10
15.1379551867
 20
11.5808334236
 30
0.0
 10
15.1531921761
 20
11.5756061908
 30
0.0
 10
15.1686261185
 20
11.5709407289
 30
0.0
 10
15.1841928975
 20
11.5668564193
 30
0.0
 10
15.1998278444
 20
11.5633702292
 30
0.0
 10
15.2154660257
 20
11.5604966376
 30
0.0
 10
15.2310424649
 20
11.5582475836
 30
0.0
 10
15.2464926051
 20
11.5566324031
 30
0.0
 10
15.2617519224
 20
11.5556578209
 30
0.0
 10
15.2718583033
 20
11.5554356222
 30
0.0
 10
15.2768638187
 20
11.5554356222
 30
0.0
  0
SPLINE
  5
3CD
100
AcDbEntity
  8
LAYER_CHAMFER_FEAT
100
AcDbSpline
 62
7
  6
CONTINUOUS
 70
0
 71
3
 72
34
 73
30
 74
0
 42
0.0000001
 43
0.0000001
 44
0.0000000001
 40
0.0
 40
0.0
 40
0.0
 40
0.0
 40
0.0248047675
 40
0.0496668824
 40
0.0746430189
 40
0.0997886065
 40
0.1251571574
 40
0.1507998561
 40
0.1767649808
 40
0.2030976807
 40
0.2298395455
 40
0.2570285542
 40
0.3128656321
 40
0.3708522315
 40
0.431154191
 40
0.4622147862
 40
0.4938901485
 40
0.52618554
 40
0.5591031437
 40
0.5926423593
 40
0.6267998059
 40
0.6615696675
 40
0.6969435869
 40
0.7329110896
 40
0.7694595791
 40
0.8065746206
 40
0.8442393006
 40
0.9211385446
 40
1.0
 40
1.0
 40
1.0
 40
1.0
 10
15.4394585521
 20
11.6370262749
 30
0.0
 10
15.4389848316
 20
11.6354933082
 30
0.0
 10
15.4379458244
 20
11.6324509541
 30
0.0
 10
15.4361192138
 20
11.6279787076
 30
0.0
 10
15.4340258985
 20
11.6236003163
 30
0.0
 10
15.431668292
 20
11.6193210617
 30
0.0
 10
15.4290492264
 20
11.6151457265
 30
0.0
 10
15.4261716865
 20
11.6110791312
 30
0.0
 10
15.4230390859
 20
11.6071258231
 30
0.0
 10
15.4196550256
 20
11.6032903312
 30
0.0
 10
15.416023368
 20
11.5995768505
 30
0.0
 10
15.410811151
 20
11.5947517034
 30
0.0
 10
15.4036741473
 20
11.5890483868
 30
0.0
 10
15.3942727213
 20
11.5828218091
 30
0.0
 10
15.3857965054
 20
11.5781641133
 30
0.0
 10
15.3786144715
 20
11.5747317364
 30
0.0
 10
15.3729734296
 20
11.5722857468
 30
0.0
 10
15.3671379731
 20
11.569996488
 30
0.0
 10
15.3611145533
 20
11.5678664076
 30
0.0
 10
15.3549099899
 20
11.5658979498
 30
0.0
 10
15.3485312818
 20
11.5640932556
 30
0.0
 10
15.3419856117
 20
11.5624544064
 30
0.0
 10
15.3352803762
 20
11.5609831696
 30
0.0
 10
15.3284231203
 20
11.5596812611
 30
0.0
 10
15.3214215866
 20
11.5585500707
 30
0.0
 10
15.314283639
 20
11.5575909396
 30
0.0
 10
15.3045282907
 20
11.5565356227
 30
0.0
 10
15.2920418973
 20
11.5556613662
 30
0.0
 10
15.2819649611
 20
11.5554356222
 30
0.0
 10
15.2768638187
 20
11.5554356222
 30
0.0
  0
SPLINE
  5
3CE
100
AcDbEntity
  8
LAYER_CUT_FEAT
100
AcDbSpline
 62
7
  6
CONTINUOUS
 70
0
 71
3
 72
22
 73
18
 74
0
 42
0.0000001
 43
0.0000001
 44
0.0000000001
 40
0.0
 40
0.0
 40
0.0
 40
0.0
 40
0.1381197631
 40
0.2053664309
 40
0.2714549167
 40
0.336437138
 40
0.400372579
 40
0.4633278437
 40
0.5253764097
 40
0.5865986125
 40
0.6470813093
 40
0.7069174431
 40
0.7662055021
 40
0.8250488573
 40
0.8835549588
 40
0.9418344159
 40
1.0
 40
1.0
 40
1.0
 40
1.0
 10
16.4490115709
 20
12.1710426737
 30
0.0
 10
16.4564301518
 20
12.1559251952
 30
0.0
 10
16.4666523747
 20
12.1330327532
 30
0.0
 10
16.4783111383
 20
12.1020512755
 30
0.0
 10
16.4858922412
 20
12.0790836315
 30
0.0
 10
16.4923792964
 20
12.056202893
 30
0.0
 10
16.4977661794
 20
12.0334302801
 30
0.0
 10
16.5020474346
 20
12.0107877394
 30
0.0
 10
16.5052187057
 20
11.9882969055
 30
0.0
 10
16.5072766814
 20
11.9659793862
 30
0.0
 10
16.5082191526
 20
11.9438566556
 30
0.0
 10
16.5080449692
 20
11.9219500621
 30
0.0
 10
16.5067540469
 20
11.900280783
 30
0.0
 10
16.5043474563
 20
11.8788698909
 30
0.0
 10
16.5008273222
 20
11.8577379792
 30
0.0
 10
16.4961971919
 20
11.8369063923
 30
0.0
 10
16.4923715116
 20
11.8232260284
 30
0.0
 10
16.4902777477
 20
11.8164505816
 30
0.0
  0
SPLINE
  5
3CF
100
AcDbEntity
  8
02___PRT_ALL_AXES
100
AcDbSpline
 62
7
  6
CONTINUOUS
 70
0
 71
3
 72
24
 73
20
 74
0
 42
0.0000001
 43
0.0000001
 44
0.0000000001
 40
0.0
 40
0.0
 40
0.0
 40
0.0
 40
0.0686670969
 40
0.1026666798
 40
0.1364359347
 40
0.2032761802
 40
0.2691950869
 40
0.3341994892
 40
0.3983068313
 40
0.461543452
 40
0.5239446436
 40
0.5855542631
 40
0.646424372
 40
0.706614964
 40
0.7661937682
 40
0.8252359038
 40
0.8838237393
 40
0.9420465262
 40
1.0
 40
1.0
 40
1.0
 40
1.0
 10
14.9926773454
 20
12.6949768949
 30
0.0
 10
14.9957263984
 20
12.6949768949
 30
0.0
 10
15.000286737
 20
12.6948445855
 30
0.0
 10
15.0063290274
 20
12.6943962158
 30
0.0
 10
15.0122743982
 20
12.6937733266
 30
0.0
 10
15.0195905615
 20
12.6926654871
 30
0.0
 10
15.0281788202
 20
12.6908063135
 30
0.0
 10
15.0365132354
 20
12.6884313865
 30
0.0
 10
15.0445611829
 20
12.6855528836
 30
0.0
 10
15.052291348
 20
12.6821853137
 30
0.0
 10
15.0596735168
 20
12.6783454457
 30
0.0
 10
15.0666787599
 20
12.6740521021
 30
0.0
 10
15.0732794895
 20
12.6693259924
 30
0.0
 10
15.0794495287
 20
12.664189549
 30
0.0
 10
15.0851641717
 20
12.6586667475
 30
0.0
 10
15.0904002056
 20
12.6527830252
 30
0.0
 10
15.0951360861
 20
12.6465648983
 30
0.0
 10
15.0993515526
 20
12.640040753
 30
0.0
 10
15.101807716
 20
12.6354972754
 30
0.0
 10
15.1029413715
 20
12.6331871107
 30
0.0
  0
SPLINE
  5
3D0
100
AcDbEntity
  8
LAYER_FEATURE
100
AcDbSpline
 62
7
  6
CONTINUOUS
 70
0
 71
3
 72
40
 73
36
 74
0
 42
0.0000001
 43
0.0000001
 44
0.0000000001
 40
0.0
 40
0.0
 40
0.0
 40
0.0
 40
0.0475528176
 40
0.0938225799
 40
0.1387499828
 40
0.1822938832
 40
0.2244186061
 40
0.2650921887
 40
0.3042902519
 40
0.3419970382
 40
0.3782059438
 40
0.412920084
 40
0.4461547161
 40
0.4779376844
 40
0.5083122563
 40
0.5373379493
 40
0.5650935089
 40
0.5785276145
 40
0.591683334
 40
0.6172186273
 40
0.6418495677
 40
0.6657441324
 40
0.6890916527
 40
0.7120987528
 40
0.7349837942
 40
0.7579694227
 40
0.7812746724
 40
0.805107721
 40
0.8296596206
 40
0.8551006562
 40
0.8815779588
 40
0.9092154138
 40
0.9381144436
 40
0.9683554124
 40
1.0
 40
1.0
 40
1.0
 40
1.0
 10
16.1758429219
 20
12.0078082423
 30
0.0
 10
16.1762792772
 20
12.0092202884
 30
0.0
 10
16.1771735085
 20
12.0119961427
 30
0.0
 10
16.1786000309
 20
12.0160661797
 30
0.0
 10
16.1800914892
 20
12.0199798899
 30
0.0
 10
16.1816451624
 20
12.0237302925
 30
0.0
 10
16.1832584033
 20
12.0273109991
 30
0.0
 10
16.1849284266
 20
12.0307158341
 30
0.0
 10
16.1866523447
 20
12.0339388793
 30
0.0
 10
16.1884272073
 20
12.0369745588
 30
0.0
 10
16.1902499422
 20
12.0398176629
 30
0.0
 10
16.1921175093
 20
12.0424632596
 30
0.0
 10
16.1940266925
 20
12.04490683
 30
0.0
 10
16.1959743698
 20
12.0471440991
 30
0.0
 10
16.1979572732
 20
12.0491712595
 30
0.0
 10
16.1999721365
 20
12.0509846199
 30
0.0
 10
16.2016935564
 20
12.0523293767
 30
0.0
 10
16.2030827059
 20
12.0532908763
 30
0.0
 10
16.2044506377
 20
12.0541594456
 30
0.0
 10
16.2061760331
 20
12.0551115109
 30
0.0
 10
16.2082856689
 20
12.0560402871
 30
0.0
 10
16.2104102633
 20
12.0567418468
 30
0.0
 10
16.2125458142
 20
12.0572144245
 30
0.0
 10
16.2146881904
 20
12.0574566278
 30
0.0
 10
16.2168330049
 20
12.057467852
 30
0.0
 10
16.2189758039
 20
12.0572479373
 30
0.0
 10
16.2211122147
 20
12.0567976629
 30
0.0
 10
16.2232380233
 20
12.0561181729
 30
0.0
 10
16.2253493219
 20
12.0552113079
 30
0.0
 10
16.2274423899
 20
12.0540791175
 30
0.0
 10
16.2295137405
 20
12.052724051
 30
0.0
 10
16.2315599855
 20
12.0511487787
 30
0.0
 10
16.2335778174
 20
12.0493562105
 30
0.0
 10
16.2355639332
 20
12.0473496814
 30
0.0
 10
16.2368354027
 20
12.045904927
 30
0.0
 10
16.2374656315
 20
12.0451498792
 30
0.0
  0
SPLINE
  5
3D1
100
AcDbEntity
  8
LAYER_FEATURE
100
AcDbSpline
 62
7
  6
CONTINUOUS
 70
0
 71
3
 72
11
 73
7
 74
0
 42
0.0000001
 43
0.0000001
 44
0.0000000001
 40
0.0
 40
0.0
 40
0.0
 40
0.0
 40
0.2720956858
 40
0.5287338649
 40
0.770912369
 40
1.0
 40
1.0
 40
1.0
 40
1.0
 10
16.2126551368
 20
11.7776319243
 30
0.0
 10
16.2116474323
 20
11.7764246357
 30
0.0
 10
16.2096099095
 20
11.7741430276
 30
0.0
 10
16.2063906885
 20
11.7710556287
 30
0.0
 10
16.2031086616
 20
11.7684148808
 30
0.0
 10
16.2008253665
 20
11.7669193466
 30
0.0
 10
16.1996790905
 20
11.766256723
 30
0.0
  0
SPLINE
  5
3D2
100
AcDbEntity
  8
LAYER_FEATURE
100
AcDbSpline
 62
7
  6
CONTINUOUS
 70
0
 71
3
 72
62
 73
58
 74
0
 42
0.0000001
 43
0.0000001
 44
0.0000000001
 40
0.0
 40
0.0
 40
0.0
 40
0.0
 40
0.0176368703
 40
0.0357029701
 40
0.0541722179
 40
0.0730216097
 40
0.0922270393
 40
0.1117621965
 40
0.1517110522
 40
0.1926448758
 40
0.2343275566
 40
0.2765151229
 40
0.3189583509
 40
0.3614053994
 40
0.4036043865
 40
0.4453059714
 40
0.4862659686
 40
0.5262480355
 40
0.5458022246
 40
0.5650283329
 40
0.5839003286
 40
0.6023931846
 40
0.6204831344
 40
0.6381475746
 40
0.6553654809
 40
0.6721172207
 40
0.6883850668
 40
0.704153034
 40
0.719407383
 40
0.7341366245
 40
0.7483319215
 40
0.761987374
 40
0.7751002913
 40
0.7876718096
 40
0.7997070857
 40
0.8112162192
 40
0.8222144837
 40
0.8327234203
 40
0.8427712074
 40
0.8476339873
 40
0.852395557
 40
0.8616365231
 40
0.8705483464
 40
0.8791917829
 40
0.8876353014
 40
0.8959537942
 40
0.9042263978
 40
0.9125338979
 40
0.920955849
 40
0.9295678143
 40
0.9384392881
 40
0.9476320891
 40
0.9571997416
 40
0.9671872559
 40
0.9776314532
 40
0.9885616133
 40
1.0
 40
1.0
 40
1.0
 40
1.0
 10
16.1758429219
 20
12.0078082423
 30
0.0
 10
16.1753943602
 20
12.006356696
 30
0.0
 10
16.1745223394
 20
12.0034070318
 30
0.0
 10
16.1733026542
 20
11.9989023618
 30
0.0
 10
16.1721573542
 20
11.9942705338
 30
0.0
 10
16.1710884494
 20
11.9895198665
 30
0.0
 10
16.1700977783
 20
11.9846585291
 30
0.0
 10
16.1688744668
 20
11.9779910033
 30
0.0
 10
16.1675570442
 20
11.9694395428
 30
0.0
 10
16.1663235704
 20
11.9589517266
 30
0.0
 10
16.1654347002
 20
11.9482356011
 30
0.0
 10
16.1648966885
 20
11.9373660546
 30
0.0
 10
16.1647133301
 20
11.9264189213
 30
0.0
 10
16.1648859166
 20
11.9154706294
 30
0.0
 10
16.1654132327
 20
11.9045976155
 30
0.0
 10
16.1662915609
 20
11.8938757404
 30
0.0
 10
16.1675147172
 20
11.8833799299
 30
0.0
 10
16.1688236731
 20
11.8748203418
 30
0.0
 10
16.1700403426
 20
11.8681452165
 30
0.0
 10
16.1710262268
 20
11.8632774307
 30
0.0
 10
16.1720904472
 20
11.8585198064
 30
0.0
 10
16.1732311748
 20
11.8538806432
 30
0.0
 10
16.1744463707
 20
11.8493680444
 30
0.0
 10
16.1757339579
 20
11.8449898966
 30
0.0
 10
16.1770916247
 20
11.8407538314
 30
0.0
 10
16.1785170596
 20
11.8366672507
 30
0.0
 10
16.180007712
 20
11.8327372648
 30
0.0
 10
16.1815610349
 20
11.8289707325
 30
0.0
 10
16.1831742821
 20
11.8253741965
 30
0.0
 10
16.184844676
 20
11.8219539163
 30
0.0
 10
16.1865693162
 20
11.8187158279
 30
0.0
 10
16.1883452137
 20
11.8156655391
 30
0.0
 10
16.1901693522
 20
11.8128083477
 30
0.0
 10
16.192038568
 20
11.8101491698
 30
0.0
 10
16.1939497639
 20
11.8076926427
 30
0.0
 10
16.1958996529
 20
11.8054429804
 30
0.0
 10
16.1978851026
 20
11.8034041401
 30
0.0
 10
16.1999026851
 20
11.8015797212
 30
0.0
 10
16.2016267021
 20
11.8002262622
 30
0.0
 10
16.2030180119
 20
11.7992581335
 30
0.0
 10
16.2043880461
 20
11.7983834475
 30
0.0
 10
16.2061161392
 20
11.7974241539
 30
0.0
 10
16.2082293419
 20
11.7964873805
 30
0.0
 10
16.2103576502
 20
11.7957785876
 30
0.0
 10
16.2124970814
 20
11.7952996885
 30
0.0
 10
16.2146434501
 20
11.7950519184
 30
0.0
 10
16.2167923669
 20
11.7950361269
 30
0.0
 10
16.2189393508
 20
11.7952522357
 30
0.0
 10
16.2210799728
 20
11.7956997273
 30
0.0
 10
16.2232100364
 20
11.7963772258
 30
0.0
 10
16.2253255499
 20
11.7972830736
 30
0.0
 10
16.2274228212
 20
11.7984150768
 30
0.0
 10
16.2294983086
 20
11.7997708489
 30
0.0
 10
16.2315486088
 20
11.8013476853
 30
0.0
 10
16.2335704281
 20
11.8031426337
 30
0.0
 10
16.2355603767
 20
11.8051524029
 30
0.0
 10
16.2368342369
 20
11.8065996982
 30
0.0
 10
16.2374656333
 20
11.8073561397
 30
0.0
  0
SPLINE
  5
3D3
100
AcDbEntity
  8
02___PRT_ALL_AXES
100
AcDbSpline
 62
7
  6
CONTINUOUS
 70
0
 71
3
 72
61
 73
57
 74
0
 42
0.0000001
 43
0.0000001
 44
0.0000000001
 40
0.0
 40
0.0
 40
0.0
 40
0.0
 40
0.0141991294
 40
0.0288139205
 40
0.0438381796
 40
0.059266713
 40
0.0750923601
 40
0.0913055
 40
0.1078950274
 40
0.1248484922
 40
0.1421519639
 40
0.1597902663
 40
0.1960025162
 40
0.2333438724
 40
0.2716554523
 40
0.3107655044
 40
0.3504912768
 40
0.3906405704
 40
0.4310130669
 40
0.4714017839
 40
0.5115944894
 40
0.5513752443
 40
0.5905263676
 40
0.6288306712
 40
0.6660741625
 40
0.6842332224
 40
0.702049889
 40
0.7194996751
 40
0.736559056
 40
0.7532053388
 40
0.769417041
 40
0.7851738359
 40
0.8004567565
 40
0.8152484209
 40
0.829533001
 40
0.8432966969
 40
0.8565275354
 40
0.8692160524
 40
0.8813551127
 40
0.8929405964
 40
0.9039715067
 40
0.9144505629
 40
0.924384773
 40
0.9337859755
 40
0.9426718987
 40
0.9510668042
 40
0.9590029306
 40
0.9665212707
 40
0.9736728701
 40
0.9805192569
 40
0.9838514295
 40
0.9871351436
 40
0.9903808449
 40
0.9935993995
 40
0.9968019911
 40
1.0
 40
1.0
 40
1.0
 40
1.0
 10
16.2555632919
 20
12.0547186276
 30
0.0
 10
16.2562176533
 20
12.0533851792
 30
0.0
 10
16.2574924394
 20
12.0506528985
 30
0.0
 10
16.2592788628
 20
12.0464283212
 30
0.0
 10
16.2609646294
 20
12.0420245945
 30
0.0
 10
16.2625476012
 20
12.0374487334
 30
0.0
 10
16.2640259977
 20
12.0327076489
 30
0.0
 10
16.265398314
 20
12.027808597
 30
0.0
 10
16.2666634011
 20
12.022759105
 30
0.0
 10
16.2678203414
 20
12.0175668798
 30
0.0
 10
16.2688686843
 20
12.0122398074
 30
0.0
 10
16.27013221
 20
12.0049039129
 30
0.0
 10
16.2714298048
 20
11.9954497845
 30
0.0
 10
16.2725432902
 20
11.9837978916
 30
0.0
 10
16.2732342936
 20
11.9718099325
 30
0.0
 10
16.2735142053
 20
11.959556216
 30
0.0
 10
16.2733975598
 20
11.9471078727
 30
0.0
 10
16.2729015491
 20
11.934536931
 30
0.0
 10
16.2720455479
 20
11.9219160342
 30
0.0
 10
16.270850648
 20
11.9093182854
 30
0.0
 10
16.2693392127
 20
11.8968170393
 30
0.0
 10
16.2675344428
 20
11.8844856654
 30
0.0
 10
16.2654599698
 20
11.872397196
 30
0.0
 10
16.2631394374
 20
11.8606240058
 30
0.0
 10
16.261002469
 20
11.851056004
 30
0.0
 10
16.2591851953
 20
11.8436151439
 30
0.0
 10
16.257786065
 20
11.8382041484
 30
0.0
 10
16.2563419885
 20
11.8329241426
 30
0.0
 10
16.2548555156
 20
11.8277832299
 30
0.0
 10
16.2533291296
 20
11.822789288
 30
0.0
 10
16.2517652007
 20
11.8179499634
 30
0.0
 10
16.2501660001
 20
11.8132726365
 30
0.0
 10
16.2485336831
 20
11.8087644118
 30
0.0
 10
16.2468702942
 20
11.8044321049
 30
0.0
 10
16.2451777516
 20
11.8002822114
 30
0.0
 10
16.2434578659
 20
11.7963209193
 30
0.0
 10
16.2417123072
 20
11.7925540716
 30
0.0
 10
16.2399426479
 20
11.7889871821
 30
0.0
 10
16.238150312
 20
11.7856254085
 30
0.0
 10
16.2363366245
 20
11.7824735632
 30
0.0
 10
16.2345027753
 20
11.7795361012
 30
0.0
 10
16.2326498282
 20
11.7768171331
 30
0.0
 10
16.2307787435
 20
11.7743204096
 30
0.0
 10
16.2288903029
 20
11.7720493739
 30
0.0
 10
16.2269852258
 20
11.7700071148
 30
0.0
 10
16.2250639995
 20
11.7681965055
 30
0.0
 10
16.223127107
 20
11.7666201211
 30
0.0
 10
16.2211747727
 20
11.7652804546
 30
0.0
 10
16.219207571
 20
11.7641798802
 30
0.0
 10
16.2175408068
 20
11.7634573983
 30
0.0
 10
16.2162061116
 20
11.7630061703
 30
0.0
 10
16.2152111281
 20
11.7627315137
 30
0.0
 10
16.2142134627
 20
11.7625177649
 30
0.0
 10
16.2132132072
 20
11.7623650078
 30
0.0
 10
16.2122105536
 20
11.7622733479
 30
0.0
 10
16.2115408153
 20
11.7622530213
 30
0.0
 10
16.2112062756
 20
11.7622530228
 30
0.0
  0
SPLINE
  5
3D4
100
AcDbEntity
  8
LAYER_CHAMFER_FEAT
100
AcDbSpline
 62
7
  6
CONTINUOUS
 70
0
 71
3
 72
72
 73
68
 74
0
 42
0.0000001
 43
0.0000001
 44
0.0000000001
 40
0.0
 40
0.0
 40
0.0
 40
0.0
 40
0.0157581997
 40
0.0311479129
 40
0.0461654535
 40
0.0608098848
 40
0.0750832742
 40
0.0889908735
 40
0.1025413348
 40
0.1157469579
 40
0.1286238483
 40
0.141192039
 40
0.1534755969
 40
0.1655026252
 40
0.1773051235
 40
0.188918755
 40
0.2003824776
 40
0.2117379849
 40
0.2230290249
 40
0.2343006097
 40
0.2455981357
 40
0.2569664877
 40
0.2684491712
 40
0.2800875195
 40
0.2919200439
 40
0.3039819195
 40
0.316304594
 40
0.328915582
 40
0.3353374161
 40
0.341839788
 40
0.355093881
 40
0.3686947927
 40
0.3826542892
 40
0.3969805488
 40
0.4116783359
 40
0.4267492601
 40
0.4421920038
 40
0.4580025015
 40
0.4741741641
 40
0.4906981064
 40
0.5075633122
 40
0.524756794
 40
0.5422637999
 40
0.5600679645
 40
0.5781514263
 40
0.5964949957
 40
0.6150782978
 40
0.6338798757
 40
0.6528773159
 40
0.6720473853
 40
0.6913661326
 40
0.7108089874
 40
0.7303508875
 40
0.7499663785
 40
0.7696297087
 40
0.7893149421
 40
0.8089960594
 40
0.8286470524
 40
0.8482420329
 40
0.8677553392
 40
0.8871616217
 40
0.9064359444
 40
0.9255539928
 40
0.9444919585
 40
0.9632266375
 40
0.9817369858
 40
1.0
 40
1.0
 40
1.0
 40
1.0
 10
15.0288510364
 20
11.8520452838
 30
0.0
 10
15.0255391436
 20
11.8512664054
 30
0.0
 10
15.0190214545
 20
11.8496013753
 30
0.0
 10
15.0094696177
 20
11.8467441746
 30
0.0
 10
15.000274832
 20
11.8435618384
 30
0.0
 10
14.9914553115
 20
11.8400605293
 30
0.0
 10
14.9830282905
 20
11.8362469975
 30
0.0
 10
14.9750103216
 20
11.8321285673
 30
0.0
 10
14.9674171883
 20
11.827713101
 30
0.0
 10
14.960263856
 20
11.8230090734
 30
0.0
 10
14.953564474
 20
11.8180255048
 30
0.0
 10
14.9473323923
 20
11.8127719262
 30
0.0
 10
14.9415801079
 20
11.8072584314
 30
0.0
 10
14.9363192164
 20
11.8014956942
 30
0.0
 10
14.9315604479
 20
11.7954949121
 30
0.0
 10
14.9273136273
 20
11.7892678324
 30
0.0
 10
14.9235875364
 20
11.7828268105
 30
0.0
 10
14.9203899365
 20
11.7761847308
 30
0.0
 10
14.917727537
 20
11.7693549822
 30
0.0
 10
14.9156058472
 20
11.7623514508
 30
0.0
 10
14.9140291563
 20
11.7551884288
 30
0.0
 10
14.9130005839
 20
11.7478805217
 30
0.0
 10
14.9125220353
 20
11.7404425949
 30
0.0
 10
14.9125941502
 20
11.7328896949
 30
0.0
 10
14.9132164454
 20
11.7252369956
 30
0.0
 10
14.9143873684
 20
11.7174997123
 30
0.0
 10
14.9161041585
 20
11.7096933136
 30
0.0
 10
14.9179752961
 20
11.7031824412
 30
0.0
 10
14.9197352855
 20
11.6979570774
 30
0.0
 10
14.9216966103
 20
11.6926555407
 30
0.0
 10
14.9244876356
 20
11.68601189
 30
0.0
 10
14.9283405224
 20
11.6780823659
 30
0.0
 10
14.9327106265
 20
11.6701604598
 30
0.0
 10
14.937589192
 20
11.6622617832
 30
0.0
 10
14.9429665458
 20
11.6544016395
 30
0.0
 10
14.9488320627
 20
11.6465953444
 30
0.0
 10
14.955174217
 20
11.6388581242
 30
0.0
 10
14.9619805298
 20
11.6312050692
 30
0.0
 10
14.9692376146
 20
11.6236511084
 30
0.0
 10
14.9769312368
 20
11.6162110138
 30
0.0
 10
14.9850463081
 20
11.60889935
 30
0.0
 10
14.993566883
 20
11.6017304078
 30
0.0
 10
15.0024762427
 20
11.5947182282
 30
0.0
 10
15.0117569196
 20
11.5878765734
 30
0.0
 10
15.0213906869
 20
11.5812188431
 30
0.0
 10
15.0313586272
 20
11.5747580859
 30
0.0
 10
15.0416411834
 20
11.568506994
 30
0.0
 10
15.0522181686
 20
11.5624778406
 30
0.0
 10
15.0630688013
 20
11.556682442
 30
0.0
 10
15.0741717766
 20
11.5511321827
 30
0.0
 10
15.0855052979
 20
11.5458379829
 30
0.0
 10
15.0970470937
 20
11.5408102201
 30
0.0
 10
15.1087744906
 20
11.536058765
 30
0.0
 10
15.1206644596
 20
11.5315929723
 30
0.0
 10
15.1326936405
 20
11.5274216097
 30
0.0
 10
15.1448383956
 20
11.5235528553
 30
0.0
 10
15.1570748699
 20
11.5199943208
 30
0.0
 10
15.1693790275
 20
11.5167530126
 30
0.0
 10
15.1817266906
 20
11.513835274
 30
0.0
 10
15.1940936034
 20
11.5112468372
 30
0.0
 10
15.2064554739
 20
11.508992813
 30
0.0
 10
15.2187880244
 20
11.5070776062
 30
0.0
 10
15.2310670319
 20
11.5055049785
 30
0.0
 10
15.2432683259
 20
11.5042780394
 30
0.0
 10
15.2553681539
 20
11.5033991569
 30
0.0
 10
15.2673424008
 20
11.5028701479
 30
0.0
 10
15.2752823567
 20
11.5027504893
 30
0.0
 10
15.2792254016
 20
11.5027504893
 30
0.0
  0
SPLINE
  5
3D5
100
AcDbEntity
  8
02___PRT_ALL_AXES
100
AcDbSpline
 62
7
  6
CONTINUOUS
 70
0
 71
3
 72
72
 73
68
 74
0
 42
0.0000001
 43
0.0000001
 44
0.0000000001
 40
0.0
 40
0.0
 40
0.0
 40
0.0
 40
0.0171788519
 40
0.0345304108
 40
0.0520444106
 40
0.0697101032
 40
0.0875164388
 40
0.1054520335
 40
0.1235052187
 40
0.1416640662
 40
0.1599164184
 40
0.1782499169
 40
0.1966520308
 40
0.2151100845
 40
0.2336112852
 40
0.2521427503
 40
0.2706915345
 40
0.2892446564
 40
0.3077891257
 40
0.3263119701
 40
0.3448002621
 40
0.3632411459
 40
0.3816218646
 40
0.3999297876
 40
0.4181524381
 40
0.4362775214
 40
0.454292953
 40
0.4721868874
 40
0.4899477479
 40
0.5075642561
 40
0.5250254632
 40
0.5423207816
 40
0.5594400175
 40
0.5763734043
 40
0.5931116379
 40
0.6096459123
 40
0.6259679573
 40
0.6420700778
 40
0.6579451944
 40
0.6735868865
 40
0.6889894363
 40
0.7041478755
 40
0.7190580338
 40
0.73371659
 40
0.7481211243
 40
0.7622701736
 40
0.7761632881
 40
0.7898010887
 40
0.8031853258
 40
0.8163189377
 40
0.8292061084
 40
0.8418523225
 40
0.8542644168
 40
0.8603855311
 40
0.8664513239
 40
0.8784213132
 40
0.8901862079
 40
0.9017586003
 40
0.9131525423
 40
0.9243835155
 40
0.9354683776
 40
0.9464252804
 40
0.9572735599
 40
0.968033596
 40
0.9787266446
 40
0.989374644
 40
1.0
 40
1.0
 40
1.0
 40
1.0
 10
14.8773327423
 20
12.3217216225
 30
0.0
 10
14.8875931201
 20
12.3217216225
 30
0.0
 10
14.9082176868
 20
12.3214958663
 30
0.0
 10
14.9392881457
 20
12.3204927147
 30
0.0
 10
14.9706212733
 20
12.3188243433
 30
0.0
 10
15.0021842901
 20
12.3164924833
 30
0.0
 10
15.0339443858
 20
12.3134995685
 30
0.0
 10
15.065868498
 20
12.309848713
 30
0.0
 10
15.0979234033
 20
12.3055437182
 30
0.0
 10
15.1300757372
 20
12.3005890649
 30
0.0
 10
15.1622920337
 20
12.294989911
 30
0.0
 10
15.194538759
 20
12.2887520854
 30
0.0
 10
15.2267823466
 20
12.2818820814
 30
0.0
 10
15.2589892326
 20
12.2743870505
 30
0.0
 10
15.2911258908
 20
12.2662747946
 30
0.0
 10
15.3231588673
 20
12.2575537581
 30
0.0
 10
15.3550548161
 20
12.248233019
 30
0.0
 10
15.3867805336
 20
12.2383222803
 30
0.0
 10
15.4183029935
 20
12.2278318597
 30
0.0
 10
15.4495893812
 20
12.2167726776
 30
0.0
 10
15.4806071281
 20
12.2051562467
 30
0.0
 10
15.5113239453
 20
12.1929946593
 30
0.0
 10
15.5417078576
 20
12.1803005749
 30
0.0
 10
15.5717272371
 20
12.1670872069
 30
0.0
 10
15.6013508358
 20
12.1533683092
 30
0.0
 10
15.630547819
 20
12.1391581619
 30
0.0
 10
15.6592877967
 20
12.1244715551
 30
0.0
 10
15.6875408558
 20
12.1093237744
 30
0.0
 10
15.7152775907
 20
12.0937305837
 30
0.0
 10
15.7424691342
 20
12.0777082096
 30
0.0
 10
15.7690871876
 20
12.0612733232
 30
0.0
 10
15.7951040508
 20
12.044443024
 30
0.0
 10
15.8204926507
 20
12.0272348209
 30
0.0
 10
15.8452265693
 20
12.0096666135
 30
0.0
 10
15.869280071
 20
11.991756673
 30
0.0
 10
15.8926281289
 20
11.9735236229
 30
0.0
 10
15.915246451
 20
11.9549864192
 30
0.0
 10
15.9371115049
 20
11.9361643298
 30
0.0
 10
15.9582005426
 20
11.9170769145
 30
0.0
 10
15.9784916236
 20
11.8977440043
 30
0.0
 10
15.9979636367
 20
11.8781856792
 30
0.0
 10
16.0165963209
 20
11.8584222474
 30
0.0
 10
16.0343702853
 20
11.8384742232
 30
0.0
 10
16.0512670282
 20
11.8183623055
 30
0.0
 10
16.067268955
 20
11.7981073556
 30
0.0
 10
16.0823593943
 20
11.7777303757
 30
0.0
 10
16.096522615
 20
11.7572524873
 30
0.0
 10
16.1097438378
 20
11.7366949106
 30
0.0
 10
16.122009251
 20
11.7160789359
 30
0.0
 10
16.133306011
 20
11.6954259337
 30
0.0
 10
16.1436222946
 20
11.6747572217
 30
0.0
 10
16.1529471546
 20
11.6540944575
 30
0.0
 10
16.1599155743
 20
11.6368186568
 30
0.0
 10
16.1649775033
 20
11.6230249431
 30
0.0
 10
16.1696572256
 20
11.60937583
 30
0.0
 10
16.1748805125
 20
11.5923539023
 30
0.0
 10
16.1801517108
 20
11.5719279097
 30
0.0
 10
16.1843926178
 20
11.5516141861
 30
0.0
 10
16.1875984749
 20
11.5314341217
 30
0.0
 10
16.189765682
 20
11.5114087385
 30
0.0
 10
16.1908916933
 20
11.4915590249
 30
0.0
 10
16.1909750679
 20
11.4719058318
 30
0.0
 10
16.1900154685
 20
11.452469851
 30
0.0
 10
16.1880137076
 20
11.4332716728
 30
0.0
 10
16.1849716584
 20
11.4143314253
 30
0.0
 10
16.1808926444
 20
11.3956699677
 30
0.0
 10
16.1774830286
 20
11.3834218397
 30
0.0
 10
16.1756093345
 20
11.3773585626
 30
0.0
  0
SPLINE
  5
3D6
100
AcDbEntity
  8
LAYER_CHAMFER_FEAT
100
AcDbSpline
 62
7
  6
CONTINUOUS
 70
0
 71
3
 72
49
 73
45
 74
0
 42
0.0000001
 43
0.0000001
 44
0.0000000001
 40
0.0
 40
0.0
 40
0.0
 40
0.0
 40
0.035733353
 40
0.0703705073
 40
0.1039020219
 40
0.1363329928
 40
0.1676844993
 40
0.1979950272
 40
0.2273217641
 40
0.2557416118
 40
0.2696442148
 40
0.2833582529
 40
0.2968989654
 40
0.3102828161
 40
0.3235273586
 40
0.3366511898
 40
0.3496738311
 40
0.3626155949
 40
0.375497461
 40
0.3883408903
 40
0.4011676758
 40
0.4139997457
 40
0.4268589823
 40
0.4397670467
 40
0.4527451827
 40
0.4658140726
 40
0.4789936632
 40
0.4923030415
 40
0.5057603241
 40
0.5193825315
 40
0.5471776729
 40
0.5758078113
 40
0.6053651996
 40
0.6359219213
 40
0.667530554
 40
0.7002252658
 40
0.7340231555
 40
0.7689256835
 40
0.8049201314
 40
0.841980931
 40
0.8800711605
 40
0.9191432351
 40
0.9591413306
 40
1.0
 40
1.0
 40
1.0
 40
1.0
 10
15.4220770045
 20
11.7305292661
 30
0.0
 10
15.4250559078
 20
11.7272693595
 30
0.0
 10
15.4307642209
 20
11.7207024838
 30
0.0
 10
15.4386611775
 20
11.7105696778
 30
0.0
 10
15.4457357972
 20
11.7003378094
 30
0.0
 10
15.451964058
 20
11.6900407451
 30
0.0
 10
15.4573249507
 20
11.6797121831
 30
0.0
 10
15.4618001028
 20
11.6693858039
 30
0.0
 10
15.4653737506
 20
11.6590960422
 30
0.0
 10
15.4676062058
 20
11.6505161911
 30
0.0
 10
15.4689182548
 20
11.6437146928
 30
0.0
 10
15.4696636178
 20
11.6386815911
 30
0.0
 10
15.470176617
 20
11.6336839753
 30
0.0
 10
15.4704568608
 20
11.6287259537
 30
0.0
 10
15.4705040366
 20
11.6238117108
 30
0.0
 10
15.4703180652
 20
11.6189453803
 30
0.0
 10
15.4698990993
 20
11.6141310663
 30
0.0
 10
15.4692474
 20
11.6093728447
 30
0.0
 10
15.4683635812
 20
11.6046747301
 30
0.0
 10
15.467248265
 20
11.6000407251
 30
0.0
 10
15.4659025077
 20
11.5954747289
 30
0.0
 10
15.4643273218
 20
11.5909806492
 30
0.0
 10
15.4625241695
 20
11.5865622505
 30
0.0
 10
15.4604944831
 20
11.5822233136
 30
0.0
 10
15.4582400886
 20
11.5779674603
 30
0.0
 10
15.4557628529
 20
11.5737983092
 30
0.0
 10
15.4530649297
 20
11.5697193363
 30
0.0
 10
15.450148632
 20
11.5657339817
 30
0.0
 10
15.4470163567
 20
11.5618455183
 30
0.0
 10
15.442526176
 20
11.5567609304
 30
0.0
 10
15.4363679063
 20
11.550660449
 30
0.0
 10
15.4282126433
 20
11.5438311233
 30
0.0
 10
15.4192695713
 20
11.5374645618
 30
0.0
 10
15.4095694186
 20
11.5315815482
 30
0.0
 10
15.3991446575
 20
11.5262006927
 30
0.0
 10
15.3880301046
 20
11.5213392077
 30
0.0
 10
15.376262696
 20
11.5170126552
 30
0.0
 10
15.363881471
 20
11.513234953
 30
0.0
 10
15.350927475
 20
11.510018309
 30
0.0
 10
15.3374436346
 20
11.5073731423
 30
0.0
 10
15.3234747025
 20
11.5053080844
 30
0.0
 10
15.3090668972
 20
11.503829826
 30
0.0
 10
15.2942683996
 20
11.5029432521
 30
0.0
 10
15.2842747726
 20
11.5027504893
 30
0.0
 10
15.2792254016
 20
11.5027504893
 30
0.0
  0
SPLINE
  5
3D7
100
AcDbEntity
  8
LAYER_FEATURE
100
AcDbSpline
 62
7
  6
CONTINUOUS
 70
0
 71
3
 72
15
 73
11
 74
0
 42
0.0000001
 43
0.0000001
 44
0.0000000001
 40
0.0
 40
0.0
 40
0.0
 40
0.0
 40
0.1114215862
 40
0.22615947
 40
0.3445481452
 40
0.466877999
 40
0.5933974531
 40
0.7243155659
 40
0.8598035387
 40
1.0
 40
1.0
 40
1.0
 40
1.0
 10
16.1973642676
 20
12.0874723192
 30
0.0
 10
16.198032867
 20
12.087152067
 30
0.0
 10
16.199367872
 20
12.0864549449
 30
0.0
 10
16.20132864
 20
12.0852645148
 30
0.0
 10
16.2032733557
 20
12.0839162049
 30
0.0
 10
16.2052000452
 20
12.0824115148
 30
0.0
 10
16.2071069114
 20
12.0807519795
 30
0.0
 10
16.2089921199
 20
12.078939262
 30
0.0
 10
16.2108538671
 20
12.0769752478
 30
0.0
 10
16.2120574022
 20
12.0755902155
 30
0.0
 10
16.2126551363
 20
12.0748741018
 30
0.0
  0
SPLINE
  5
3D8
100
AcDbEntity
  8
LAYER_FEATURE
100
AcDbSpline
 62
7
  6
CONTINUOUS
 70
0
 71
3
 72
54
 73
50
 74
0
 42
0.0000001
 43
0.0000001
 44
0.0000000001
 40
0.0
 40
0.0
 40
0.0
 40
0.0
 40
0.0146676339
 40
0.029102795
 40
0.0433123231
 40
0.0573094503
 40
0.0711088313
 40
0.0847275272
 40
0.0981853362
 40
0.1115042897
 40
0.124708438
 40
0.1378235975
 40
0.1508769854
 40
0.163896795
 40
0.1769117609
 40
0.1899506991
 40
0.2030420409
 40
0.2162133728
 40
0.2294910161
 40
0.2428996727
 40
0.2564620735
 40
0.2701987273
 40
0.2841277544
 40
0.2982646981
 40
0.3126224691
 40
0.3272113443
 40
0.3420389143
 40
0.3571101727
 40
0.3879822406
 40
0.4198286302
 40
0.452605495
 40
0.4862383013
 40
0.5206263007
 40
0.5556470973
 40
0.5911610897
 40
0.627015781
 40
0.6630500398
 40
0.6990982645
 40
0.7349945063
 40
0.7705765987
 40
0.8056903023
 40
0.8401935418
 40
0.8739607363
 40
0.8905383017
 40
0.9068946288
 40
0.9389011365
 40
0.9545469498
 40
0.9699468949
 40
1.0
 40
1.0
 40
1.0
 40
1.0
 10
14.832135266
 20
12.5665112818
 30
0.0
 10
14.8316198872
 20
12.5648435154
 30
0.0
 10
14.8306835841
 20
12.5615069503
 30
0.0
 10
14.8295622784
 20
12.5564732554
 30
0.0
 10
14.8287383448
 20
12.5514629984
 30
0.0
 10
14.8282138921
 20
12.546488591
 30
0.0
 10
14.827990208
 20
12.5415618664
 30
0.0
 10
14.8280679852
 20
12.5366947509
 30
0.0
 10
14.828447157
 20
12.5318990407
 30
0.0
 10
14.8291268472
 20
12.5271863585
 30
0.0
 10
14.830105522
 20
12.5225681623
 30
0.0
 10
14.8313809031
 20
12.518055712
 30
0.0
 10
14.8329498853
 20
12.5136599976
 30
0.0
 10
14.8348087147
 20
12.5093917578
 30
0.0
 10
14.8369528867
 20
12.505261423
 30
0.0
 10
14.8393771141
 20
12.5012790395
 30
0.0
 10
14.8420754972
 20
12.4974543231
 30
0.0
 10
14.8450414198
 20
12.4937965693
 30
0.0
 10
14.8482675717
 20
12.4903146012
 30
0.0
 10
14.8517460893
 20
12.4870168537
 30
0.0
 10
14.8554684603
 20
12.4839112544
 30
0.0
 10
14.8594255811
 20
12.481005213
 30
0.0
 10
14.8636078557
 20
12.4783057149
 30
0.0
 10
14.8680051161
 20
12.4758191791
 30
0.0
 10
14.8726067074
 20
12.4735514857
 30
0.0
 10
14.877401495
 20
12.4715080728
 30
0.0
 10
14.8823780214
 20
12.4696937224
 30
0.0
 10
14.8892939629
 20
12.4675690051
 30
0.0
 10
14.8983386309
 20
12.4655210502
 30
0.0
 10
14.9096237285
 20
12.4640554228
 30
0.0
 10
14.9213216171
 20
12.4635740132
 30
0.0
 10
14.9333199408
 20
12.464080727
 30
0.0
 10
14.9455045338
 20
12.4655699469
 30
0.0
 10
14.9577591108
 20
12.4680270051
 30
0.0
 10
14.9699667156
 20
12.4714281501
 30
0.0
 10
14.9820107566
 20
12.4757406658
 30
0.0
 10
14.9937761542
 20
12.4809232087
 30
0.0
 10
15.005150424
 20
12.4869262181
 30
0.0
 10
15.0160248131
 20
12.4936923262
 30
0.0
 10
15.0262953026
 20
12.5011568882
 30
0.0
 10
15.0358637262
 20
12.5092488646
 30
0.0
 10
15.0446381291
 20
12.5178907695
 30
0.0
 10
15.0512598937
 20
12.5255300204
 30
0.0
 10
15.0560764528
 20
12.5318425151
 30
0.0
 10
15.0605005912
 20
12.5381815686
 30
0.0
 10
15.0644518269
 20
12.5447085456
 30
0.0
 10
15.0678807275
 20
12.5513859294
 30
0.0
 10
15.0708903264
 20
12.5580071888
 30
0.0
 10
15.0727656905
 20
12.5630941283
 30
0.0
 10
15.0738216708
 20
12.5665112818
 30
0.0
  0
SPLINE
  5
3D9
100
AcDbEntity
  8
LAYER_FEATURE
100
AcDbSpline
 62
7
  6
CONTINUOUS
 70
0
 71
3
 72
46
 73
42
 74
0
 42
0.0000001
 43
0.0000001
 44
0.0000000001
 40
0.0
 40
0.0
 40
0.0
 40
0.0
 40
0.0396645078
 40
0.0788613625
 40
0.1175671524
 40
0.1557611441
 40
0.1934233488
 40
0.2305356756
 40
0.2670816668
 40
0.3030467311
 40
0.3384182489
 40
0.373185705
 40
0.4073408296
 40
0.4408777429
 40
0.4737931061
 40
0.5060862783
 40
0.5377594784
 40
0.5688179438
 40
0.5992700904
 40
0.6291276687
 40
0.6584059125
 40
0.6728343747
 40
0.6871253929
 40
0.7153052552
 40
0.7429736226
 40
0.7701607626
 40
0.7969008076
 40
0.8232316975
 40
0.8491950558
 40
0.8620540739
 40
0.8748384068
 40
0.8875541856
 40
0.9002077255
 40
0.9128055046
 40
0.9253541479
 40
0.9378604202
 40
0.9503311966
 40
0.9627734571
 40
0.9751942581
 40
0.9876007192
 40
1.0
 40
1.0
 40
1.0
 40
1.0
 10
14.8623763771
 20
13.1500783737
 30
0.0
 10
14.8462114036
 20
13.1500783737
 30
0.0
 10
14.8140707641
 20
13.1497158965
 30
0.0
 10
14.7661814355
 20
13.1480637626
 30
0.0
 10
14.7189427994
 20
13.1453080899
 30
0.0
 10
14.6724086616
 20
13.1414520611
 30
0.0
 10
14.6266312924
 20
13.1364999364
 30
0.0
 10
14.5816624259
 20
13.1304573043
 30
0.0
 10
14.5375527633
 20
13.1233309251
 30
0.0
 10
14.4943520644
 20
13.1151287941
 30
0.0
 10
14.4521090478
 20
13.1058601075
 30
0.0
 10
14.4108713498
 20
13.0955352487
 30
0.0
 10
14.370685471
 20
13.0841657756
 30
0.0
 10
14.3315967271
 20
13.0717644046
 30
0.0
 10
14.2936491994
 20
13.0583449939
 30
0.0
 10
14.2568856915
 20
13.0439225271
 30
0.0
 10
14.221347668
 20
13.0285130966
 30
0.0
 10
14.1870752648
 20
13.0121339039
 30
0.0
 10
14.1541070807
 20
12.9948031298
 30
0.0
 10
14.1224807636
 20
12.9765403179
 30
0.0
 10
14.0971508637
 20
12.9604837598
 30
0.0
 10
14.0776058791
 20
12.9471887168
 30
0.0
 10
14.0587211321
 20
12.9337290041
 30
0.0
 10
14.0360005848
 20
12.9163660909
 30
0.0
 10
14.0100832607
 20
12.894587638
 30
0.0
 10
13.9856709157
 20
12.8719884095
 30
0.0
 10
13.9627917424
 20
12.8485937443
 30
0.0
 10
13.9414723601
 20
12.8244303345
 30
0.0
 10
13.9249729602
 20
12.8036082864
 30
0.0
 10
13.912593512
 20
12.7866029024
 30
0.0
 10
13.9037421256
 20
12.7737146243
 30
0.0
 10
13.8952975794
 20
12.760655892
 30
0.0
 10
13.8872621713
 20
12.7474303122
 30
0.0
 10
13.8796381942
 20
12.7340416679
 30
0.0
 10
13.8724278723
 20
12.7204937129
 30
0.0
 10
13.865633182
 20
12.7067903337
 30
0.0
 10
13.859256146
 20
12.6929353681
 30
0.0
 10
13.8532985132
 20
12.6789327945
 30
0.0
 10
13.8477620069
 20
12.6647865238
 30
0.0
 10
13.8426482583
 20
12.6505007376
 30
0.0
 10
13.8395214399
 20
12.6408852495
 30
0.0
 10
13.8380294878
 20
12.6360572837
 30
0.0
  0
SPLINE
  5
3DA
100
AcDbEntity
  8
02___PRT_ALL_AXES
100
AcDbSpline
 62
7
  6
CONTINUOUS
 70
0
 71
3
 72
24
 73
20
 74
0
 42
0.0000001
 43
0.0000001
 44
0.0000000001
 40
0.0
 40
0.0
 40
0.0
 40
0.0
 40
0.0527982368
 40
0.1057412989
 40
0.1591310114
 40
0.2132614526
 40
0.2684130642
 40
0.3248478529
 40
0.3828056924
 40
0.4425016617
 40
0.4730662873
 40
0.5041340889
 40
0.5678476248
 40
0.6337883788
 40
0.7020683531
 40
0.7727737848
 40
0.8459712993
 40
0.9217097934
 40
1.0
 40
1.0
 40
1.0
 40
1.0
 10
16.2112062757
 20
12.0902530061
 30
0.0
 10
16.2122605173
 20
12.0902530028
 30
0.0
 10
16.214373162
 20
12.0901570387
 30
0.0
 10
16.2175251497
 20
12.0897241209
 30
0.0
 10
16.2206514387
 20
12.0890031259
 30
0.0
 10
16.2237435694
 20
12.0879952943
 30
0.0
 10
16.2267937503
 20
12.086702498
 30
0.0
 10
16.2297943918
 20
12.0851271313
 30
0.0
 10
16.2327380651
 20
12.0832720358
 30
0.0
 10
16.2351191527
 20
12.0815096883
 30
0.0
 10
16.2369882297
 20
12.0799677764
 30
0.0
 10
16.2388634893
 20
12.078309541
 30
0.0
 10
16.2411593673
 20
12.0760637476
 30
0.0
 10
16.2438083655
 20
12.0731275439
 30
0.0
 10
16.2463684418
 20
12.0699326797
 30
0.0
 10
16.248834155
 20
12.0664849521
 30
0.0
 10
16.2512004268
 20
12.0627902723
 30
0.0
 10
16.2534623677
 20
12.0588554145
 30
0.0
 10
16.2548746139
 20
12.0561220058
 30
0.0
 10
16.2555632919
 20
12.0547186276
 30
0.0
  0
SPLINE
  5
3DB
100
AcDbEntity
  8
LAYER_FEATURE
100
AcDbSpline
 62
7
  6
CONTINUOUS
 70
0
 71
3
 72
26
 73
22
 74
0
 42
0.0000001
 43
0.0000001
 44
0.0000000001
 40
0.0
 40
0.0
 40
0.0
 40
0.0
 40
0.0549013416
 40
0.0830341972
 40
0.1116163274
 40
0.1700862144
 40
0.199966183
 40
0.2302503218
 40
0.2919367074
 40
0.3549677292
 40
0.4191139375
 40
0.4841158114
 40
0.5496915775
 40
0.6155449894
 40
0.6813728893
 40
0.7468727459
 40
0.8117502188
 40
0.8757267346
 40
0.9073021991
 40
0.9385587434
 40
1.0
 40
1.0
 40
1.0
 40
1.0
 10
14.8119298386
 20
12.5461224748
 30
0.0
 10
14.8132498116
 20
12.550393909
 30
0.0
 10
14.8155940101
 20
12.5567525793
 30
0.0
 10
14.8193560241
 20
12.5650291508
 30
0.0
 10
14.8236421153
 20
12.5733759076
 30
0.0
 10
14.8285812108
 20
12.5815346054
 30
0.0
 10
14.8341113445
 20
12.5894584438
 30
0.0
 10
14.8401320674
 20
12.5973490443
 30
0.0
 10
14.8484092517
 20
12.606898127
 30
0.0
 10
14.8593772778
 20
12.6177004865
 30
0.0
 10
14.8713377936
 20
12.627815473
 30
0.0
 10
14.8841759105
 20
12.6371461697
 30
0.0
 10
14.8977688917
 20
12.6456038105
 30
0.0
 10
14.9119867449
 20
12.6531075573
 30
0.0
 10
14.9266934557
 20
12.6595857523
 30
0.0
 10
14.9417486097
 20
12.6649764067
 30
0.0
 10
14.9570077605
 20
12.6692277562
 30
0.0
 10
14.9698300448
 20
12.6717986505
 30
0.0
 10
14.9800571232
 20
12.6732439493
 30
0.0
 10
14.9901266095
 20
12.6742691997
 30
0.0
 10
14.9976794232
 20
12.674588088
 30
0.0
 10
15.0026827186
 20
12.674588088
 30
0.0
  0
SPLINE
  5
3DC
100
AcDbEntity
  8
LAYER_FEATURE
100
AcDbSpline
 62
7
  6
CONTINUOUS
 70
0
 71
3
 72
22
 73
18
 74
0
 42
0.0000001
 43
0.0000001
 44
0.0000000001
 40
0.0
 40
0.0
 40
0.0
 40
0.0
 40
0.14044678
 40
0.2089659121
 40
0.2762878654
 40
0.3423925048
 40
0.4072762969
 40
0.4709511379
 40
0.5334456661
 40
0.5948057378
 40
0.6550947244
 40
0.7143935202
 40
0.7728001264
 40
0.8304287865
 40
0.8874085939
 40
0.9438815324
 40
1.0
 40
1.0
 40
1.0
 40
1.0
 10
15.0026827186
 20
12.674588088
 30
0.0
 10
15.0082970466
 20
12.674588088
 30
0.0
 10
15.0166593678
 20
12.6741920069
 30
0.0
 10
15.0276215385
 20
12.6728159773
 30
0.0
 10
15.0355708841
 20
12.6713860358
 30
0.0
 10
15.0432879647
 20
12.6695542685
 30
0.0
 10
15.0507484535
 20
12.6673263924
 30
0.0
 10
15.057928331
 20
12.6647093636
 30
0.0
 10
15.0648045734
 20
12.6617113872
 30
0.0
 10
15.0713550534
 20
12.6583418759
 30
0.0
 10
15.0775586455
 20
12.6546114299
 30
0.0
 10
15.0833952746
 20
12.6505318244
 30
0.0
 10
15.0888459912
 20
12.6461159715
 30
0.0
 10
15.0938930057
 20
12.6413779586
 30
0.0
 10
15.0985198958
 20
12.6363328247
 30
0.0
 10
15.1027111972
 20
12.6309972594
 30
0.0
 10
15.1052120501
 20
12.6272487055
 30
0.0
 10
15.1063829392
 20
12.6253351966
 30
0.0
  0
SPLINE
  5
3DD
100
AcDbEntity
  8
LAYER_FEATURE
100
AcDbSpline
 62
7
  6
CONTINUOUS
 70
0
 71
3
 72
54
 73
50
 74
0
 42
0.0000001
 43
0.0000001
 44
0.0000000001
 40
0.0
 40
0.0
 40
0.0
 40
0.0
 40
0.0300531051
 40
0.0454530502
 40
0.0610988635
 40
0.0931053712
 40
0.1094616983
 40
0.1260392637
 40
0.1598064582
 40
0.1943096977
 40
0.2294234013
 40
0.2650054937
 40
0.3009017355
 40
0.3369499602
 40
0.372984219
 40
0.4088389103
 40
0.4443529027
 40
0.4793736993
 40
0.5137616987
 40
0.547394505
 40
0.5801713698
 40
0.6120177594
 40
0.6428898273
 40
0.6579610857
 40
0.6727886557
 40
0.6873775309
 40
0.7017353019
 40
0.7158722456
 40
0.7298012727
 40
0.7435379265
 40
0.7571003273
 40
0.7705089839
 40
0.7837866272
 40
0.7969579591
 40
0.8100493009
 40
0.8230882391
 40
0.836103205
 40
0.8491230146
 40
0.8621764025
 40
0.875291562
 40
0.8884957103
 40
0.9018146638
 40
0.9152724728
 40
0.9288911687
 40
0.9426905497
 40
0.9566876769
 40
0.970897205
 40
0.9853323661
 40
1.0
 40
1.0
 40
1.0
 40
1.0
 10
14.832135266
 20
12.5665112818
 30
0.0
 10
14.8331912463
 20
12.5699284353
 30
0.0
 10
14.8350666103
 20
12.5750153747
 30
0.0
 10
14.8380762092
 20
12.5816366342
 30
0.0
 10
14.8415051099
 20
12.588314018
 30
0.0
 10
14.8454563455
 20
12.594840995
 30
0.0
 10
14.8498804839
 20
12.6011800484
 30
0.0
 10
14.854697043
 20
12.6074925431
 30
0.0
 10
14.8613188076
 20
12.6151317941
 30
0.0
 10
14.8700932105
 20
12.6237736989
 30
0.0
 10
14.8796616342
 20
12.6318656753
 30
0.0
 10
14.8899321236
 20
12.6393302374
 30
0.0
 10
14.9008065128
 20
12.6460963455
 30
0.0
 10
14.9121807825
 20
12.6520993548
 30
0.0
 10
14.9239461801
 20
12.6572818977
 30
0.0
 10
14.9359902212
 20
12.6615944135
 30
0.0
 10
14.9481978259
 20
12.6649955584
 30
0.0
 10
14.9604524029
 20
12.6674526166
 30
0.0
 10
14.972636996
 20
12.6689418366
 30
0.0
 10
14.9846353197
 20
12.6694485504
 30
0.0
 10
14.9963332083
 20
12.6689671407
 30
0.0
 10
15.0076183058
 20
12.6675015134
 30
0.0
 10
15.0166629739
 20
12.6654535585
 30
0.0
 10
15.0235789153
 20
12.6633288411
 30
0.0
 10
15.0285554418
 20
12.6615144907
 30
0.0
 10
15.0333502293
 20
12.6594710778
 30
0.0
 10
15.0379518207
 20
12.6572033844
 30
0.0
 10
15.0423490811
 20
12.6547168486
 30
0.0
 10
15.0465313557
 20
12.6520173506
 30
0.0
 10
15.0504884764
 20
12.6491113091
 30
0.0
 10
15.0542108475
 20
12.6460057099
 30
0.0
 10
15.057689365
 20
12.6427079624
 30
0.0
 10
15.060915517
 20
12.6392259943
 30
0.0
 10
15.0638814396
 20
12.6355682405
 30
0.0
 10
15.0665798226
 20
12.631743524
 30
0.0
 10
15.06900405
 20
12.6277611405
 30
0.0
 10
15.071148222
 20
12.6236308057
 30
0.0
 10
15.0730070514
 20
12.6193625659
 30
0.0
 10
15.0745760336
 20
12.6149668515
 30
0.0
 10
15.0758514147
 20
12.6104544012
 30
0.0
 10
15.0768300896
 20
12.6058362051
 30
0.0
 10
15.0775097797
 20
12.6011235228
 30
0.0
 10
15.0778889515
 20
12.5963278127
 30
0.0
 10
15.0779667287
 20
12.5914606971
 30
0.0
 10
15.0777430447
 20
12.5865339725
 30
0.0
 10
15.077218592
 20
12.5815595652
 30
0.0
 10
15.0763946584
 20
12.5765493082
 30
0.0
 10
15.0752733527
 20
12.5715156132
 30
0.0
 10
15.0743370496
 20
12.5681790481
 30
0.0
 10
15.0738216708
 20
12.5665112818
 30
0.0
  0
SPLINE
  5
3DE
100
AcDbEntity
  8
LAYER_FEATURE
100
AcDbSpline
 62
7
  6
CONTINUOUS
 70
0
 71
3
 72
46
 73
42
 74
0
 42
0.0000001
 43
0.0000001
 44
0.0000000001
 40
0.0
 40
0.0
 40
0.0
 40
0.0
 40
0.0396645078
 40
0.0788613625
 40
0.1175671524
 40
0.1557611441
 40
0.1934233488
 40
0.2305356756
 40
0.2670816668
 40
0.3030467311
 40
0.3384182489
 40
0.373185705
 40
0.4073408296
 40
0.4408777429
 40
0.4737931061
 40
0.5060862783
 40
0.5377594784
 40
0.5688179438
 40
0.5992700904
 40
0.6291276687
 40
0.6584059125
 40
0.6728343747
 40
0.6871253929
 40
0.7153052552
 40
0.7429736226
 40
0.7701607626
 40
0.7969008076
 40
0.8232316975
 40
0.8491950558
 40
0.8620540739
 40
0.8748384068
 40
0.8875541856
 40
0.9002077255
 40
0.9128055046
 40
0.9253541479
 40
0.9378604202
 40
0.9503311966
 40
0.9627734571
 40
0.9751942581
 40
0.9876007192
 40
1.0
 40
1.0
 40
1.0
 40
1.0
 10
15.0996013741
 20
13.9177387452
 30
0.0
 10
15.0834364006
 20
13.9177387452
 30
0.0
 10
15.051295761
 20
13.917376268
 30
0.0
 10
15.0034064325
 20
13.9157241341
 30
0.0
 10
14.9561677963
 20
13.9129684614
 30
0.0
 10
14.9096336585
 20
13.9091124325
 30
0.0
 10
14.8638562893
 20
13.9041603078
 30
0.0
 10
14.8188874228
 20
13.8981176758
 30
0.0
 10
14.7747777603
 20
13.8909912965
 30
0.0
 10
14.7315770613
 20
13.8827891656
 30
0.0
 10
14.6893340447
 20
13.8735204789
 30
0.0
 10
14.6480963467
 20
13.8631956201
 30
0.0
 10
14.6079104679
 20
13.851826147
 30
0.0
 10
14.568821724
 20
13.8394247761
 30
0.0
 10
14.5308741963
 20
13.8260053653
 30
0.0
 10
14.4941106884
 20
13.8115828985
 30
0.0
 10
14.458572665
 20
13.796173468
 30
0.0
 10
14.4243002618
 20
13.7797942753
 30
0.0
 10
14.3913320776
 20
13.7624635012
 30
0.0
 10
14.3597057606
 20
13.7442006893
 30
0.0
 10
14.3343758606
 20
13.7281441312
 30
0.0
 10
14.314830876
 20
13.7148490883
 30
0.0
 10
14.295946129
 20
13.7013893756
 30
0.0
 10
14.2732255818
 20
13.6840264623
 30
0.0
 10
14.2473082576
 20
13.6622480094
 30
0.0
 10
14.2228959127
 20
13.6396487809
 30
0.0
 10
14.2000167393
 20
13.6162541157
 30
0.0
 10
14.178697357
 20
13.5920907059
 30
0.0
 10
14.1621979571
 20
13.5712686578
 30
0.0
 10
14.149818509
 20
13.5542632738
 30
0.0
 10
14.1409671225
 20
13.5413749957
 30
0.0
 10
14.1325225763
 20
13.5283162635
 30
0.0
 10
14.1244871683
 20
13.5150906836
 30
0.0
 10
14.1168631912
 20
13.5017020393
 30
0.0
 10
14.1096528693
 20
13.4881540843
 30
0.0
 10
14.102858179
 20
13.4744507051
 30
0.0
 10
14.0964811429
 20
13.4605957395
 30
0.0
 10
14.0905235102
 20
13.4465931659
 30
0.0
 10
14.0849870039
 20
13.4324468952
 30
0.0
 10
14.0798732552
 20
13.418161109
 30
0.0
 10
14.0767464368
 20
13.4085456209
 30
0.0
 10
14.0752544847
 20
13.4037176551
 30
0.0
  0
SPLINE
  5
3DF
100
AcDbEntity
  8
LAYER_FEATURE
100
AcDbSpline
 62
7
  6
CONTINUOUS
 70
0
 71
3
 72
22
 73
18
 74
0
 42
0.0000001
 43
0.0000001
 44
0.0000000001
 40
0.0
 40
0.0
 40
0.0
 40
0.0
 40
0.1381197631
 40
0.2053664309
 40
0.2714549167
 40
0.336437138
 40
0.400372579
 40
0.4633278437
 40
0.5253764097
 40
0.5865986125
 40
0.6470813093
 40
0.7069174431
 40
0.7662055021
 40
0.8250488573
 40
0.8835549588
 40
0.9418344159
 40
1.0
 40
1.0
 40
1.0
 40
1.0
 10
16.4586942238
 20
12.2023757501
 30
0.0
 10
16.4661128047
 20
12.1872582716
 30
0.0
 10
16.4763350277
 20
12.1643658296
 30
0.0
 10
16.4879937912
 20
12.1333843519
 30
0.0
 10
16.4955748941
 20
12.1104167079
 30
0.0
 10
16.5020619493
 20
12.0875359694
 30
0.0
 10
16.5074488323
 20
12.0647633565
 30
0.0
 10
16.5117300875
 20
12.0421208158
 30
0.0
 10
16.5149013586
 20
12.0196299818
 30
0.0
 10
16.5169593343
 20
11.9973124626
 30
0.0
 10
16.5179018055
 20
11.975189732
 30
0.0
 10
16.5177276221
 20
11.9532831385
 30
0.0
 10
16.5164366998
 20
11.9316138594
 30
0.0
 10
16.5140301093
 20
11.9102029672
 30
0.0
 10
16.5105099751
 20
11.8890710555
 30
0.0
 10
16.5058798448
 20
11.8682394687
 30
0.0
 10
16.5020541645
 20
11.8545591047
 30
0.0
 10
16.4999604006
 20
11.847783658
 30
0.0
  0
SPLINE
  5
3E0
100
AcDbEntity
  8
LAYER_FEATURE
100
AcDbSpline
 62
7
  6
CONTINUOUS
 70
0
 71
3
 72
39
 73
35
 74
0
 42
0.0000001
 43
0.0000001
 44
0.0000000001
 40
0.0
 40
0.0
 40
0.0
 40
0.0
 40
0.030068596
 40
0.0604699297
 40
0.0911813107
 40
0.1221798317
 40
0.1534413733
 40
0.1849412573
 40
0.2166540997
 40
0.2485539648
 40
0.2806144177
 40
0.3128086056
 40
0.345109329
 40
0.3774891151
 40
0.4099202894
 40
0.4423750469
 40
0.4748255226
 40
0.5072438626
 40
0.5396022941
 40
0.5718731971
 40
0.604029175
 40
0.6360431271
 40
0.6678883215
 40
0.6995384683
 40
0.7309677945
 40
0.7621511208
 40
0.793063939
 40
0.8236824927
 40
0.8539838594
 40
0.8839460359
 40
0.9135480274
 40
0.9427699375
 40
0.9715930645
 40
1.0
 40
1.0
 40
1.0
 40
1.0
 10
14.9040884261
 20
13.1161424035
 30
0.0
 10
14.920313812
 20
13.1161424035
 30
0.0
 10
14.9529454018
 20
13.1157466421
 30
0.0
 10
15.002120841
 20
13.1139905545
 30
0.0
 10
15.0517437671
 20
13.1110708022
 30
0.0
 10
15.1017503599
 20
13.1069911842
 30
0.0
 10
15.15207702
 20
13.1017568626
 30
0.0
 10
15.2026594499
 20
13.0953745471
 30
0.0
 10
15.253433123
 20
13.0878523717
 30
0.0
 10
15.3043332325
 20
13.0791999422
 30
0.0
 10
15.3552948169
 20
13.0694282994
 30
0.0
 10
15.4062528305
 20
13.058549915
 30
0.0
 10
15.4571422315
 20
13.0465786756
 30
0.0
 10
15.5078980639
 20
13.0335298625
 30
0.0
 10
15.5584555413
 20
13.0194201321
 30
0.0
 10
15.6087501299
 20
13.004267495
 30
0.0
 10
15.658717631
 20
12.9880912928
 30
0.0
 10
15.7082942633
 20
12.9709121732
 30
0.0
 10
15.7574167448
 20
12.9527520638
 30
0.0
 10
15.8060223732
 20
12.9336341438
 30
0.0
 10
15.8540491076
 20
12.9135828145
 30
0.0
 10
15.9014356483
 20
12.8926236704
 30
0.0
 10
15.9481215146
 20
12.8707834628
 30
0.0
 10
15.9940471223
 20
12.8480900656
 30
0.0
 10
16.0391538596
 20
12.8245724394
 30
0.0
 10
16.0833841625
 20
12.8002605939
 30
0.0
 10
16.1266815878
 20
12.7751855496
 30
0.0
 10
16.168990886
 20
12.7493792961
 30
0.0
 10
16.2102580689
 20
12.7228747534
 30
0.0
 10
16.2504304913
 20
12.6957057203
 30
0.0
 10
16.2894568761
 20
12.6679068666
 30
0.0
 10
16.3272875335
 20
12.6395135548
 30
0.0
 10
16.3638738558
 20
12.6105622727
 30
0.0
 10
16.3875817527
 20
12.5907656561
 30
0.0
 10
16.3992125449
 20
12.5807809307
 30
0.0
  0
SPLINE
  5
3E1
100
AcDbEntity
  8
LAYER_FEATURE
100
AcDbSpline
 62
7
  6
CONTINUOUS
 70
0
 71
3
 72
71
 73
67
 74
0
 42
0.0000001
 43
0.0000001
 44
0.0000000001
 40
0.0
 40
0.0
 40
0.0
 40
0.0
 40
0.0197968616
 40
0.0393581643
 40
0.0586785133
 40
0.0777530187
 40
0.0965773157
 40
0.1151476109
 40
0.1334607023
 40
0.151514002
 40
0.1693055863
 40
0.1868342188
 40
0.2040993749
 40
0.2211012957
 40
0.237841012
 40
0.2543203708
 40
0.2705420891
 40
0.2865097777
 40
0.3022279659
 40
0.3177021499
 40
0.3329388124
 40
0.347945438
 40
0.3627305497
 40
0.3773037139
 40
0.3916755387
 40
0.4058576856
 40
0.4198628491
 40
0.4337047253
 40
0.4473979867
 40
0.4609582243
 40
0.4744018774
 40
0.4877461614
 40
0.5010089688
 40
0.5142087581
 40
0.5273644387
 40
0.5404952385
 40
0.5536205659
 40
0.5667598697
 40
0.5799324962
 40
0.5931575511
 40
0.6064537616
 40
0.6198393524
 40
0.6333319333
 40
0.6469483906
 40
0.6607048006
 40
0.6746163614
 40
0.6886973231
 40
0.7029609464
 40
0.7174194785
 40
0.7320841198
 40
0.7469650214
 40
0.7620712944
 40
0.7774110043
 40
0.7929911934
 40
0.8088179123
 40
0.8248962291
 40
0.8412302661
 40
0.8578232416
 40
0.8746774864
 40
0.8917944848
 40
0.9091749205
 40
0.9268186941
 40
0.9447249639
 40
0.9628921916
 40
0.9813181576
 40
1.0
 40
1.0
 40
1.0
 40
1.0
 10
16.3992125449
 20
12.5807809307
 30
0.0
 10
16.4078467545
 20
12.5733686916
 30
0.0
 10
16.4248635509
 20
12.5584578568
 30
0.0
 10
16.4497635176
 20
12.5357027956
 30
0.0
 10
16.4738705898
 20
12.5127065572
 30
0.0
 10
16.4971672183
 20
12.489485863
 30
0.0
 10
16.5196365814
 20
12.4660574123
 30
0.0
 10
16.5412624475
 20
12.44243813
 30
0.0
 10
16.5620292013
 20
12.4186450596
 30
0.0
 10
16.5819218035
 20
12.3946953352
 30
0.0
 10
16.6009258883
 20
12.3706062384
 30
0.0
 10
16.6190277252
 20
12.3463951427
 30
0.0
 10
16.636214187
 20
12.3220794735
 30
0.0
 10
16.6524728507
 20
12.2976767648
 30
0.0
 10
16.6677919551
 20
12.2732046054
 30
0.0
 10
16.6821603611
 20
12.2486806015
 30
0.0
 10
16.6955676602
 20
12.224122428
 30
0.0
 10
16.7080041279
 20
12.1995477796
 30
0.0
 10
16.7194606748
 20
12.174974336
 30
0.0
 10
16.7299289649
 20
12.1504198079
 30
0.0
 10
16.7394013636
 20
12.1259018922
 30
0.0
 10
16.7478708817
 20
12.1014382434
 30
0.0
 10
16.7553313031
 20
12.077046511
 30
0.0
 10
16.7617771288
 20
12.0527443003
 30
0.0
 10
16.7672035144
 20
12.0285491513
 30
0.0
 10
16.7716064088
 20
12.0044785644
 30
0.0
 10
16.7749824946
 20
11.9805499673
 30
0.0
 10
16.7773291218
 20
11.9567807012
 30
0.0
 10
16.7786444553
 20
11.9331880308
 30
0.0
 10
16.7789274137
 20
11.9097891161
 30
0.0
 10
16.7781776
 20
11.8866010058
 30
0.0
 10
16.7763954539
 20
11.863640626
 30
0.0
 10
16.7735821886
 20
11.8409247558
 30
0.0
 10
16.7697397167
 20
11.8184700277
 30
0.0
 10
16.7648708019
 20
11.7962928918
 30
0.0
 10
16.7589789894
 20
11.7744095968
 30
0.0
 10
16.7520685279
 20
11.7528361992
 30
0.0
 10
16.7441445106
 20
11.7315885049
 30
0.0
 10
16.7352128003
 20
11.7106820599
 30
0.0
 10
16.725279948
 20
11.6901321718
 30
0.0
 10
16.7143533191
 20
11.6699538358
 30
0.0
 10
16.7024410171
 20
11.6501617382
 30
0.0
 10
16.6895518036
 20
11.6307702932
 30
0.0
 10
16.6756952104
 20
11.6117935575
 30
0.0
 10
16.6608814676
 20
11.5932452475
 30
0.0
 10
16.6451214309
 20
11.5751387884
 30
0.0
 10
16.6284266806
 20
11.5574872203
 30
0.0
 10
16.6108094582
 20
11.5403032247
 30
0.0
 10
16.592282604
 20
11.5235991806
 30
0.0
 10
16.5728596422
 20
11.5073870636
 30
0.0
 10
16.5525547272
 20
11.4916784767
 30
0.0
 10
16.5313825902
 20
11.4764847093
 30
0.0
 10
16.5093586096
 20
11.4618166312
 30
0.0
 10
16.4864987656
 20
11.4476847233
 30
0.0
 10
16.4628195936
 20
11.4340991393
 30
0.0
 10
16.4383382394
 20
11.4210695954
 30
0.0
 10
16.4130724202
 20
11.4086054013
 30
0.0
 10
16.3870403835
 20
11.3967155216
 30
0.0
 10
16.3602609477
 20
11.3854084662
 30
0.0
 10
16.3327534673
 20
11.374692319
 30
0.0
 10
16.3045377981
 20
11.3645748009
 30
0.0
 10
16.275634318
 20
11.3550631602
 30
0.0
 10
16.2460639202
 20
11.3461642058
 30
0.0
 10
16.2158478917
 20
11.337884349
 30
0.0
 10
16.1850082647
 20
11.3302295781
 30
0.0
 10
16.1641893582
 20
11.3255784307
 30
0.0
 10
16.1536833192
 20
11.3233562351
 30
0.0
  0
SPLINE
  5
3E2
100
AcDbEntity
  8
LAYER_FEATURE
100
AcDbSpline
 62
7
  6
CONTINUOUS
 70
0
 71
3
 72
11
 73
7
 74
0
 42
0.0000001
 43
0.0000001
 44
0.0000000001
 40
0.0
 40
0.0
 40
0.0
 40
0.0
 40
0.2546972019
 40
0.5063620787
 40
0.7548414477
 40
1.0
 40
1.0
 40
1.0
 40
1.0
 10
14.9040884261
 20
13.1161424035
 30
0.0
 10
14.8888615993
 20
13.1161424035
 30
0.0
 10
14.8585880151
 20
13.1157978275
 30
0.0
 10
14.8134837858
 20
13.1142270932
 30
0.0
 10
14.7689994472
 20
13.111607216
 30
0.0
 10
14.7395869214
 20
13.1091461931
 30
0.0
 10
14.724998177
 20
13.1077378198
 30
0.0
  0
SPLINE
  5
3E3
100
AcDbEntity
  8
LAYER_FEATURE
100
AcDbSpline
 62
7
  6
CONTINUOUS
 70
0
 71
3
 72
71
 73
67
 74
0
 42
0.0000001
 43
0.0000001
 44
0.0000000001
 40
0.0
 40
0.0
 40
0.0
 40
0.0
 40
0.0198940523
 40
0.0395546661
 40
0.0589760185
 40
0.0781527875
 40
0.0970801805
 40
0.1157539703
 40
0.1341705191
 40
0.1523268025
 40
0.1702204576
 40
0.1878498101
 40
0.2052138982
 40
0.2223125247
 40
0.2391462877
 40
0.2557166057
 40
0.2720257685
 40
0.2880769718
 40
0.3038743385
 40
0.3194229658
 40
0.3347289568
 40
0.3497994341
 40
0.3646425739
 40
0.3792676262
 40
0.3936849112
 40
0.4079058294
 40
0.4219428574
 40
0.435809515
 40
0.4495203384
 40
0.4630908373
 40
0.4765374231
 40
0.4898773342
 40
0.5031285482
 40
0.5163096668
 40
0.5294397975
 40
0.542538424
 40
0.5556252633
 40
0.5687201201
 40
0.5818427392
 40
0.5950126589
 40
0.608249071
 40
0.6215706822
 40
0.6349955955
 40
0.6485412015
 40
0.6622240744
 40
0.6760598976
 40
0.6900634016
 40
0.704248302
 40
0.7186272715
 40
0.7332119217
 40
0.7480127789
 40
0.7630392908
 40
0.7782998422
 40
0.7938017558
 40
0.8095513205
 40
0.8255538276
 40
0.8418135854
 40
0.8583339565
 40
0.8751174046
 40
0.8921655146
 40
0.9094790312
 40
0.9270579086
 40
0.9449013324
 40
0.9630077545
 40
0.9813749423
 40
1.0
 40
1.0
 40
1.0
 40
1.0
 10
14.724998177
 20
13.1077378198
 30
0.0
 10
14.7134626398
 20
13.1066241981
 30
0.0
 10
14.690548536
 20
13.1041784932
 30
0.0
 10
14.6564671556
 20
13.099823047
 30
0.0
 10
14.6228991866
 20
13.0948051426
 30
0.0
 10
14.5898695697
 20
13.0891284897
 30
0.0
 10
14.5574026205
 20
13.0827972237
 30
0.0
 10
14.5255222881
 20
13.0758160137
 30
0.0
 10
14.4942520726
 20
13.0681899992
 30
0.0
 10
14.4636150398
 20
13.0599247443
 30
0.0
 10
14.4336337753
 20
13.0510263275
 30
0.0
 10
14.4043303787
 20
13.0415012927
 30
0.0
 10
14.3757264675
 20
13.0313565897
 30
0.0
 10
14.3478431324
 20
13.0205996617
 30
0.0
 10
14.3207009279
 20
13.009238409
 30
0.0
 10
14.2943198885
 20
12.9972811182
 30
0.0
 10
14.2687194794
 20
12.9847365437
 30
0.0
 10
14.2439185836
 20
12.9716138874
 30
0.0
 10
14.2199355316
 20
12.9579227174
 30
0.0
 10
14.1967880492
 20
12.9436730421
 30
0.0
 10
14.1744932371
 20
12.9288753069
 30
0.0
 10
14.1530676161
 20
12.9135403049
 30
0.0
 10
14.1325270734
 20
12.8976792427
 30
0.0
 10
14.1128868306
 20
12.8813037532
 30
0.0
 10
14.0941615043
 20
12.8644258026
 30
0.0
 10
14.0763650533
 20
12.8470577466
 30
0.0
 10
14.0595107288
 20
12.8292123566
 30
0.0
 10
14.0436111503
 20
12.8109027274
 30
0.0
 10
14.0286782547
 20
12.7921423212
 30
0.0
 10
14.0147232239
 20
12.7729450027
 30
0.0
 10
14.0017565747
 20
12.7533249493
 30
0.0
 10
13.9897881121
 20
12.7332966814
 30
0.0
 10
13.9788268322
 20
12.7128750965
 30
0.0
 10
13.968881026
 20
12.6920753846
 30
0.0
 10
13.9599582408
 20
12.670913043
 30
0.0
 10
13.9520651641
 20
12.6494038998
 30
0.0
 10
13.9452077393
 20
12.6275640383
 30
0.0
 10
13.9393911439
 20
12.6054097974
 30
0.0
 10
13.9346196615
 20
12.5829577808
 30
0.0
 10
13.9308968087
 20
12.5602247953
 30
0.0
 10
13.9282253333
 20
12.5372278452
 30
0.0
 10
13.9266070838
 20
12.5139841261
 30
0.0
 10
13.9260431383
 20
12.4905109846
 30
0.0
 10
13.9265338232
 20
12.4668259132
 30
0.0
 10
13.9280785837
 20
12.4429465325
 30
0.0
 10
13.9306761038
 20
12.4188905715
 30
0.0
 10
13.9343243405
 20
12.3946758684
 30
0.0
 10
13.9390203985
 20
12.3703203414
 30
0.0
 10
13.9447606319
 20
12.3458419846
 30
0.0
 10
13.9515406895
 20
12.3212588749
 30
0.0
 10
13.9593553976
 20
12.2965891323
 30
0.0
 10
13.9681988387
 20
12.2718509224
 30
0.0
 10
13.9780644065
 20
12.2470624699
 30
0.0
 10
13.9889446999
 20
12.2222420091
 30
0.0
 10
14.0008315792
 20
12.1974077869
 30
0.0
 10
14.01371623
 20
12.1725780819
 30
0.0
 10
14.0275890703
 20
12.1477711494
 30
0.0
 10
14.0424397881
 20
12.1230052179
 30
0.0
 10
14.0582574107
 20
12.0982985169
 30
0.0
 10
14.075030229
 20
12.0736692173
 30
0.0
 10
14.0927458159
 20
12.0491354215
 30
0.0
 10
14.1113911059
 20
12.0247151939
 30
0.0
 10
14.1309523173
 20
12.0004265193
 30
0.0
 10
14.1514150234
 20
11.9762872153
 30
0.0
 10
14.1727639823
 20
11.9523152287
 30
0.0
 10
14.1874757324
 20
11.9365656036
 30
0.0
 10
14.1949725791
 20
11.9287222584
 30
0.0
  0
SPLINE
  5
3E4
100
AcDbEntity
  8
LAYER_FEATURE
100
AcDbSpline
 62
7
  6
CONTINUOUS
 70
0
 71
3
 72
78
 73
74
 74
0
 42
0.0000001
 43
0.0000001
 44
0.0000000001
 40
0.0
 40
0.0
 40
0.0
 40
0.0
 40
0.0171786494
 40
0.034530259
 40
0.052044083
 40
0.0697096926
 40
0.0875159169
 40
0.1054514052
 40
0.1235044838
 40
0.1416632229
 40
0.1599154662
 40
0.1782488551
 40
0.1966508594
 40
0.2151088034
 40
0.2336098939
 40
0.2521412485
 40
0.2706899221
 40
0.2892429336
 40
0.3077872924
 40
0.3263100264
 40
0.3447982082
 40
0.3632389822
 40
0.3816195916
 40
0.3999274055
 40
0.4181499471
 40
0.4362749223
 40
0.4542902467
 40
0.472184075
 40
0.4899448297
 40
0.5075612324
 40
0.5250223351
 40
0.5423175506
 40
0.5594366852
 40
0.5763699716
 40
0.5931081049
 40
0.60964228
 40
0.6259642276
 40
0.6420662527
 40
0.6579412756
 40
0.6735828743
 40
0.6889853316
 40
0.7041436801
 40
0.71905375
 40
0.7337122195
 40
0.748116668
 40
0.7622656323
 40
0.7761586636
 40
0.7897963834
 40
0.8031805416
 40
0.8163140755
 40
0.8292011685
 40
0.8418473065
 40
0.8542593269
 40
0.8603804056
 40
0.8664461623
 40
0.8784160809
 40
0.8901809052
 40
0.8959906881
 40
0.901754044
 40
0.9131479177
 40
0.9243788243
 40
0.9354636208
 40
0.9464204585
 40
0.9518573841
 40
0.9572696635
 40
0.9626598748
 40
0.9680306504
 40
0.9733846742
 40
0.9787246697
 40
0.9840533993
 40
0.9893736532
 40
0.9946882442
 40
1.0
 40
1.0
 40
1.0
 40
1.0
 10
15.0996013741
 20
13.9177387452
 30
0.0
 10
15.1152906952
 20
13.9177387452
 30
0.0
 10
15.1468283097
 20
13.9173935205
 30
0.0
 10
15.1943389477
 20
13.9158596037
 30
0.0
 10
15.2422513487
 20
13.9133084221
 30
0.0
 10
15.2905151364
 20
13.9097427348
 30
0.0
 10
15.3390803471
 20
13.9051661869
 30
0.0
 10
15.3878963403
 20
13.8995835678
 30
0.0
 10
15.4369123365
 20
13.8930006826
 30
0.0
 10
15.4860773131
 20
13.8854243908
 30
0.0
 10
15.5353400963
 20
13.8768625807
 30
0.0
 10
15.5846494097
 20
13.8673241627
 30
0.0
 10
15.6339539248
 20
13.8568190605
 30
0.0
 10
15.6832023176
 20
13.8453582078
 30
0.0
 10
15.7323433232
 20
13.8329535414
 30
0.0
 10
15.7813257871
 20
13.8196179761
 30
0.0
 10
15.8300987194
 20
13.8053653935
 30
0.0
 10
15.8786113467
 20
13.7902106267
 30
0.0
 10
15.9268131655
 20
13.7741694467
 30
0.0
 10
15.9746539998
 20
13.7572585586
 30
0.0
 10
16.0220840491
 20
13.739495569
 30
0.0
 10
16.0690539403
 20
13.720898969
 30
0.0
 10
16.1155147786
 20
13.7014881149
 30
0.0
 10
16.1614181978
 20
13.681283206
 30
0.0
 10
16.2067164172
 20
13.6603052771
 30
0.0
 10
16.2513622889
 20
13.6385761677
 30
0.0
 10
16.2953093436
 20
13.6161184943
 30
0.0
 10
16.3385118392
 20
13.5929556291
 30
0.0
 10
16.3809248073
 20
13.5691116723
 30
0.0
 10
16.4225041058
 20
13.5446114361
 30
0.0
 10
16.463206467
 20
13.5194804189
 30
0.0
 10
16.5029895357
 20
13.4937447685
 30
0.0
 10
16.5418119129
 20
13.4674312574
 30
0.0
 10
16.5796331985
 20
13.4405672531
 30
0.0
 10
16.6164140351
 20
13.4131806906
 30
0.0
 10
16.6521161587
 20
13.3853000533
 30
0.0
 10
16.6867024269
 20
13.3569543289
 30
0.0
 10
16.7201368571
 20
13.3281729806
 30
0.0
 10
16.7523846617
 20
13.2989859167
 30
0.0
 10
16.7834122842
 20
13.2694234556
 30
0.0
 10
16.8131874459
 20
13.2395163059
 30
0.0
 10
16.8416791699
 20
13.2092955238
 30
0.0
 10
16.8688578066
 20
13.1787924781
 30
0.0
 10
16.8946950632
 20
13.1480388197
 30
0.0
 10
16.9191640285
 20
13.1170664445
 30
0.0
 10
16.9422392105
 20
13.0859074686
 30
0.0
 10
16.9638965604
 20
13.0545941921
 30
0.0
 10
16.9841134808
 20
13.0231590635
 30
0.0
 10
17.0028688509
 20
12.9916346378
 30
0.0
 10
17.0201430249
 20
12.9600535917
 30
0.0
 10
17.0359179179
 20
12.9284485201
 30
0.0
 10
17.0501768014
 20
12.8968525468
 30
0.0
 10
17.0608323928
 20
12.8704356619
 30
0.0
 10
17.0685727297
 20
12.8493433442
 30
0.0
 10
17.07572862
 20
12.828472091
 30
0.0
 10
17.0837156405
 20
12.8024436739
 30
0.0
 10
17.0904605999
 20
12.7763066376
 30
0.0
 10
17.0950574252
 20
12.7554917543
 30
0.0
 10
17.0990934692
 20
12.7349061595
 30
0.0
 10
17.103163088
 20
12.709289226
 30
0.0
 10
17.1064769614
 20
12.6786680495
 30
0.0
 10
17.1081988255
 20
12.6483156314
 30
0.0
 10
17.1083052504
 20
12.6232067228
 30
0.0
 10
17.1075876775
 20
12.603302116
 30
0.0
 10
17.1066528641
 20
12.5884981836
 30
0.0
 10
17.1053202656
 20
12.5737854852
 30
0.0
 10
17.1035901778
 20
12.559167745
 30
0.0
 10
17.1014631257
 20
12.544648812
 30
0.0
 10
17.0989395719
 20
12.5302324844
 30
0.0
 10
17.0960202348
 20
12.5159225389
 30
0.0
 10
17.0927058473
 20
12.5017226817
 30
0.0
 10
17.0889972826
 20
12.4876367849
 30
0.0
 10
17.0862624588
 20
12.4783234167
 30
0.0
 10
17.0848301433
 20
12.4736884352
 30
0.0
  0
SPLINE
  5
3E5
100
AcDbEntity
  8
LAYER_FEATURE
100
AcDbSpline
 62
7
  6
CONTINUOUS
 70
0
 71
3
 72
78
 73
74
 74
0
 42
0.0000001
 43
0.0000001
 44
0.0000000001
 40
0.0
 40
0.0
 40
0.0
 40
0.0
 40
0.0171786494
 40
0.034530259
 40
0.052044083
 40
0.0697096926
 40
0.0875159169
 40
0.1054514052
 40
0.1235044838
 40
0.1416632229
 40
0.1599154662
 40
0.1782488551
 40
0.1966508594
 40
0.2151088034
 40
0.2336098939
 40
0.2521412485
 40
0.2706899221
 40
0.2892429336
 40
0.3077872924
 40
0.3263100264
 40
0.3447982082
 40
0.3632389822
 40
0.3816195916
 40
0.3999274055
 40
0.4181499471
 40
0.4362749223
 40
0.4542902467
 40
0.472184075
 40
0.4899448297
 40
0.5075612324
 40
0.5250223351
 40
0.5423175506
 40
0.5594366852
 40
0.5763699716
 40
0.5931081049
 40
0.60964228
 40
0.6259642276
 40
0.6420662527
 40
0.6579412756
 40
0.6735828743
 40
0.6889853316
 40
0.7041436801
 40
0.71905375
 40
0.7337122195
 40
0.748116668
 40
0.7622656323
 40
0.7761586636
 40
0.7897963834
 40
0.8031805416
 40
0.8163140755
 40
0.8292011685
 40
0.8418473065
 40
0.8542593269
 40
0.8603804056
 40
0.8664461623
 40
0.8784160809
 40
0.8901809052
 40
0.8959906881
 40
0.901754044
 40
0.9131479177
 40
0.9243788243
 40
0.9354636208
 40
0.9464204585
 40
0.9518573841
 40
0.9572696635
 40
0.9626598748
 40
0.9680306504
 40
0.9733846742
 40
0.9787246697
 40
0.9840533993
 40
0.9893736532
 40
0.9946882442
 40
1.0
 40
1.0
 40
1.0
 40
1.0
 10
14.8623763771
 20
13.1500783737
 30
0.0
 10
14.8780656982
 20
13.1500783737
 30
0.0
 10
14.9096033127
 20
13.149733149
 30
0.0
 10
14.9571139508
 20
13.1481992323
 30
0.0
 10
15.0050263517
 20
13.1456480507
 30
0.0
 10
15.0532901394
 20
13.1420823634
 30
0.0
 10
15.1018553502
 20
13.1375058155
 30
0.0
 10
15.1506713434
 20
13.1319231964
 30
0.0
 10
15.1996873395
 20
13.1253403111
 30
0.0
 10
15.2488523161
 20
13.1177640194
 30
0.0
 10
15.2981150994
 20
13.1092022093
 30
0.0
 10
15.3474244127
 20
13.0996637913
 30
0.0
 10
15.3967289279
 20
13.0891586891
 30
0.0
 10
15.4459773207
 20
13.0776978363
 30
0.0
 10
15.4951183263
 20
13.06529317
 30
0.0
 10
15.5441007902
 20
13.0519576047
 30
0.0
 10
15.5928737225
 20
13.037705022
 30
0.0
 10
15.6413863498
 20
13.0225502552
 30
0.0
 10
15.6895881686
 20
13.0065090753
 30
0.0
 10
15.7374290028
 20
12.9895981871
 30
0.0
 10
15.7848590521
 20
12.9718351976
 30
0.0
 10
15.8318289433
 20
12.9532385976
 30
0.0
 10
15.8782897817
 20
12.9338277435
 30
0.0
 10
15.9241932008
 20
12.9136228345
 30
0.0
 10
15.9694914203
 20
12.8926449057
 30
0.0
 10
16.0141372919
 20
12.8709157963
 30
0.0
 10
16.0580843467
 20
12.8484581229
 30
0.0
 10
16.1012868423
 20
12.8252952576
 30
0.0
 10
16.1436998104
 20
12.8014513009
 30
0.0
 10
16.1852791088
 20
12.7769510646
 30
0.0
 10
16.22598147
 20
12.7518200475
 30
0.0
 10
16.2657645387
 20
12.7260843971
 30
0.0
 10
16.304586916
 20
12.699770886
 30
0.0
 10
16.3424082015
 20
12.6729068817
 30
0.0
 10
16.3791890382
 20
12.6455203191
 30
0.0
 10
16.4148911617
 20
12.6176396819
 30
0.0
 10
16.44947743
 20
12.5892939574
 30
0.0
 10
16.4829118601
 20
12.5605126091
 30
0.0
 10
16.5151596648
 20
12.5313255453
 30
0.0
 10
16.5461872873
 20
12.5017630842
 30
0.0
 10
16.575962449
 20
12.4718559345
 30
0.0
 10
16.604454173
 20
12.4416351524
 30
0.0
 10
16.6316328097
 20
12.4111321067
 30
0.0
 10
16.6574700663
 20
12.3803784482
 30
0.0
 10
16.6819390316
 20
12.3494060731
 30
0.0
 10
16.7050142135
 20
12.3182470972
 30
0.0
 10
16.7266715634
 20
12.2869338207
 30
0.0
 10
16.7468884838
 20
12.2554986921
 30
0.0
 10
16.765643854
 20
12.2239742664
 30
0.0
 10
16.782918028
 20
12.1923932202
 30
0.0
 10
16.7986929209
 20
12.1607881486
 30
0.0
 10
16.8129518044
 20
12.1291921753
 30
0.0
 10
16.8236073959
 20
12.1027752905
 30
0.0
 10
16.8313477328
 20
12.0816829727
 30
0.0
 10
16.8385036231
 20
12.0608117195
 30
0.0
 10
16.8464906436
 20
12.0347833024
 30
0.0
 10
16.853235603
 20
12.0086462661
 30
0.0
 10
16.8578324282
 20
11.9878313829
 30
0.0
 10
16.8618684723
 20
11.9672457881
 30
0.0
 10
16.8659380911
 20
11.9416288545
 30
0.0
 10
16.8692519645
 20
11.9110076781
 30
0.0
 10
16.8709738285
 20
11.88065526
 30
0.0
 10
16.8710802535
 20
11.8555463514
 30
0.0
 10
16.8703626806
 20
11.8356417445
 30
0.0
 10
16.8694278671
 20
11.8208378122
 30
0.0
 10
16.8680952687
 20
11.8061251137
 30
0.0
 10
16.8663651809
 20
11.7915073736
 30
0.0
 10
16.8642381288
 20
11.7769884406
 30
0.0
 10
16.8617145749
 20
11.7625721129
 30
0.0
 10
16.8587952379
 20
11.7482621675
 30
0.0
 10
16.8554808504
 20
11.7340623102
 30
0.0
 10
16.8517722857
 20
11.7199764135
 30
0.0
 10
16.8490374619
 20
11.7106630453
 30
0.0
 10
16.8476051464
 20
11.7060280638
 30
0.0
  0
SPLINE
  5
3E6
100
AcDbEntity
  8
LAYER_FEATURE
100
AcDbSpline
 62
7
  6
CONTINUOUS
 70
0
 71
3
 72
14
 73
10
 74
0
 42
0.0000001
 43
0.0000001
 44
0.0000000001
 40
0.0
 40
0.0
 40
0.0
 40
0.0
 40
0.1436855139
 40
0.2826571109
 40
0.4164693477
 40
0.5447527931
 40
0.6672726937
 40
0.7839406002
 40
1.0
 40
1.0
 40
1.0
 40
1.0
 10
14.2626533069
 20
13.3343698768
 30
0.0
 10
14.262180107
 20
13.3343719805
 30
0.0
 10
14.261248839
 20
13.3343494577
 30
0.0
 10
14.2598814488
 20
13.3342315518
 30
0.0
 10
14.2585748346
 20
13.3340309309
 30
0.0
 10
14.2573387902
 20
13.3337490604
 30
0.0
 10
14.2561820759
 20
13.3333877016
 30
0.0
 10
14.2547940682
 20
13.3328187825
 30
0.0
 10
14.2538384625
 20
13.3322609609
 30
0.0
 10
14.2532721229
 20
13.3318301806
 30
0.0
  0
SPLINE
  5
3E7
100
AcDbEntity
  8
LAYER_FEATURE
100
AcDbSpline
 62
7
  6
CONTINUOUS
 70
0
 71
3
 72
15
 73
11
 74
0
 42
0.0000001
 43
0.0000001
 44
0.0000000001
 40
0.0
 40
0.0
 40
0.0
 40
0.0
 40
0.1415202889
 40
0.2794031168
 40
0.4129602715
 40
0.5416190642
 40
0.6649045446
 40
0.7824788051
 40
0.894174762
 40
1.0
 40
1.0
 40
1.0
 40
1.0
 10
14.3018964737
 20
13.4145810101
 30
0.0
 10
14.3013654012
 20
13.4146396334
 30
0.0
 10
14.3003133481
 20
13.4147257326
 30
0.0
 10
14.2987536796
 20
13.4147597589
 30
0.0
 10
14.2972433569
 20
13.4146968861
 30
0.0
 10
14.2957954476
 20
13.4145376608
 30
0.0
 10
14.2944223485
 20
13.4142833542
 30
0.0
 10
14.2931357361
 20
13.4139360455
 30
0.0
 10
14.2919468208
 20
13.4134985823
 30
0.0
 10
14.2912062558
 20
13.4131394939
 30
0.0
 10
14.2908572063
 20
13.4129450916
 30
0.0
  0
SPLINE
  5
3E8
100
AcDbEntity
  8
LAYER_FEATURE
100
AcDbSpline
 62
7
  6
CONTINUOUS
 70
0
 71
3
 72
15
 73
11
 74
0
 42
0.0000001
 43
0.0000001
 44
0.0000000001
 40
0.0
 40
0.0
 40
0.0
 40
0.0
 40
0.1385409237
 40
0.2744675905
 40
0.4070417375
 40
0.5356144266
 40
0.6596059773
 40
0.7785405072
 40
0.8920755233
 40
1.0
 40
1.0
 40
1.0
 40
1.0
 10
14.356213147
 20
13.4884329115
 30
0.0
 10
14.3556746265
 20
13.4885294601
 30
0.0
 10
14.3546022744
 20
13.4886916756
 30
0.0
 10
14.3530009991
 20
13.4888417398
 30
0.0
 10
14.3514328721
 20
13.4888953821
 30
0.0
 10
14.3499114914
 20
13.4888521581
 30
0.0
 10
14.3484499161
 20
13.4887123782
 30
0.0
 10
14.3470606257
 20
13.4884772094
 30
0.0
 10
14.3457557002
 20
13.4881485905
 30
0.0
 10
14.3449280219
 20
13.4878615608
 30
0.0
 10
14.3445327753
 20
13.4877021021
 30
0.0
  0
SPLINE
  5
3E9
100
AcDbEntity
  8
LAYER_FEATURE
100
AcDbSpline
 62
7
  6
CONTINUOUS
 70
0
 71
3
 72
15
 73
11
 74
0
 42
0.0000001
 43
0.0000001
 44
0.0000000001
 40
0.0
 40
0.0
 40
0.0
 40
0.0
 40
0.1354512162
 40
0.2692837809
 40
0.4007324205
 40
0.5290993085
 40
0.6537328239
 40
0.774058487
 40
0.8896055784
 40
1.0
 40
1.0
 40
1.0
 40
1.0
 10
14.4257984172
 20
13.5549776091
 30
0.0
 10
14.4252591948
 20
13.5551111318
 30
0.0
 10
14.4241798598
 20
13.5553479672
 30
0.0
 10
14.4225569562
 20
13.5556121884
 30
0.0
 10
14.420950559
 20
13.5557816566
 30
0.0
 10
14.419374622
 20
13.5558549296
 30
0.0
 10
14.4178426998
 20
13.5558313326
 30
0.0
 10
14.4163679216
 20
13.5557110722
 30
0.0
 10
14.414963109
 20
13.555495127
 30
0.0
 10
14.414059708
 20
13.5552835252
 30
0.0
 10
14.4136238287
 20
13.5551610994
 30
0.0
  0
SPLINE
  5
3EA
100
AcDbEntity
  8
LAYER_FEATURE
100
AcDbSpline
 62
7
  6
CONTINUOUS
 70
0
 71
3
 72
11
 73
7
 74
0
 42
0.0000001
 43
0.0000001
 44
0.0000000001
 40
0.0
 40
0.0
 40
0.0
 40
0.0
 40
0.2499908702
 40
0.5014797354
 40
0.7522281369
 40
1.0
 40
1.0
 40
1.0
 40
1.0
 10
14.4401231158
 20
13.5501270949
 30
0.0
 10
14.4418060515
 20
13.5493935893
 30
0.0
 10
14.4452331161
 20
13.5480366655
 30
0.0
 10
14.4504961337
 20
13.5463459037
 30
0.0
 10
14.4558433246
 20
13.5450095191
 30
0.0
 10
14.459449747
 20
13.5443608657
 30
0.0
 10
14.4612507109
 20
13.5441015091
 30
0.0
  0
SPLINE
  5
3EB
100
AcDbEntity
  8
LAYER_FEATURE
100
AcDbSpline
 62
7
  6
CONTINUOUS
 70
0
 71
3
 72
15
 73
11
 74
0
 42
0.0000001
 43
0.0000001
 44
0.0000000001
 40
0.0
 40
0.0
 40
0.0
 40
0.0
 40
0.1323294621
 40
0.2640007524
 40
0.3942392279
 40
0.5223187069
 40
0.6475398716
 40
0.7692585453
 40
0.8869104734
 40
1.0
 40
1.0
 40
1.0
 40
1.0
 10
14.5097772091
 20
13.613378265
 30
0.0
 10
14.5092440913
 20
13.613547336
 30
0.0
 10
14.5081712928
 20
13.6138563435
 30
0.0
 10
14.5065470339
 20
13.6142314187
 30
0.0
 10
14.5049224123
 20
13.6145145905
 30
0.0
 10
14.5033115574
 20
13.6147034297
 30
0.0
 10
14.5017283432
 20
13.614796273
 30
0.0
 10
14.5001863779
 20
13.6147923427
 30
0.0
 10
14.4986990722
 20
13.6146916262
 30
0.0
 10
14.4977320447
 20
13.6145576951
 30
0.0
 10
14.4972615064
 20
13.6144737473
 30
0.0
  0
SPLINE
  5
3EC
100
AcDbEntity
  8
LAYER_FEATURE
100
AcDbSpline
 62
7
  6
CONTINUOUS
 70
0
 71
3
 72
11
 73
7
 74
0
 42
0.0000001
 43
0.0000001
 44
0.0000000001
 40
0.0
 40
0.0
 40
0.0
 40
0.0
 40
0.2466389142
 40
0.4961022961
 40
0.747519795
 40
1.0
 40
1.0
 40
1.0
 40
1.0
 10
14.5236500394
 20
13.6076556928
 30
0.0
 10
14.5225533532
 20
13.6082239178
 30
0.0
 10
14.520321549
 20
13.6093176362
 30
0.0
 10
14.516890837
 20
13.6108184578
 30
0.0
 10
14.5133722584
 20
13.6121828863
 30
0.0
 10
14.5109824565
 20
13.6129960373
 30
0.0
 10
14.5097772091
 20
13.613378265
 30
0.0
  0
SPLINE
  5
3ED
100
AcDbEntity
  8
LAYER_FEATURE
100
AcDbSpline
 62
7
  6
CONTINUOUS
 70
0
 71
3
 72
15
 73
11
 74
0
 42
0.0000001
 43
0.0000001
 44
0.0000000001
 40
0.0
 40
0.0
 40
0.0
 40
0.0
 40
0.1240716979
 40
0.2497704664
 40
0.3764215725
 40
0.503339179
 40
0.629830483
 40
0.7552107125
 40
0.8788128863
 40
1.0
 40
1.0
 40
1.0
 40
1.0
 10
14.5236500394
 20
13.6076556928
 30
0.0
 10
14.5249012076
 20
13.6070074262
 30
0.0
 10
14.5274565382
 20
13.6057718076
 30
0.0
 10
14.5314004478
 20
13.6041169004
 30
0.0
 10
14.5354555743
 20
13.6026583371
 30
0.0
 10
14.5395890088
 20
13.6014079595
 30
0.0
 10
14.5437674266
 20
13.6003758491
 30
0.0
 10
14.5479571306
 20
13.599570336
 30
0.0
 10
14.5521241305
 20
13.598997929
 30
0.0
 10
14.5548969042
 20
13.5987722003
 30
0.0
 10
14.5562714228
 20
13.5987006997
 30
0.0
  0
LINE
  5
3EE
100
AcDbEntity
  8
LAYER_FEATURE
100
AcDbLine
 62
7
  6
CONTINUOUS
 10
14.5742064258
 20
13.6556772057
 11
14.5733078151
 21
13.6538932411
  0
SPLINE
  5
3EF
100
AcDbEntity
  8
LAYER_FEATURE
100
AcDbSpline
 62
7
  6
CONTINUOUS
 70
0
 71
3
 72
15
 73
11
 74
0
 42
0.0000001
 43
0.0000001
 44
0.0000000001
 40
0.0
 40
0.0
 40
0.0
 40
0.0
 40
0.1292170961
 40
0.258699273
 40
0.387676891
 40
0.5154115695
 40
0.64117484
 40
0.7642744909
 40
0.8840784006
 40
1.0
 40
1.0
 40
1.0
 40
1.0
 10
14.6070934408
 20
13.6629004569
 30
0.0
 10
14.6065732052
 20
13.6631031915
 30
0.0
 10
14.6055204818
 20
13.6634809945
 30
0.0
 10
14.6039151719
 20
13.6639622349
 30
0.0
 10
14.6022926218
 20
13.6643555708
 30
0.0
 10
14.6006669551
 20
13.6646576131
 30
0.0
 10
14.5990521846
 20
13.6648657244
 30
0.0
 10
14.5974622185
 20
13.6649781405
 30
0.0
 10
14.5959108895
 20
13.664993846
 30
0.0
 10
14.5948929186
 20
13.6649387654
 30
0.0
 10
14.594394016
 20
13.6648941549
 30
0.0
  0
SPLINE
  5
3F0
100
AcDbEntity
  8
LAYER_FEATURE
100
AcDbSpline
 62
7
  6
CONTINUOUS
 70
0
 71
3
 72
11
 73
7
 74
0
 42
0.0000001
 43
0.0000001
 44
0.0000000001
 40
0.0
 40
0.0
 40
0.0
 40
0.0
 40
0.2445944546
 40
0.4933532864
 40
0.7454447587
 40
1.0
 40
1.0
 40
1.0
 40
1.0
 10
14.6203399438
 20
13.6563777915
 30
0.0
 10
14.6193112817
 20
13.6570059611
 30
0.0
 10
14.6172061264
 20
13.658223994
 30
0.0
 10
14.6139457192
 20
13.6599186374
 30
0.0
 10
14.6105696818
 20
13.6614894169
 30
0.0
 10
14.6082622109
 20
13.6624449898
 30
0.0
 10
14.6070934408
 20
13.6629004569
 30
0.0
  0
SPLINE
  5
3F1
100
AcDbEntity
  8
LAYER_FEATURE
100
AcDbSpline
 62
7
  6
CONTINUOUS
 70
0
 71
3
 72
18
 73
14
 74
0
 42
0.0000001
 43
0.0000001
 44
0.0000000001
 40
0.0
 40
0.0
 40
0.0
 40
0.0
 40
0.0611328969
 40
0.1231759992
 40
0.2493477008
 40
0.3773245987
 40
0.5058309812
 40
0.6335781177
 40
0.7592997089
 40
0.8210320788
 40
0.881814087
 40
0.9415116347
 40
1.0
 40
1.0
 40
1.0
 40
1.0
 10
14.6203399438
 20
13.6563777915
 30
0.0
 10
14.6211339846
 20
13.6558928972
 30
0.0
 10
14.6227534472
 20
13.6549475153
 30
0.0
 10
14.6261018179
 20
13.653160146
 30
0.0
 10
14.630471119
 20
13.6511325672
 30
0.0
 10
14.6359188908
 20
13.6490610981
 30
0.0
 10
14.6415211045
 20
13.6473679644
 30
0.0
 10
14.6471943675
 20
13.6460783425
 30
0.0
 10
14.651940786
 20
13.6453512259
 30
0.0
 10
14.6557022095
 20
13.6449903373
 30
0.0
 10
14.6584715309
 20
13.6448318838
 30
0.0
 10
14.6611955521
 20
13.6447846199
 30
0.0
 10
14.6629943582
 20
13.6448278247
 30
0.0
 10
14.6638835637
 20
13.6448686306
 30
0.0
  0
SPLINE
  5
3F2
100
AcDbEntity
  8
LAYER_FEATURE
100
AcDbSpline
 62
7
  6
CONTINUOUS
 70
0
 71
3
 72
11
 73
7
 74
0
 42
0.0000001
 43
0.0000001
 44
0.0000000001
 40
0.0
 40
0.0
 40
0.0
 40
0.0
 40
0.2594150197
 40
0.5109383111
 40
0.7568894599
 40
1.0
 40
1.0
 40
1.0
 40
1.0
 10
14.681293804
 20
13.6984964721
 30
0.0
 10
14.6810930308
 20
13.6983021568
 30
0.0
 10
14.6807183044
 20
13.6978971555
 30
0.0
 10
14.6802394612
 20
13.6972348631
 30
0.0
 10
14.6798570105
 20
13.6965324079
 30
0.0
 10
14.6796676019
 20
13.6960389272
 30
0.0
 10
14.6795902868
 20
13.6957887557
 30
0.0
  0
SPLINE
  5
3F3
100
AcDbEntity
  8
LAYER_FEATURE
100
AcDbSpline
 62
7
  6
CONTINUOUS
 70
0
 71
3
 72
15
 73
11
 74
0
 42
0.0000001
 43
0.0000001
 44
0.0000000001
 40
0.0
 40
0.0
 40
0.0
 40
0.0
 40
0.1261340817
 40
0.2534193419
 40
0.381103901
 40
0.5084508163
 40
0.634717471
 40
0.7591805455
 40
0.8811595807
 40
1.0
 40
1.0
 40
1.0
 40
1.0
 10
14.716523304
 20
13.7029214145
 30
0.0
 10
14.7160226134
 20
13.7031554895
 30
0.0
 10
14.7150033449
 20
13.7035978205
 30
0.0
 10
14.7134370563
 20
13.7041792086
 30
0.0
 10
14.7118368605
 20
13.7046777915
 30
0.0
 10
14.7102166941
 20
13.7050892616
 30
0.0
 10
14.708590527
 20
13.7054100379
 30
0.0
 10
14.7069723846
 20
13.7056373853
 30
0.0
 10
14.7053763469
 20
13.7057692921
 30
0.0
 10
14.7043205806
 20
13.7057932167
 30
0.0
 10
14.7037998598
 20
13.7057882563
 30
0.0
  0
SPLINE
  5
3F4
100
AcDbEntity
  8
LAYER_FEATURE
100
AcDbSpline
 62
7
  6
CONTINUOUS
 70
0
 71
3
 72
11
 73
7
 74
0
 42
0.0000001
 43
0.0000001
 44
0.0000000001
 40
0.0
 40
0.0
 40
0.0
 40
0.0
 40
0.2425692446
 40
0.4906163341
 40
0.7433690749
 40
1.0
 40
1.0
 40
1.0
 40
1.0
 10
14.7289768973
 20
13.6956806821
 30
0.0
 10
14.7280296487
 20
13.6963611737
 30
0.0
 10
14.7260783515
 20
13.6976888552
 30
0.0
 10
14.7230290705
 20
13.6995561102
 30
0.0
 10
14.719837859
 20
13.7013135707
 30
0.0
 10
14.7176411317
 20
13.7023988254
 30
0.0
 10
14.716523304
 20
13.7029214145
 30
0.0
  0
SPLINE
  5
3F5
100
AcDbEntity
  8
LAYER_FEATURE
100
AcDbSpline
 62
7
  6
CONTINUOUS
 70
0
 71
3
 72
23
 73
19
 74
0
 42
0.0000001
 43
0.0000001
 44
0.0000000001
 40
0.0
 40
0.0
 40
0.0
 40
0.0
 40
0.0602474411
 40
0.1219251192
 40
0.1848098599
 40
0.2486752666
 40
0.3132754944
 40
0.3783582957
 40
0.4436649072
 40
0.5089340154
 40
0.5739047974
 40
0.6383199645
 40
0.7019289261
 40
0.7644909986
 40
0.825778835
 40
0.8855819937
 40
0.9437107083
 40
1.0
 40
1.0
 40
1.0
 40
1.0
 10
14.7289768973
 20
13.6956806821
 30
0.0
 10
14.7299019858
 20
13.6950161101
 30
0.0
 10
14.7318107502
 20
13.6937214982
 30
0.0
 10
14.7347990853
 20
13.691908287
 30
0.0
 10
14.7379319643
 20
13.6902094657
 30
0.0
 10
14.7411905961
 20
13.6886351464
 30
0.0
 10
14.7445557725
 20
13.6871946554
 30
0.0
 10
14.748007486
 20
13.685896539
 30
0.0
 10
14.7515252684
 20
13.6847485044
 30
0.0
 10
14.7550882379
 20
13.683757359
 30
0.0
 10
14.7586752504
 20
13.6829289827
 30
0.0
 10
14.7622650237
 20
13.682268291
 30
0.0
 10
14.7658362628
 20
13.6817792054
 30
0.0
 10
14.7693677971
 20
13.6814646346
 30
0.0
 10
14.7728386866
 20
13.6813264455
 30
0.0
 10
14.7762284307
 20
13.6813654702
 30
0.0
 10
14.7795168129
 20
13.681581482
 30
0.0
 10
14.7816651855
 20
13.6818471858
 30
0.0
 10
14.7827167531
 20
13.6820108032
 30
0.0
  0
SPLINE
  5
3F6
100
AcDbEntity
  8
LAYER_FEATURE
100
AcDbSpline
 62
7
  6
CONTINUOUS
 70
0
 71
3
 72
13
 73
9
 74
0
 42
0.0000001
 43
0.0000001
 44
0.0000000001
 40
0.0
 40
0.0
 40
0.0
 40
0.0
 40
0.2662030713
 40
0.5188916668
 40
0.6414019185
 40
0.7620171036
 40
0.8813366679
 40
1.0
 40
1.0
 40
1.0
 40
1.0
 10
14.7995617013
 20
13.7313668637
 30
0.0
 10
14.7992331654
 20
13.7311357965
 30
0.0
 10
14.7986214618
 20
13.7306422718
 30
0.0
 10
14.7979665897
 20
13.7299236691
 30
0.0
 10
14.7975363848
 20
13.7293106473
 30
0.0
 10
14.7972618126
 20
13.7288368541
 30
0.0
 10
14.7970330327
 20
13.7283457738
 30
0.0
 10
14.7969112884
 20
13.7280073421
 30
0.0
 10
14.7968584253
 20
13.7278362807
 30
0.0
  0
SPLINE
  5
3F7
100
AcDbEntity
  8
LAYER_FEATURE
100
AcDbSpline
 62
7
  6
CONTINUOUS
 70
0
 71
3
 72
15
 73
11
 74
0
 42
0.0000001
 43
0.0000001
 44
0.0000000001
 40
0.0
 40
0.0
 40
0.0
 40
0.0
 40
0.1230895121
 40
0.2481791668
 40
0.3745473678
 40
0.5014712112
 40
0.6282070427
 40
0.754014527
 40
0.8781804696
 40
1.0
 40
1.0
 40
1.0
 40
1.0
 10
14.8366906548
 20
13.7329378512
 30
0.0
 10
14.8362159747
 20
13.7332005294
 30
0.0
 10
14.8352432113
 20
13.7337022782
 30
0.0
 10
14.833735526
 20
13.7343765449
 30
0.0
 10
14.8321776914
 20
13.7349741412
 30
0.0
 10
14.8305832798
 20
13.7354898953
 30
0.0
 10
14.8289660373
 20
13.7359193271
 30
0.0
 10
14.8273399232
 20
13.7362587628
 30
0.0
 10
14.8257190863
 20
13.7365052163
 30
0.0
 10
14.8246390038
 20
13.7366073023
 30
0.0
 10
14.8241031959
 20
13.7366417845
 30
0.0
  0
SPLINE
  5
3F8
100
AcDbEntity
  8
LAYER_FEATURE
100
AcDbSpline
 62
7
  6
CONTINUOUS
 70
0
 71
3
 72
11
 73
7
 74
0
 42
0.0000001
 43
0.0000001
 44
0.0000000001
 40
0.0
 40
0.0
 40
0.0
 40
0.0
 40
0.2405846916
 40
0.4879160789
 40
0.7413086005
 40
1.0
 40
1.0
 40
1.0
 40
1.0
 10
14.8481947273
 20
13.7250701082
 30
0.0
 10
14.8473413629
 20
13.725794553
 30
0.0
 10
14.8455693926
 20
13.7272157125
 30
0.0
 10
14.8427693878
 20
13.7292322424
 30
0.0
 10
14.8398029475
 20
13.7311543996
 30
0.0
 10
14.8377438012
 20
13.7323550615
 30
0.0
 10
14.8366906548
 20
13.7329378512
 30
0.0
  0
SPLINE
  5
3F9
100
AcDbEntity
  8
LAYER_FEATURE
100
AcDbSpline
 62
7
  6
CONTINUOUS
 70
0
 71
3
 72
23
 73
19
 74
0
 42
0.0000001
 43
0.0000001
 44
0.0000000001
 40
0.0
 40
0.0
 40
0.0
 40
0.0
 40
0.0591599661
 40
0.1203740663
 40
0.1833547167
 40
0.247779099
 40
0.3132968288
 40
0.3795376818
 40
0.4461186191
 40
0.5126506906
 40
0.5787457904
 40
0.6440234412
 40
0.7081177124
 40
0.7706844163
 40
0.8314087421
 40
0.8900135246
 40
0.9462683844
 40
1.0
 40
1.0
 40
1.0
 40
1.0
 10
14.8481947273
 20
13.7250701082
 30
0.0
 10
14.8492054331
 20
13.7242120918
 30
0.0
 10
14.8513249712
 20
13.7225393841
 30
0.0
 10
14.8547115436
 20
13.7202078181
 30
0.0
 10
14.8583354813
 20
13.7180269509
 30
0.0
 10
14.8621652856
 20
13.7160157535
 30
0.0
 10
14.8661679278
 20
13.7141915417
 30
0.0
 10
14.8703087793
 20
13.7125700992
 30
0.0
 10
14.874552021
 20
13.7111654502
 30
0.0
 10
14.8788609327
 20
13.7099897507
 30
0.0
 10
14.8831982287
 20
13.7090531739
 30
0.0
 10
14.8875263901
 20
13.7083638225
 30
0.0
 10
14.891807998
 20
13.7079276596
 30
0.0
 10
14.8960060838
 20
13.7077484688
 30
0.0
 10
14.9000844134
 20
13.7078278199
 30
0.0
 10
14.9040079888
 20
13.708165131
 30
0.0
 10
14.9077427394
 20
13.7087575232
 30
0.0
 10
14.9101428209
 20
13.7093331117
 30
0.0
 10
14.9113002615
 20
13.7096651991
 30
0.0
  0
SPLINE
  5
3FA
100
AcDbEntity
  8
LAYER_FEATURE
100
AcDbSpline
 62
7
  6
CONTINUOUS
 70
0
 71
3
 72
15
 73
11
 74
0
 42
0.0000001
 43
0.0000001
 44
0.0000000001
 40
0.0
 40
0.0
 40
0.0
 40
0.0
 40
0.1395150142
 40
0.2738061529
 40
0.403207139
 40
0.5282617124
 40
0.6496318608
 40
0.768098501
 40
0.8845617891
 40
1.0
 40
1.0
 40
1.0
 40
1.0
 10
14.9275228301
 20
13.7538750162
 30
0.0
 10
14.9272785498
 20
13.7537492714
 30
0.0
 10
14.9268080706
 20
13.7534845217
 30
0.0
 10
14.9261494654
 20
13.7530393433
 30
0.0
 10
14.9255547114
 20
13.7525556116
 30
0.0
 10
14.9250265913
 20
13.7520354111
 30
0.0
 10
14.9245674819
 20
13.7514809397
 30
0.0
 10
14.9241796219
 20
13.750894518
 30
0.0
 10
14.9238649418
 20
13.7502788972
 30
0.0
 10
14.9237046468
 20
13.7498499922
 30
0.0
 10
14.9236375241
 20
13.7496327971
 30
0.0
  0
SPLINE
  5
3FB
100
AcDbEntity
  8
LAYER_FEATURE
100
AcDbSpline
 62
7
  6
CONTINUOUS
 70
0
 71
3
 72
15
 73
11
 74
0
 42
0.0000001
 43
0.0000001
 44
0.0000000001
 40
0.0
 40
0.0
 40
0.0
 40
0.0
 40
0.1200893277
 40
0.2429887942
 40
0.3680206971
 40
0.4944890442
 40
0.6216617367
 40
0.7487941814
 40
0.8751538286
 40
1.0
 40
1.0
 40
1.0
 40
1.0
 10
14.9660843191
 20
13.7525722927
 30
0.0
 10
14.9656418399
 20
13.7528604506
 30
0.0
 10
14.9647281414
 20
13.7534157208
 30
0.0
 10
14.9632978985
 20
13.7541744417
 30
0.0
 10
14.9618018981
 20
13.7548635815
 30
0.0
 10
14.9602531764
 20
13.7554771712
 30
0.0
 10
14.9586650774
 20
13.7560098896
 30
0.0
 10
14.9570513136
 20
13.7564571709
 30
0.0
 10
14.9554259224
 20
13.7568150905
 30
0.0
 10
14.9543351883
 20
13.7569935216
 30
0.0
 10
14.9537911401
 20
13.7570667385
 30
0.0
  0
SPLINE
  5
3FC
100
AcDbEntity
  8
LAYER_FEATURE
100
AcDbSpline
 62
7
  6
CONTINUOUS
 70
0
 71
3
 72
11
 73
7
 74
0
 42
0.0000001
 43
0.0000001
 44
0.0000000001
 40
0.0
 40
0.0
 40
0.0
 40
0.0
 40
0.2386831621
 40
0.4853029967
 40
0.739297083
 40
1.0
 40
1.0
 40
1.0
 40
1.0
 10
14.9764942003
 20
13.7441764806
 30
0.0
 10
14.975746119
 20
13.7449358255
 30
0.0
 10
14.9741769015
 20
13.7464329325
 30
0.0
 10
14.971661175
 20
13.7485735938
 30
0.0
 10
14.9689566085
 20
13.7506364454
 30
0.0
 10
14.967059951
 20
13.751936927
 30
0.0
 10
14.9660843191
 20
13.7525722927
 30
0.0
  0
SPLINE
  5
3FD
100
AcDbEntity
  8
LAYER_FEATURE
100
AcDbSpline
 62
7
  6
CONTINUOUS
 70
0
 71
3
 72
29
 73
25
 74
0
 42
0.0000001
 43
0.0000001
 44
0.0000000001
 40
0.0
 40
0.0
 40
0.0
 40
0.0
 40
0.0285870371
 40
0.0579080087
 40
0.087918999
 40
0.1185817469
 40
0.1816660085
 40
0.2467522756
 40
0.3133673069
 40
0.3809981168
 40
0.4491067372
 40
0.517143654
 40
0.5845610881
 40
0.6508262742
 40
0.7154351183
 40
0.7469775107
 40
0.7779375318
 40
0.8082667757
 40
0.8379218739
 40
0.8668646254
 40
0.8950628925
 40
0.9224913694
 40
0.9491319404
 40
1.0
 40
1.0
 40
1.0
 40
1.0
 10
14.9764942003
 20
13.7441764806
 30
0.0
 10
14.9770107941
 20
13.7436521088
 30
0.0
 10
14.9780820458
 20
13.7426140713
 30
0.0
 10
14.9797751781
 20
13.7411103513
 30
0.0
 10
14.9815705572
 20
13.7396442162
 30
0.0
 10
14.9841172171
 20
13.737727503
 30
0.0
 10
14.9875240808
 20
13.7354574404
 30
0.0
 10
14.9918870851
 20
13.7329758478
 30
0.0
 10
14.9965115398
 20
13.7307405346
 30
0.0
 10
15.0013421625
 20
13.7287782393
 30
0.0
 10
15.0063214008
 20
13.7271123312
 30
0.0
 10
15.0113898157
 20
13.7257626944
 30
0.0
 10
15.016486998
 20
13.7247454168
 30
0.0
 10
15.0215519726
 20
13.7240726624
 30
0.0
 10
15.0257291707
 20
13.7238036156
 30
0.0
 10
15.0290026548
 20
13.7237710533
 30
0.0
 10
15.0313927004
 20
13.7238364682
 30
0.0
 10
15.0337299296
 20
13.7239913624
 30
0.0
 10
15.0360073685
 20
13.7242352336
 30
0.0
 10
15.0382182034
 20
13.7245673965
 30
0.0
 10
15.0403557641
 20
13.7249868542
 30
0.0
 10
15.0424138547
 20
13.7254924041
 30
0.0
 10
15.0450030819
 20
13.7262671599
 30
0.0
 10
15.0468698685
 20
13.7269885781
 30
0.0
 10
15.0480601985
 20
13.727535137
 30
0.0
  0
SPLINE
  5
3FE
100
AcDbEntity
  8
LAYER_FEATURE
100
AcDbSpline
 62
7
  6
CONTINUOUS
 70
0
 71
3
 72
16
 73
12
 74
0
 42
0.0000001
 43
0.0000001
 44
0.0000000001
 40
0.0
 40
0.0
 40
0.0
 40
0.0
 40
0.1439384051
 40
0.2813169559
 40
0.4124034643
 40
0.4757732149
 40
0.5377898176
 40
0.6581250116
 40
0.7744460201
 40
0.8879476999
 40
1.0
 40
1.0
 40
1.0
 40
1.0
 10
15.0635680051
 20
13.7657378767
 30
0.0
 10
15.0632359194
 20
13.7656148833
 30
0.0
 10
15.0625959489
 20
13.765348771
 30
0.0
 10
15.061695915
 20
13.76487745
 30
0.0
 10
15.0610115204
 20
13.764429451
 30
0.0
 10
15.0605129888
 20
13.7640421606
 30
0.0
 10
15.060056767
 20
13.7636451095
 30
0.0
 10
15.0595448457
 20
13.7631152811
 30
0.0
 10
15.0590272192
 20
13.7624236184
 30
0.0
 10
15.0586161207
 20
13.7616869566
 30
0.0
 10
15.0584146459
 20
13.761167596
 30
0.0
 10
15.0583332587
 20
13.7609042024
 30
0.0
  0
SPLINE
  5
3FF
100
AcDbEntity
  8
LAYER_FEATURE
100
AcDbSpline
 62
7
  6
CONTINUOUS
 70
0
 71
3
 72
15
 73
11
 74
0
 42
0.0000001
 43
0.0000001
 44
0.0000000001
 40
0.0
 40
0.0
 40
0.0
 40
0.0
 40
0.1171428626
 40
0.2378613436
 40
0.3615377761
 40
0.4875175606
 40
0.6150935157
 40
0.7435295251
 40
0.8720862425
 40
1.0
 40
1.0
 40
1.0
 40
1.0
 10
15.1030770964
 20
13.7615778245
 30
0.0
 10
15.1026726604
 20
13.7618879795
 30
0.0
 10
15.1018299448
 20
13.7624901498
 30
0.0
 10
15.1004949997
 20
13.7633238591
 30
0.0
 10
15.0990795225
 20
13.7640959359
 30
0.0
 10
15.0975958489
 20
13.7647996917
 30
0.0
 10
15.096056749
 20
13.7654290363
 30
0.0
 10
15.0944755112
 20
13.7659785712
 30
0.0
 10
15.092865883
 20
13.7664434831
 30
0.0
 10
15.0917781916
 20
13.7666955013
 30
0.0
 10
15.0912327911
 20
13.7668062626
 30
0.0
  0
SPLINE
  5
400
100
AcDbEntity
  8
LAYER_FEATURE
100
AcDbSpline
 62
7
  6
CONTINUOUS
 70
0
 71
3
 72
11
 73
7
 74
0
 42
0.0000001
 43
0.0000001
 44
0.0000000001
 40
0.0
 40
0.0
 40
0.0
 40
0.0
 40
0.2369409488
 40
0.4828700106
 40
0.7373981177
 40
1.0
 40
1.0
 40
1.0
 40
1.0
 10
15.1122618761
 20
13.7527595256
 30
0.0
 10
15.1116292501
 20
13.7535440819
 30
0.0
 10
15.1102838829
 20
13.7550983757
 30
0.0
 10
15.1080838669
 20
13.7573365708
 30
0.0
 10
15.1056749756
 20
13.7595144283
 30
0.0
 10
15.1039634556
 20
13.7608980911
 30
0.0
 10
15.1030770964
 20
13.7615778245
 30
0.0
  0
SPLINE
  5
401
100
AcDbEntity
  8
LAYER_FEATURE
100
AcDbSpline
 62
7
  6
CONTINUOUS
 70
0
 71
3
 72
36
 73
32
 74
0
 42
0.0000001
 43
0.0000001
 44
0.0000000001
 40
0.0
 40
0.0
 40
0.0
 40
0.0
 40
0.0277994795
 40
0.0565239975
 40
0.0861347576
 40
0.1165927839
 40
0.1478453593
 40
0.1798314207
 40
0.2124833812
 40
0.2457269278
 40
0.2794824855
 40
0.3136661147
 40
0.348190128
 40
0.3829640864
 40
0.4528792047
 40
0.5226724868
 40
0.5572951333
 40
0.5916090373
 40
0.6255254533
 40
0.6589589773
 40
0.6918284503
 40
0.7240576291
 40
0.7555762383
 40
0.7863210472
 40
0.8162366642
 40
0.8452768447
 40
0.8734058759
 40
0.9005996223
 40
0.9268471628
 40
0.9521525388
 40
1.0
 40
1.0
 40
1.0
 40
1.0
 10
15.1122618761
 20
13.7527595256
 30
0.0
 10
15.1127669492
 20
13.7521331551
 30
0.0
 10
15.1138325762
 20
13.7508903367
 30
0.0
 10
15.1155585777
 20
13.7490897478
 30
0.0
 10
15.1174320738
 20
13.7473287979
 30
0.0
 10
15.1194453999
 20
13.7456146007
 30
0.0
 10
15.1215906041
 20
13.7439538764
 30
0.0
 10
15.1238591157
 20
13.7423532555
 30
0.0
 10
15.1262418883
 20
13.7408191289
 30
0.0
 10
15.1287294039
 20
13.7393575969
 30
0.0
 10
15.1313117281
 20
13.7379744841
 30
0.0
 10
15.133978548
 20
13.7366753431
 30
0.0
 10
15.1367192394
 20
13.7354653244
 30
0.0
 10
15.1404636563
 20
13.7339747775
 30
0.0
 10
15.1452554431
 20
13.7323649517
 30
0.0
 10
15.1501466573
 20
13.7311060084
 30
0.0
 10
15.1540853781
 20
13.730320877
 30
0.0
 10
15.1570253413
 20
13.7298480858
 30
0.0
 10
15.1599469982
 20
13.7294917358
 30
0.0
 10
15.1628387218
 20
13.7292532483
 30
0.0
 10
15.1656889524
 20
13.729133557
 30
0.0
 10
15.1684863187
 20
13.7291331664
 30
0.0
 10
15.1712196605
 20
13.7292520884
 30
0.0
 10
15.1738780833
 20
13.7294898359
 30
0.0
 10
15.176450999
 20
13.7298455027
 30
0.0
 10
15.1789281561
 20
13.730317705
 30
0.0
 10
15.1812997379
 20
13.7309045948
 30
0.0
 10
15.183556208
 20
13.7316038582
 30
0.0
 10
15.1856889615
 20
13.7324130272
 30
0.0
 10
15.1883059593
 20
13.7336110103
 30
0.0
 10
15.1901369987
 20
13.73469619
 30
0.0
 10
15.1912633073
 20
13.7355020468
 30
0.0
  0
SPLINE
  5
402
100
AcDbEntity
  8
LAYER_FEATURE
100
AcDbSpline
 62
7
  6
CONTINUOUS
 70
0
 71
3
 72
15
 73
11
 74
0
 42
0.0000001
 43
0.0000001
 44
0.0000000001
 40
0.0
 40
0.0
 40
0.0
 40
0.0
 40
0.1478255761
 40
0.2881321812
 40
0.4210071365
 40
0.5468624726
 40
0.6664306664
 40
0.7808023294
 40
0.891421792
 40
1.0
 40
1.0
 40
1.0
 40
1.0
 10
15.2059863791
 20
13.7668062626
 30
0.0
 10
15.2055623928
 20
13.7666987242
 30
0.0
 10
15.2047439191
 20
13.7664555488
 30
0.0
 10
15.2035855246
 20
13.765992227
 30
0.0
 10
15.2025375924
 20
13.7654432092
 30
0.0
 10
15.2016093436
 20
13.7648128091
 30
0.0
 10
15.2008091335
 20
13.7641058375
 30
0.0
 10
15.2001445238
 20
13.7633278222
 30
0.0
 10
15.1996225061
 20
13.7624856062
 30
0.0
 10
15.1993721811
 20
13.7618835944
 30
0.0
 10
15.1992735633
 20
13.7615778245
 30
0.0
  0
SPLINE
  5
403
100
AcDbEntity
  8
LAYER_FEATURE
100
AcDbSpline
 62
7
  6
CONTINUOUS
 70
0
 71
3
 72
15
 73
11
 74
0
 42
0.0000001
 43
0.0000001
 44
0.0000000001
 40
0.0
 40
0.0
 40
0.0
 40
0.0
 40
0.1142697586
 40
0.2328244782
 40
0.3551269717
 40
0.4805816707
 40
0.6085218405
 40
0.7382338664
 40
0.8689846395
 40
1.0
 40
1.0
 40
1.0
 40
1.0
 10
15.2459462231
 20
13.759841197
 30
0.0
 10
15.2455852549
 20
13.7601695322
 30
0.0
 10
15.2448246591
 20
13.7608113187
 30
0.0
 10
15.2436016569
 20
13.7617096411
 30
0.0
 10
15.2422843685
 20
13.7625550288
 30
0.0
 10
15.2408842761
 20
13.763340163
 30
0.0
 10
15.2394134116
 20
13.7640582683
 30
0.0
 10
15.2378844684
 20
13.7647031864
 30
0.0
 10
15.2363107298
 20
13.7652692779
 30
0.0
 10
15.2352396418
 20
13.7655912236
 30
0.0
 10
15.2346997405
 20
13.7657378767
 30
0.0
  0
SPLINE
  5
404
100
AcDbEntity
  8
LAYER_FEATURE
100
AcDbSpline
 62
7
  6
CONTINUOUS
 70
0
 71
3
 72
11
 73
7
 74
0
 42
0.0000001
 43
0.0000001
 44
0.0000000001
 40
0.0
 40
0.0
 40
0.0
 40
0.0
 40
0.2354867926
 40
0.4807766422
 40
0.7357227784
 40
1.0
 40
1.0
 40
1.0
 40
1.0
 10
15.2537903973
 20
13.7507113064
 30
0.0
 10
15.2532819987
 20
13.7515107847
 30
0.0
 10
15.2521789658
 20
13.7531023746
 30
0.0
 10
15.2503221735
 20
13.7554104306
 30
0.0
 10
15.2482390592
 20
13.7576762823
 30
0.0
 10
15.2467327804
 20
13.7591257476
 30
0.0
 10
15.2459462231
 20
13.759841197
 30
0.0
  0
SPLINE
  5
405
100
AcDbEntity
  8
LAYER_FEATURE
100
AcDbSpline
 62
7
  6
CONTINUOUS
 70
0
 71
3
 72
39
 73
35
 74
0
 42
0.0000001
 43
0.0000001
 44
0.0000000001
 40
0.0
 40
0.0
 40
0.0
 40
0.0
 40
0.0269573425
 40
0.0550238669
 40
0.0841790343
 40
0.1143902944
 40
0.1456040348
 40
0.1777527905
 40
0.2107561802
 40
0.2445228242
 40
0.2789521849
 40
0.3139360104
 40
0.3493598807
 40
0.3851046739
 40
0.4210478897
 40
0.4570649388
 40
0.4930304707
 40
0.528819693
 40
0.5643096334
 40
0.5993804292
 40
0.6339167394
 40
0.6678091526
 40
0.7009556129
 40
0.7332629602
 40
0.7646486997
 40
0.7950428713
 40
0.8243899901
 40
0.8526512499
 40
0.8798070352
 40
0.9058596592
 40
0.9308360353
 40
0.9547903844
 40
0.9778066315
 40
1.0
 40
1.0
 40
1.0
 40
1.0
 10
15.2537903973
 20
13.7507113064
 30
0.0
 10
15.2542528597
 20
13.7499840647
 30
0.0
 10
15.2552551489
 20
13.7485361021
 30
0.0
 10
15.2569400874
 20
13.7464351522
 30
0.0
 10
15.2588284646
 20
13.744371687
 30
0.0
 10
15.260910294
 20
13.7423563734
 30
0.0
 10
15.2631749894
 20
13.7403994379
 30
0.0
 10
15.2656108485
 20
13.7385109077
 30
0.0
 10
15.2682053343
 20
13.7367004567
 30
0.0
 10
15.270945088
 20
13.734977391
 30
0.0
 10
15.2738159967
 20
13.733350584
 30
0.0
 10
15.276803261
 20
13.731828419
 30
0.0
 10
15.279891468
 20
13.7304187349
 30
0.0
 10
15.2830646852
 20
13.7291288027
 30
0.0
 10
15.28630654
 20
13.7279652839
 30
0.0
 10
15.2896003023
 20
13.7269341919
 30
0.0
 10
15.2929289669
 20
13.7260408383
 30
0.0
 10
15.2962753535
 20
13.7252898313
 30
0.0
 10
15.299622193
 20
13.7246850487
 30
0.0
 10
15.3029522191
 20
13.7242296232
 30
0.0
 10
15.3062482554
 20
13.7239258977
 30
0.0
 10
15.3094933122
 20
13.7237754362
 30
0.0
 10
15.3126706734
 20
13.7237790225
 30
0.0
 10
15.3157639831
 20
13.7239366646
 30
0.0
 10
15.3187573342
 20
13.7242475768
 30
0.0
 10
15.3216353544
 20
13.7247101928
 30
0.0
 10
15.3243832795
 20
13.7253222029
 30
0.0
 10
15.3269870215
 20
13.7260805773
 30
0.0
 10
15.329433231
 20
13.7269815844
 30
0.0
 10
15.3317093664
 20
13.7280208132
 30
0.0
 10
15.3338036821
 20
13.7291932001
 30
0.0
 10
15.3357053496
 20
13.7304931807
 30
0.0
 10
15.3374040602
 20
13.7319142097
 30
0.0
 10
15.3384118149
 20
13.7329550284
 30
0.0
 10
15.3388755198
 20
13.7334920613
 30
0.0
  0
SPLINE
  5
406
100
AcDbEntity
  8
LAYER_FEATURE
100
AcDbSpline
 62
7
  6
CONTINUOUS
 70
0
 71
3
 72
15
 73
11
 74
0
 42
0.0000001
 43
0.0000001
 44
0.0000000001
 40
0.0
 40
0.0
 40
0.0
 40
0.0
 40
0.1482408816
 40
0.2895689411
 40
0.423777752
 40
0.5509231311
 40
0.6713207854
 40
0.7855993024
 40
0.8947303192
 40
1.0
 40
1.0
 40
1.0
 40
1.0
 10
15.3529869587
 20
13.7570667385
 30
0.0
 10
15.3525288975
 20
13.7569957122
 30
0.0
 10
15.3516387129
 20
13.7568244097
 30
0.0
 10
15.3503605938
 20
13.7564688359
 30
0.0
 10
15.3491808888
 20
13.7560232916
 30
0.0
 10
15.3481097963
 20
13.755491347
 30
0.0
 10
15.3471566014
 20
13.7548770792
 30
0.0
 10
15.3463297347
 20
13.7541851581
 30
0.0
 10
15.3456371843
 20
13.7534212643
 30
0.0
 10
15.3452644219
 20
13.7528602169
 30
0.0
 10
15.3451048869
 20
13.7525722927
 30
0.0
  0
SPLINE
  5
407
100
AcDbEntity
  8
LAYER_FEATURE
100
AcDbSpline
 62
7
  6
CONTINUOUS
 70
0
 71
3
 72
15
 73
11
 74
0
 42
0.0000001
 43
0.0000001
 44
0.0000000001
 40
0.0
 40
0.0
 40
0.0
 40
0.0
 40
0.1115087644
 40
0.2279347156
 40
0.3488481783
 40
0.4737353868
 40
0.6019894536
 40
0.7329360897
 40
0.8658633189
 40
1.0
 40
1.0
 40
1.0
 40
1.0
 10
15.392895037
 20
13.7473842491
 30
0.0
 10
15.3925824755
 20
13.7477266329
 30
0.0
 10
15.3919142259
 20
13.7484001464
 30
0.0
 10
15.390818395
 20
13.7493519474
 30
0.0
 10
15.3896157146
 20
13.7502601359
 30
0.0
 10
15.3883166744
 20
13.7511168622
 30
0.0
 10
15.3869324153
 20
13.7519147635
 30
0.0
 10
15.3854748741
 20
13.7526470061
 30
0.0
 10
15.3839567009
 20
13.7533071997
 30
0.0
 10
15.3829154766
 20
13.7536945627
 30
0.0
 10
15.3823878082
 20
13.7538750162
 30
0.0
  0
SPLINE
  5
408
100
AcDbEntity
  8
LAYER_FEATURE
100
AcDbSpline
 62
7
  6
CONTINUOUS
 70
0
 71
3
 72
11
 73
7
 74
0
 42
0.0000001
 43
0.0000001
 44
0.0000000001
 40
0.0
 40
0.0
 40
0.0
 40
0.0
 40
0.2345248547
 40
0.4792801039
 40
0.7344529823
 40
1.0
 40
1.0
 40
1.0
 40
1.0
 10
15.3992999607
 20
13.7380575806
 30
0.0
 10
15.3989229396
 20
13.7388611221
 30
0.0
 10
15.3980777881
 20
13.7404690508
 30
0.0
 10
15.3965875659
 20
13.7428186056
 30
0.0
 10
15.3948563151
 20
13.7451445008
 30
0.0
 10
15.3935726207
 20
13.7466420157
 30
0.0
 10
15.392895037
 20
13.7473842491
 30
0.0
  0
SPLINE
  5
409
100
AcDbEntity
  8
LAYER_FEATURE
100
AcDbSpline
 62
7
  6
CONTINUOUS
 70
0
 71
3
 72
41
 73
37
 74
0
 42
0.0000001
 43
0.0000001
 44
0.0000000001
 40
0.0
 40
0.0
 40
0.0
 40
0.0
 40
0.0260819563
 40
0.0534254976
 40
0.0820485094
 40
0.1119390008
 40
0.1430532709
 40
0.1753232671
 40
0.2086590956
 40
0.2429527216
 40
0.278080869
 40
0.3139077894
 40
0.3502877918
 40
0.3870676014
 40
0.4240886063
 40
0.461189027
 40
0.4982060433
 40
0.5349779164
 40
0.5713461328
 40
0.6071575775
 40
0.6422667825
 40
0.6765382893
 40
0.7098491714
 40
0.7420917714
 40
0.7731767274
 40
0.8030363339
 40
0.8316282578
 40
0.8589396688
 40
0.8849916962
 40
0.9098439808
 40
0.9335987558
 40
0.9564035691
 40
0.967514193
 40
0.9784632705
 40
0.9892810215
 40
1.0
 40
1.0
 40
1.0
 40
1.0
 10
15.3992999607
 20
13.7380575806
 30
0.0
 10
15.3996861131
 20
13.7372345776
 30
0.0
 10
15.4005621695
 20
13.7355876756
 30
0.0
 10
15.402126409
 20
13.733189744
 30
0.0
 10
15.4039610875
 20
13.7308216818
 30
0.0
 10
15.4060539425
 20
13.7284988361
 30
0.0
 10
15.4083914862
 20
13.7262359166
 30
0.0
 10
15.410958518
 20
13.7240474445
 30
0.0
 10
15.4137384231
 20
13.7219474986
 30
0.0
 10
15.4167131772
 20
13.7199496385
 30
0.0
 10
15.4198634832
 20
13.7180667936
 30
0.0
 10
15.423168888
 20
13.7163111704
 30
0.0
 10
15.4266079191
 20
13.7146941663
 30
0.0
 10
15.4301582252
 20
13.7132262882
 30
0.0
 10
15.4337967235
 20
13.7119170799
 30
0.0
 10
15.4374997522
 20
13.7107750569
 30
0.0
 10
15.4412432277
 20
13.7098076494
 30
0.0
 10
15.445002804
 20
13.7090211485
 30
0.0
 10
15.4487540366
 20
13.7084206658
 30
0.0
 10
15.4524725464
 20
13.7080101048
 30
0.0
 10
15.4561341828
 20
13.7077921372
 30
0.0
 10
15.4597151847
 20
13.7077681908
 30
0.0
 10
15.4631923396
 20
13.7079384469
 30
0.0
 10
15.4665431385
 20
13.7083018512
 30
0.0
 10
15.4697459244
 20
13.7088561327
 30
0.0
 10
15.472780032
 20
13.709597839
 30
0.0
 10
15.4756259051
 20
13.7105223896
 30
0.0
 10
15.4782651986
 20
13.7116241469
 30
0.0
 10
15.480680816
 20
13.7128964452
 30
0.0
 10
15.4828570079
 20
13.714331763
 30
0.0
 10
15.4847790695
 20
13.7159212947
 30
0.0
 10
15.4861704326
 20
13.7173797577
 30
0.0
 10
15.4871367557
 20
13.718610411
 30
0.0
 10
15.4877844025
 20
13.7195568685
 30
0.0
 10
15.4883599155
 20
13.72053296
 30
0.0
 10
15.4886960951
 20
13.7212049412
 30
0.0
 10
15.4888514466
 20
13.7215447233
 30
0.0
  0
SPLINE
  5
40A
100
AcDbEntity
  8
LAYER_FEATURE
100
AcDbSpline
 62
7
  6
CONTINUOUS
 70
0
 71
3
 72
11
 73
7
 74
0
 42
0.0000001
 43
0.0000001
 44
0.0000000001
 40
0.0
 40
0.0
 40
0.0
 40
0.0
 40
0.2556647259
 40
0.5065359471
 40
0.75409847
 40
1.0
 40
1.0
 40
1.0
 40
1.0
 10
15.4937689201
 20
13.7329378512
 30
0.0
 10
15.4933885651
 20
13.7324771614
 30
0.0
 10
15.4926757107
 20
13.7315297493
 30
0.0
 10
15.4917538375
 20
13.7300248627
 30
0.0
 10
15.4909944599
 20
13.7284570094
 30
0.0
 10
15.4905978673
 20
13.7273718079
 30
0.0
 10
15.4904282241
 20
13.7268228198
 30
0.0
  0
SPLINE
  5
40B
100
AcDbEntity
  8
LAYER_FEATURE
100
AcDbSpline
 62
7
  6
CONTINUOUS
 70
0
 71
3
 72
15
 73
11
 74
0
 42
0.0000001
 43
0.0000001
 44
0.0000000001
 40
0.0
 40
0.0
 40
0.0
 40
0.0
 40
0.1472198175
 40
0.2883799605
 40
0.4230629891
 40
0.5510589792
 40
0.6723586614
 40
0.7872065298
 40
0.896141978
 40
1.0
 40
1.0
 40
1.0
 40
1.0
 10
15.502721126
 20
13.7366417845
 30
0.0
 10
15.5022343718
 20
13.7366083472
 30
0.0
 10
15.501282674
 20
13.736511271
 30
0.0
 10
15.4999006226
 20
13.7362675627
 30
0.0
 10
15.4986037637
 20
13.7359305537
 30
0.0
 10
15.4974032643
 20
13.7355030085
 30
0.0
 10
15.4963093925
 20
13.7349882687
 30
0.0
 10
15.4953315195
 20
13.7343902921
 30
0.0
 10
15.4944785462
 20
13.7337138785
 30
0.0
 10
15.4939880585
 20
13.7332032739
 30
0.0
 10
15.4937689201
 20
13.7329378512
 30
0.0
  0
SPLINE
  5
40C
100
AcDbEntity
  8
LAYER_FEATURE
100
AcDbSpline
 62
7
  6
CONTINUOUS
 70
0
 71
3
 72
15
 73
11
 74
0
 42
0.0000001
 43
0.0000001
 44
0.0000000001
 40
0.0
 40
0.0
 40
0.0
 40
0.0
 40
0.1089300168
 40
0.2232973756
 40
0.34281644
 40
0.4670857392
 40
0.5955837318
 40
0.7276969946
 40
0.8627531125
 40
1.0
 40
1.0
 40
1.0
 40
1.0
 10
15.5420755716
 20
13.7243636343
 30
0.0
 10
15.5418157954
 20
13.7247156304
 30
0.0
 10
15.5412490862
 20
13.7254124219
 30
0.0
 10
15.5402940614
 20
13.7264059747
 30
0.0
 10
15.5392209604
 20
13.7273657233
 30
0.0
 10
15.538039161
 20
13.7282833955
 30
0.0
 10
15.5367587769
 20
13.7291511518
 30
0.0
 10
15.5353908383
 20
13.7299615804
 30
0.0
 10
15.5339472024
 20
13.7307076269
 30
0.0
 10
15.5329486331
 20
13.7311551103
 30
0.0
 10
15.532439731
 20
13.7313668637
 30
0.0
  0
SPLINE
  5
40D
100
AcDbEntity
  8
LAYER_FEATURE
100
AcDbSpline
 62
7
  6
CONTINUOUS
 70
0
 71
3
 72
11
 73
7
 74
0
 42
0.0000001
 43
0.0000001
 44
0.0000000001
 40
0.0
 40
0.0
 40
0.0
 40
0.0
 40
0.2343534685
 40
0.4787639127
 40
0.7338648485
 40
1.0
 40
1.0
 40
1.0
 40
1.0
 10
15.546960699
 20
13.714957476
 30
0.0
 10
15.5467202797
 20
13.7157537279
 30
0.0
 10
15.5461451909
 20
13.7173560199
 30
0.0
 10
15.5450405961
 20
13.719718363
 30
0.0
 10
15.5436830756
 20
13.7220757865
 30
0.0
 10
15.5426364548
 20
13.7236036389
 30
0.0
 10
15.5420755716
 20
13.7243636343
 30
0.0
  0
SPLINE
  5
40E
100
AcDbEntity
  8
LAYER_FEATURE
100
AcDbSpline
 62
7
  6
CONTINUOUS
 70
0
 71
3
 72
42
 73
38
 74
0
 42
0.0000001
 43
0.0000001
 44
0.0000000001
 40
0.0
 40
0.0
 40
0.0
 40
0.0
 40
0.0247482654
 40
0.0507449598
 40
0.078068702
 40
0.1067537532
 40
0.1367918611
 40
0.1681397925
 40
0.2007237426
 40
0.2344442643
 40
0.2691803464
 40
0.3047931597
 40
0.3411294228
 40
0.3780245042
 40
0.4153053303
 40
0.4527931555
 40
0.4903062405
 40
0.5276624842
 40
0.5646820502
 40
0.6011900276
 40
0.6370191668
 40
0.6720127406
 40
0.7060275844
 40
0.7389373875
 40
0.7706363174
 40
0.801043052
 40
0.8301052978
 40
0.8578048295
 40
0.8841629974
 40
0.909246293
 40
0.9331716246
 40
0.9447570242
 40
0.9561210566
 40
0.9672935
 40
0.9783077656
 40
0.9891985794
 40
1.0
 40
1.0
 40
1.0
 40
1.0
 10
15.546960699
 20
13.714957476
 30
0.0
 10
15.5472200577
 20
13.7140984985
 30
0.0
 10
15.547858127
 20
13.7123679614
 30
0.0
 10
15.5491161597
 20
13.7098273895
 30
0.0
 10
15.5506878241
 20
13.7072985382
 30
0.0
 10
15.552561248
 20
13.7047994879
 30
0.0
 10
15.5547229136
 20
13.7023475438
 30
0.0
 10
15.5571572263
 20
13.6999599816
 30
0.0
 10
15.5598467435
 20
13.6976536815
 30
0.0
 10
15.5627721859
 20
13.695445041
 30
0.0
 10
15.5659125819
 20
13.6933498236
 30
0.0
 10
15.5692453976
 20
13.6913830267
 30
0.0
 10
15.5727466985
 20
13.6895587582
 30
0.0
 10
15.5763913203
 20
13.6878901225
 30
0.0
 10
15.5801530533
 20
13.6863891162
 30
0.0
 10
15.584004835
 20
13.6850665368
 30
0.0
 10
15.5879189495
 20
13.6839319009
 30
0.0
 10
15.5918672318
 20
13.6829933726
 30
0.0
 10
15.5958212761
 20
13.682257704
 30
0.0
 10
15.5997526455
 20
13.6817301874
 30
0.0
 10
15.6036330836
 20
13.6814146194
 30
0.0
 10
15.607434724
 20
13.6813132787
 30
0.0
 10
15.6111302986
 20
13.6814269185
 30
0.0
 10
15.6146933392
 20
13.6817547743
 30
0.0
 10
15.6180983734
 20
13.6822945888
 30
0.0
 10
15.6213211028
 20
13.6830426544
 30
0.0
 10
15.6243385698
 20
13.6839938903
 30
0.0
 10
15.6271292543
 20
13.6851418852
 30
0.0
 10
15.6296732513
 20
13.6864791153
 30
0.0
 10
15.6319519299
 20
13.6879965676
 30
0.0
 10
15.6336340174
 20
13.6894187918
 30
0.0
 10
15.6348226663
 20
13.6906348785
 30
0.0
 10
15.635628575
 20
13.6915747328
 30
0.0
 10
15.6363567192
 20
13.6925503343
 30
0.0
 10
15.6370057988
 20
13.693559977
 30
0.0
 10
15.6375744401
 20
13.6946016749
 30
0.0
 10
15.6379002715
 20
13.695318406
 30
0.0
 10
15.6380490036
 20
13.6956806821
 30
0.0
  0
SPLINE
  5
40F
100
AcDbEntity
  8
LAYER_FEATURE
100
AcDbSpline
 62
7
  6
CONTINUOUS
 70
0
 71
3
 72
13
 73
9
 74
0
 42
0.0000001
 43
0.0000001
 44
0.0000000001
 40
0.0
 40
0.0
 40
0.0
 40
0.0
 40
0.2607955942
 40
0.5129851436
 40
0.6365103918
 40
0.7586596844
 40
0.8797275199
 40
1.0
 40
1.0
 40
1.0
 40
1.0
 10
15.6433961262
 20
13.7029214145
 30
0.0
 10
15.6427986921
 20
13.7024052998
 30
0.0
 10
15.6416740749
 20
13.7013294872
 30
0.0
 10
15.6404356348
 20
13.6998474011
 30
0.0
 10
15.6395758718
 20
13.6986085591
 30
0.0
 10
15.6389988904
 20
13.6976591918
 30
0.0
 10
15.6384863554
 20
13.6966847098
 30
0.0
 10
15.6381872827
 20
13.6960174972
 30
0.0
 10
15.6380490036
 20
13.6956806821
 30
0.0
  0
SPLINE
  5
410
100
AcDbEntity
  8
LAYER_FEATURE
100
AcDbSpline
 62
7
  6
CONTINUOUS
 70
0
 71
3
 72
15
 73
11
 74
0
 42
0.0000001
 43
0.0000001
 44
0.0000000001
 40
0.0
 40
0.0
 40
0.0
 40
0.0
 40
0.1452321109
 40
0.2853843627
 40
0.4198937059
 40
0.54836013
 40
0.6705344297
 40
0.7863659122
 40
0.89604267
 40
1.0
 40
1.0
 40
1.0
 40
1.0
 10
15.6533058872
 20
13.7057882563
 30
0.0
 10
15.6527962872
 20
13.7057930658
 30
0.0
 10
15.6517942841
 20
13.7057718332
 30
0.0
 10
15.6503254002
 20
13.7056428609
 30
0.0
 10
15.6489274086
 20
13.7054182996
 30
0.0
 10
15.6476123621
 20
13.7051000308
 30
0.0
 10
15.6463914864
 20
13.7046905863
 30
0.0
 10
15.6452751421
 20
13.7041931973
 30
0.0
 10
15.6442731923
 20
13.7036118755
 30
0.0
 10
15.6436721726
 20
13.7031598871
 30
0.0
 10
15.6433961262
 20
13.7029214145
 30
0.0
  0
SPLINE
  5
411
100
AcDbEntity
  8
LAYER_FEATURE
100
AcDbSpline
 62
7
  6
CONTINUOUS
 70
0
 71
3
 72
15
 73
11
 74
0
 42
0.0000001
 43
0.0000001
 44
0.0000000001
 40
0.0
 40
0.0
 40
0.0
 40
0.0
 40
0.1066522073
 40
0.2190949164
 40
0.3372358305
 40
0.4608272528
 40
0.5894675118
 40
0.7226328405
 40
0.8597145246
 40
1.0
 40
1.0
 40
1.0
 40
1.0
 10
15.6916117949
 20
13.6910688501
 30
0.0
 10
15.6914085305
 20
13.6914257206
 30
0.0
 10
15.6909513971
 20
13.6921368062
 30
0.0
 10
15.6901490849
 20
13.6931599719
 30
0.0
 10
15.6892189167
 20
13.6941594789
 30
0.0
 10
15.6881690673
 20
13.6951267472
 30
0.0
 10
15.6870085103
 20
13.6960535831
 30
0.0
 10
15.6857472366
 20
13.6969321055
 30
0.0
 10
15.6843961632
 20
13.6977546958
 30
0.0
 10
15.6834524044
 20
13.6982562937
 30
0.0
 10
15.6829685189
 20
13.6984964721
 30
0.0
  0
SPLINE
  5
412
100
AcDbEntity
  8
LAYER_FEATURE
100
AcDbSpline
 62
7
  6
CONTINUOUS
 70
0
 71
3
 72
11
 73
7
 74
0
 42
0.0000001
 43
0.0000001
 44
0.0000000001
 40
0.0
 40
0.0
 40
0.0
 40
0.0
 40
0.2353539556
 40
0.4797334475
 40
0.7343316619
 40
1.0
 40
1.0
 40
1.0
 40
1.0
 10
15.6949156929
 20
13.68170149
 30
0.0
 10
15.69481479
 20
13.6824788259
 30
0.0
 10
15.6945179547
 20
13.6840526227
 30
0.0
 10
15.6938137447
 20
13.6863988885
 30
0.0
 10
15.6928475237
 20
13.6887590588
 30
0.0
 10
15.6920497141
 20
13.6902999972
 30
0.0
 10
15.6916117949
 20
13.6910688501
 30
0.0
  0
SPLINE
  5
413
100
AcDbEntity
  8
LAYER_FEATURE
100
AcDbSpline
 62
7
  6
CONTINUOUS
 70
0
 71
3
 72
40
 73
36
 74
0
 42
0.0000001
 43
0.0000001
 44
0.0000000001
 40
0.0
 40
0.0
 40
0.0
 40
0.0
 40
0.0232597289
 40
0.0475808246
 40
0.0731101228
 40
0.0999442675
 40
0.128130373
 40
0.1576732477
 40
0.1885402965
 40
0.220667082
 40
0.2539620739
 40
0.2883109748
 40
0.3235805591
 40
0.3596221394
 40
0.3962747418
 40
0.4333680661
 40
0.4707252839
 40
0.5081657331
 40
0.545507554
 40
0.5825703077
 40
0.619177615
 40
0.6551598583
 40
0.6903569899
 40
0.7246215027
 40
0.7578216323
 40
0.7898448539
 40
0.8206017624
 40
0.850030414
 40
0.8781012131
 40
0.9048221993
 40
0.9302449001
 40
0.9544689922
 40
0.9776480176
 40
0.9889152001
 40
1.0
 40
1.0
 40
1.0
 40
1.0
 10
15.6949156929
 20
13.68170149
 30
0.0
 10
15.6950244936
 20
13.6808633111
 30
0.0
 10
15.6953624084
 20
13.679162067
 30
0.0
 10
15.6961923814
 20
13.676632562
 30
0.0
 10
15.6973483758
 20
13.6740914113
 30
0.0
 10
15.698821121
 20
13.6715569035
 30
0.0
 10
15.7005996435
 20
13.669046445
 30
0.0
 10
15.7026709254
 20
13.6665775814
 30
0.0
 10
15.7050200431
 20
13.6641676212
 30
0.0
 10
15.7076301331
 20
13.661833582
 30
0.0
 10
15.7104824918
 20
13.6595920327
 30
0.0
 10
15.7135566734
 20
13.6574589536
 30
0.0
 10
15.7168306261
 20
13.6554496011
 30
0.0
 10
15.7202808434
 20
13.6535783796
 30
0.0
 10
15.7238825333
 20
13.6518587243
 30
0.0
 10
15.7276097992
 20
13.6503029957
 30
0.0
 10
15.7314358297
 20
13.6489223836
 30
0.0
 10
15.7353330958
 20
13.6477268214
 30
0.0
 10
15.7392735537
 20
13.6467249123
 30
0.0
 10
15.7432288515
 20
13.6459238648
 30
0.0
 10
15.7471705394
 20
13.6453294419
 30
0.0
 10
15.7510702801
 20
13.6449459207
 30
0.0
 10
15.7549000598
 20
13.6447760661
 30
0.0
 10
15.758632397
 20
13.6448211185
 30
0.0
 10
15.7622405467
 20
13.6450807947
 30
0.0
 10
15.7656986989
 20
13.6455533081
 30
0.0
 10
15.7689821631
 20
13.6462354104
 30
0.0
 10
15.7720675353
 20
13.6471224432
 30
0.0
 10
15.7749328377
 20
13.6482084355
 30
0.0
 10
15.7775575998
 20
13.6494861298
 30
0.0
 10
15.779922955
 20
13.6509472437
 30
0.0
 10
15.7820113438
 20
13.652581919
 30
0.0
 10
15.7835224135
 20
13.6540949602
 30
0.0
 10
15.7845692405
 20
13.6553775072
 30
0.0
 10
15.7850391097
 20
13.6560410086
 30
0.0
 10
15.785260072
 20
13.6563777915
 30
0.0
  0
SPLINE
  5
414
100
AcDbEntity
  8
LAYER_FEATURE
100
AcDbSpline
 62
7
  6
CONTINUOUS
 70
0
 71
3
 72
11
 73
7
 74
0
 42
0.0000001
 43
0.0000001
 44
0.0000000001
 40
0.0
 40
0.0
 40
0.0
 40
0.0
 40
0.2642033269
 40
0.5179795882
 40
0.762676563
 40
1.0
 40
1.0
 40
1.0
 40
1.0
 10
15.7921048564
 20
13.6629004569
 30
0.0
 10
15.7913956117
 20
13.6624528805
 30
0.0
 10
15.7900432622
 20
13.6615126058
 30
0.0
 10
15.7881989593
 20
13.659937801
 30
0.0
 10
15.7865920311
 20
13.6582365138
 30
0.0
 10
15.7856733276
 20
13.6570076609
 30
0.0
 10
15.785260072
 20
13.6563777915
 30
0.0
  0
SPLINE
  5
415
100
AcDbEntity
  8
LAYER_FEATURE
100
AcDbSpline
 62
7
  6
CONTINUOUS
 70
0
 71
3
 72
15
 73
11
 74
0
 42
0.0000001
 43
0.0000001
 44
0.0000000001
 40
0.0
 40
0.0
 40
0.0
 40
0.0
 40
0.1426557625
 40
0.2812595666
 40
0.4151514723
 40
0.5437991792
 40
0.6667815352
 40
0.7838300884
 40
0.8948648022
 40
1.0
 40
1.0
 40
1.0
 40
1.0
 10
15.8028475515
 20
13.6648941549
 30
0.0
 10
15.8023213292
 20
13.664937412
 30
0.0
 10
15.8012810741
 20
13.6649927857
 30
0.0
 10
15.7997435843
 20
13.6649800777
 30
0.0
 10
15.7982617626
 20
13.6648706125
 30
0.0
 10
15.7968484172
 20
13.6646653272
 30
0.0
 10
15.795515636
 20
13.6643658664
 30
0.0
 10
15.794274737
 20
13.6639746555
 30
0.0
 10
15.7931365548
 20
13.6634948887
 30
0.0
 10
15.7924339353
 20
13.6631081256
 30
0.0
 10
15.7921048564
 20
13.6629004569
 30
0.0
  0
SPLINE
  5
416
100
AcDbEntity
  8
LAYER_FEATURE
100
AcDbSpline
 62
7
  6
CONTINUOUS
 70
0
 71
3
 72
15
 73
11
 74
0
 42
0.0000001
 43
0.0000001
 44
0.0000000001
 40
0.0
 40
0.0
 40
0.0
 40
0.0
 40
0.1048645954
 40
0.2156247207
 40
0.332445875
 40
0.4552901032
 40
0.5839227466
 40
0.7179490303
 40
0.8568566639
 40
1.0
 40
1.0
 40
1.0
 40
1.0
 10
15.8396232023
 20
13.6479185978
 30
0.0
 10
15.8394793944
 20
13.64827531
 30
0.0
 10
15.8391385591
 20
13.6489911701
 30
0.0
 10
15.8384990635
 20
13.6500315765
 30
0.0
 10
15.8377234395
 20
13.6510586602
 30
0.0
 10
15.8368186056
 20
13.6520636435
 30
0.0
 10
15.8357923183
 20
13.6530381079
 30
0.0
 10
15.8346534199
 20
13.6539738228
 30
0.0
 10
15.8334117583
 20
13.6548627169
 30
0.0
 10
15.8325341677
 20
13.6554118093
 30
0.0
 10
15.8320811851
 20
13.6556772057
 30
0.0
  0
SPLINE
  5
417
100
AcDbEntity
  8
LAYER_FEATURE
100
AcDbSpline
 62
7
  6
CONTINUOUS
 70
0
 71
3
 72
11
 73
7
 74
0
 42
0.0000001
 43
0.0000001
 44
0.0000000001
 40
0.0
 40
0.0
 40
0.0
 40
0.0
 40
0.2379007104
 40
0.4827159247
 40
0.7362621258
 40
1.0
 40
1.0
 40
1.0
 40
1.0
 10
15.8413043225
 20
13.6387078358
 30
0.0
 10
15.8413431985
 20
13.6394548533
 30
0.0
 10
15.8413279834
 20
13.6409768876
 30
0.0
 10
15.8410345656
 20
13.6432779821
 30
0.0
 10
15.8404729121
 20
13.6456119552
 30
0.0
 10
15.839933271
 20
13.6471494798
 30
0.0
 10
15.8396232023
 20
13.6479185978
 30
0.0
  0
SPLINE
  5
418
100
AcDbEntity
  8
LAYER_FEATURE
100
AcDbSpline
 62
7
  6
CONTINUOUS
 70
0
 71
3
 72
41
 73
37
 74
0
 42
0.0000001
 43
0.0000001
 44
0.0000000001
 40
0.0
 40
0.0
 40
0.0
 40
0.0
 40
0.0110142516
 40
0.0221955831
 40
0.0335727732
 40
0.0451743759
 40
0.0691428356
 40
0.0942791899
 40
0.1206952006
 40
0.1484533589
 40
0.177571353
 40
0.2080279192
 40
0.2397682233
 40
0.27270887
 40
0.306742365
 40
0.3417410982
 40
0.3775609236
 40
0.4140444257
 40
0.4510239373
 40
0.4883243814
 40
0.525765994
 40
0.5631669745
 40
0.6003461061
 40
0.6371253848
 40
0.673332697
 40
0.7088045894
 40
0.743389188
 40
0.7769493166
 40
0.8093658874
 40
0.840541645
 40
0.8704053784
 40
0.898916547
 40
0.9260707389
 40
0.9519045275
 40
0.9765028396
 40
1.0
 40
1.0
 40
1.0
 40
1.0
 10
15.8413043225
 20
13.6387078358
 30
0.0
 10
15.8412835261
 20
13.6383082265
 30
0.0
 10
15.8412705571
 20
13.6375011682
 30
0.0
 10
15.8413356217
 20
13.6362823049
 30
0.0
 10
15.8414850514
 20
13.6350493391
 30
0.0
 10
15.8417995872
 20
13.6333719715
 30
0.0
 10
15.8424098545
 20
13.6312465919
 30
0.0
 10
15.8434626756
 20
13.6287073934
 30
0.0
 10
15.8448354672
 20
13.6261688087
 30
0.0
 10
15.8465177275
 20
13.6236487813
 30
0.0
 10
15.8484971199
 20
13.621164749
 30
0.0
 10
15.8507593201
 20
13.6187341273
 30
0.0
 10
15.8532880797
 20
13.6163740369
 30
0.0
 10
15.8560652718
 20
13.6141012071
 30
0.0
 10
15.8590709932
 20
13.6119318213
 30
0.0
 10
15.8622836881
 20
13.6098813811
 30
0.0
 10
15.8656802955
 20
13.6079645749
 30
0.0
 10
15.8692364147
 20
13.6061951589
 30
0.0
 10
15.8729264818
 20
13.6045858478
 30
0.0
 10
15.8767239564
 20
13.6031482146
 30
0.0
 10
15.8806015171
 20
13.6018926027
 30
0.0
 10
15.8845312621
 20
13.6008280472
 30
0.0
 10
15.888484915
 20
13.5999622081
 30
0.0
 10
15.8924340342
 20
13.599301315
 30
0.0
 10
15.8963502233
 20
13.5988501228
 30
0.0
 10
15.9002053423
 20
13.5986118815
 30
0.0
 10
15.9039717173
 20
13.5985883173
 30
0.0
 10
15.907622347
 20
13.5987796306
 30
0.0
 10
15.9111311021
 20
13.5991845121
 30
0.0
 10
15.9144729174
 20
13.5998001732
 30
0.0
 10
15.9176239563
 20
13.6006224016
 30
0.0
 10
15.9205617901
 20
13.6016456306
 30
0.0
 10
15.9232654111
 20
13.6028630046
 30
0.0
 10
15.9257155757
 20
13.6042666047
 30
0.0
 10
15.9278939534
 20
13.6058468536
 30
0.0
 10
15.929181155
 20
13.607036348
 30
0.0
 10
15.929768643
 20
13.6076556928
 30
0.0
  0
SPLINE
  5
419
100
AcDbEntity
  8
LAYER_FEATURE
100
AcDbSpline
 62
7
  6
CONTINUOUS
 70
0
 71
3
 72
11
 73
7
 74
0
 42
0.0000001
 43
0.0000001
 44
0.0000000001
 40
0.0
 40
0.0
 40
0.0
 40
0.0
 40
0.2658469594
 40
0.5205718818
 40
0.7649273149
 40
1.0
 40
1.0
 40
1.0
 40
1.0
 10
15.9380250121
 20
13.613378265
 30
0.0
 10
15.9372118411
 20
13.6130038356
 30
0.0
 10
15.9356472774
 20
13.6122079119
 30
0.0
 10
15.9334587557
 20
13.61084283
 30
0.0
 10
15.9314913565
 20
13.6093394375
 30
0.0
 10
15.9303134251
 20
13.608230016
 30
0.0
 10
15.929768643
 20
13.6076556928
 30
0.0
  0
SPLINE
  5
41A
100
AcDbEntity
  8
LAYER_FEATURE
100
AcDbSpline
 62
7
  6
CONTINUOUS
 70
0
 71
3
 72
15
 73
11
 74
0
 42
0.0000001
 43
0.0000001
 44
0.0000000001
 40
0.0
 40
0.0
 40
0.0
 40
0.0
 40
0.1397549163
 40
0.2764879044
 40
0.4094776146
 40
0.5381019146
 40
0.6618185871
 40
0.7802016331
 40
0.8929724061
 40
1.0
 40
1.0
 40
1.0
 40
1.0
 10
15.9494655457
 20
13.6144737473
 30
0.0
 10
15.9489292079
 20
13.6145551761
 30
0.0
 10
15.9478634137
 20
13.6146869967
 30
0.0
 10
15.9462764478
 20
13.614790678
 30
0.0
 10
15.9447291901
 20
13.614797603
 30
0.0
 10
15.9432350469
 20
13.6147077267
 30
0.0
 10
15.9418068309
 20
13.6145217488
 30
0.0
 10
15.9404567164
 20
13.6142412094
 30
0.0
 10
15.9391964485
 20
13.6138684189
 30
0.0
 10
15.9384023764
 20
13.6135520246
 30
0.0
 10
15.9380250121
 20
13.613378265
 30
0.0
  0
SPLINE
  5
41B
100
AcDbEntity
  8
LAYER_FEATURE
100
AcDbSpline
 62
7
  6
CONTINUOUS
 70
0
 71
3
 72
15
 73
11
 74
0
 42
0.0000001
 43
0.0000001
 44
0.0000000001
 40
0.0
 40
0.0
 40
0.0
 40
0.0
 40
0.1038490134
 40
0.2133408302
 40
0.3289762581
 40
0.4509994756
 40
0.5794061056
 40
0.7139840784
 40
0.8543624364
 40
1.0
 40
1.0
 40
1.0
 40
1.0
 10
15.9842484645
 20
13.5954555168
 30
0.0
 10
15.9841660937
 20
13.5958067923
 30
0.0
 10
15.983946737
 20
13.5965173579
 30
0.0
 10
15.9834783641
 20
13.5975625365
 30
0.0
 10
15.982867093
 20
13.598604807
 30
0.0
 10
15.9821185814
 20
13.599635275
 30
0.0
 10
15.98123934
 20
13.6006454158
 30
0.0
 10
15.9802369885
 20
13.6016267752
 30
0.0
 10
15.9791202024
 20
13.6025709498
 30
0.0
 10
15.9783191871
 20
13.6031604164
 30
0.0
 10
15.9779025513
 20
13.6034475416
 30
0.0
  0
SPLINE
  5
41C
100
AcDbEntity
  8
LAYER_FEATURE
100
AcDbSpline
 62
7
  6
CONTINUOUS
 70
0
 71
3
 72
11
 73
7
 74
0
 42
0.0000001
 43
0.0000001
 44
0.0000000001
 40
0.0
 40
0.0
 40
0.0
 40
0.0
 40
0.2421498778
 40
0.4879988729
 40
0.7399209
 40
1.0
 40
1.0
 40
1.0
 40
1.0
 10
15.9842856656
 20
13.5865171837
 30
0.0
 10
15.9844619181
 20
13.5872234749
 30
0.0
 10
15.9847261252
 20
13.5886712205
 30
0.0
 10
15.9848491235
 20
13.5908975515
 30
0.0
 10
15.9847008545
 20
13.593176052
 30
0.0
 10
15.9844269592
 20
13.5946943148
 30
0.0
 10
15.9842484645
 20
13.5954555168
 30
0.0
  0
SPLINE
  5
41D
100
AcDbEntity
  8
LAYER_FEATURE
100
AcDbSpline
 62
7
  6
CONTINUOUS
 70
0
 71
3
 72
42
 73
38
 74
0
 42
0.0000001
 43
0.0000001
 44
0.0000000001
 40
0.0
 40
0.0
 40
0.0
 40
0.0
 40
0.0107810445
 40
0.0216335233
 40
0.0325923133
 40
0.0436932288
 40
0.0549709676
 40
0.0664567532
 40
0.0901487751
 40
0.1149644508
 40
0.1410331174
 40
0.1684326827
 40
0.1971946088
 40
0.2273094307
 40
0.2587323389
 40
0.2913883398
 40
0.3251768998
 40
0.3599760881
 40
0.3956462932
 40
0.4320335856
 40
0.4689728119
 40
0.5062904944
 40
0.5438075935
 40
0.5813421837
 40
0.6187120864
 40
0.6557374987
 40
0.6922436591
 40
0.7280635945
 40
0.7630409924
 40
0.7970332529
 40
0.8299147866
 40
0.861580673
 40
0.891950631
 40
0.9209738321
 40
0.9486331852
 40
0.9749528308
 40
1.0
 40
1.0
 40
1.0
 40
1.0
 10
15.9842856656
 20
13.5865171837
 30
0.0
 10
15.984191087
 20
13.5861381813
 30
0.0
 10
15.9840295508
 20
13.5853703053
 30
0.0
 10
15.9838718239
 20
13.5841989776
 30
0.0
 10
15.9837985267
 20
13.5830077013
 30
0.0
 10
15.983809728
 20
13.5817988833
 30
0.0
 10
15.9839053906
 20
13.5805746564
 30
0.0
 10
15.9841476029
 20
13.5789079193
 30
0.0
 10
15.9846680435
 20
13.5767912131
 30
0.0
 10
15.9856169186
 20
13.5742554592
 30
0.0
 10
15.9868886534
 20
13.5717146764
 30
0.0
 10
15.9884734096
 20
13.5691868433
 30
0.0
 10
15.9903594487
 20
13.5666894193
 30
0.0
 10
15.9925330787
 20
13.5642398801
 30
0.0
 10
15.9949786614
 20
13.5618554433
 30
0.0
 10
15.9976786602
 20
13.5595529825
 30
0.0
 10
16.0006137255
 20
13.5573488697
 30
0.0
 10
16.0037628126
 20
13.5552588377
 30
0.0
 10
16.0071033238
 20
13.5532978479
 30
0.0
 10
16.0106112676
 20
13.5514799664
 30
0.0
 10
16.0142614317
 20
13.5498182516
 30
0.0
 10
16.018027567
 20
13.5483246512
 30
0.0
 10
16.0218825797
 20
13.54700991
 30
0.0
 10
16.0257987309
 20
13.5458834888
 30
0.0
 10
16.0297478412
 20
13.5449534932
 30
0.0
 10
16.0337014987
 20
13.5442266148
 30
0.0
 10
16.0376312692
 20
13.5437080835
 30
0.0
 10
16.0415089081
 20
13.543401631
 30
0.0
 10
16.0453065703
 20
13.5433094696
 30
0.0
 10
16.0489970178
 20
13.5434322864
 30
0.0
 10
16.0525538237
 20
13.5437692502
 30
0.0
 10
16.0559515575
 20
13.5443180426
 30
0.0
 10
16.059165993
 20
13.5450748963
 30
0.0
 10
16.062174175
 20
13.5460346592
 30
0.0
 10
16.0649548218
 20
13.5471909537
 30
0.0
 10
16.0674875696
 20
13.548535845
 30
0.0
 10
16.0690354805
 20
13.5495772066
 30
0.0
 10
16.0697574375
 20
13.5501270949
 30
0.0
  0
SPLINE
  5
41E
100
AcDbEntity
  8
LAYER_FEATURE
100
AcDbSpline
 62
7
  6
CONTINUOUS
 70
0
 71
3
 72
12
 73
8
 74
0
 42
0.0000001
 43
0.0000001
 44
0.0000000001
 40
0.0
 40
0.0
 40
0.0
 40
0.0
 40
0.2660824399
 40
0.3950329477
 40
0.5212614964
 40
0.7657019277
 40
1.0
 40
1.0
 40
1.0
 40
1.0
 10
16.0793215627
 20
13.5549776091
 30
0.0
 10
16.0784135774
 20
13.5546805885
 30
0.0
 10
16.0770799412
 20
13.5541929261
 30
0.0
 10
16.0753620293
 20
13.5534494384
 30
0.0
 10
16.0737451074
 20
13.5526717108
 30
0.0
 10
16.0718471091
 20
13.5516099927
 30
0.0
 10
16.070426644
 20
13.5506368049
 30
0.0
 10
16.0697574375
 20
13.5501270949
 30
0.0
  0
SPLINE
  5
41F
100
AcDbEntity
  8
LAYER_FEATURE
100
AcDbSpline
 62
7
  6
CONTINUOUS
 70
0
 71
3
 72
15
 73
11
 74
0
 42
0.0000001
 43
0.0000001
 44
0.0000000001
 40
0.0
 40
0.0
 40
0.0
 40
0.0
 40
0.1366973248
 40
0.2713807466
 40
0.4032934552
 40
0.5317544408
 40
0.6561376103
 40
0.7759040409
 40
0.8906296437
 40
1.0
 40
1.0
 40
1.0
 40
1.0
 10
16.0913160634
 20
13.5551610994
 30
0.0
 10
16.0907763063
 20
13.5552799412
 30
0.0
 10
16.0896981548
 20
13.5554870968
 30
0.0
 10
16.0880814996
 20
13.5557058613
 30
0.0
 10
16.0864880632
 20
13.5558290608
 30
0.0
 10
16.0849316784
 20
13.5558556527
 30
0.0
 10
16.0834257218
 20
13.5557853587
 30
0.0
 10
16.0819830818
 20
13.5556187749
 30
0.0
 10
16.0806163
 20
13.5553572696
 30
0.0
 10
16.0797418461
 20
13.5551150924
 30
0.0
 10
16.0793215627
 20
13.5549776091
 30
0.0
  0
SPLINE
  5
420
100
AcDbEntity
  8
LAYER_FEATURE
100
AcDbSpline
 62
7
  6
CONTINUOUS
 70
0
 71
3
 72
15
 73
11
 74
0
 42
0.0000001
 43
0.0000001
 44
0.0000000001
 40
0.0
 40
0.0
 40
0.0
 40
0.0
 40
0.1039857979
 40
0.2128773306
 40
0.3275874752
 40
0.4487270189
 40
0.5766020915
 40
0.7112545312
 40
0.8525155827
 40
1.0
 40
1.0
 40
1.0
 40
1.0
 10
16.1236688348
 20
13.5343393608
 30
0.0
 10
16.1236487027
 20
13.5346798353
 30
0.0
 10
16.1235540982
 20
13.53537453
 30
0.0
 10
16.1232634205
 20
13.5364119335
 30
0.0
 10
16.1228245255
 20
13.5374569116
 30
0.0
 10
16.1222418368
 20
13.5385004536
 30
0.0
 10
16.1215206456
 20
13.5395339996
 30
0.0
 10
16.1206673242
 20
13.5405489848
 30
0.0
 10
16.1196893101
 20
13.5415367981
 30
0.0
 10
16.1189741894
 20
13.5421591557
 30
0.0
 10
16.1185988292
 20
13.5424642981
 30
0.0
  0
SPLINE
  5
421
100
AcDbEntity
  8
LAYER_FEATURE
100
AcDbSpline
 62
7
  6
CONTINUOUS
 70
0
 71
3
 72
11
 73
7
 74
0
 42
0.0000001
 43
0.0000001
 44
0.0000000001
 40
0.0
 40
0.0
 40
0.0
 40
0.0
 40
0.2653619491
 40
0.5205128622
 40
0.7653521566
 40
1.0
 40
1.0
 40
1.0
 40
1.0
 10
16.2142176221
 20
13.4884329115
 30
0.0
 10
16.2132252504
 20
13.4882170027
 30
0.0
 10
16.2112909946
 20
13.4877337176
 30
0.0
 10
16.2085011876
 20
13.4868333796
 30
0.0
 10
16.2058931814
 20
13.4857761478
 30
0.0
 10
16.2042503296
 20
13.4849528607
 30
0.0
 10
16.2034660152
 20
13.4845154531
 30
0.0
  0
SPLINE
  5
422
100
AcDbEntity
  8
LAYER_FEATURE
100
AcDbSpline
 62
7
  6
CONTINUOUS
 70
0
 71
3
 72
15
 73
11
 74
0
 42
0.0000001
 43
0.0000001
 44
0.0000000001
 40
0.0
 40
0.0
 40
0.0
 40
0.0
 40
0.1335817853
 40
0.2661247003
 40
0.3968559905
 40
0.5250587055
 40
0.6500501607
 40
0.7712111824
 40
0.8880115052
 40
1.0
 40
1.0
 40
1.0
 40
1.0
 10
16.226615252
 20
13.4877021021
 30
0.0
 10
16.2260788689
 20
13.4878571201
 30
0.0
 10
16.2250018204
 20
13.4881375425
 30
0.0
 10
16.2233756624
 20
13.4884686544
 30
0.0
 10
16.2217559189
 20
13.4887065801
 30
0.0
 10
16.220156671
 20
13.4888492838
 30
0.0
 10
16.2185916859
 20
13.4888954976
 30
0.0
 10
16.2170744011
 20
13.4888448401
 30
0.0
 10
16.2156180104
 20
13.4886976984
 30
0.0
 10
16.2146750026
 20
13.488532423
 30
0.0
 10
16.2142176221
 20
13.4884329115
 30
0.0
  0
SPLINE
  5
423
100
AcDbEntity
  8
LAYER_FEATURE
100
AcDbSpline
 62
7
  6
CONTINUOUS
 70
0
 71
3
 72
15
 73
11
 74
0
 42
0.0000001
 43
0.0000001
 44
0.0000000001
 40
0.0
 40
0.0
 40
0.0
 40
0.0
 40
0.1057104281
 40
0.2150016705
 40
0.329240394
 40
0.4494812626
 40
0.576430157
 40
0.7104702581
 40
0.851713783
 40
1.0
 40
1.0
 40
1.0
 40
1.0
 10
16.2561310212
 20
13.4653387009
 30
0.0
 10
16.2561726072
 20
13.4656632554
 30
0.0
 10
16.2562036153
 20
13.4663312691
 30
0.0
 10
16.25609547
 20
13.4673480856
 30
0.0
 10
16.2558352497
 20
13.4683831857
 30
0.0
 10
16.2554261084
 20
13.4694273143
 30
0.0
 10
16.2548721654
 20
13.4704718367
 30
0.0
 10
16.2541785742
 20
13.47150814
 30
0.0
 10
16.2533515196
 20
13.4725275099
 30
0.0
 10
16.2527304163
 20
13.4731750786
 30
0.0
 10
16.2524006814
 20
13.473494375
 30
0.0
  0
SPLINE
  5
424
100
AcDbEntity
  8
LAYER_FEATURE
100
AcDbSpline
 62
7
  6
CONTINUOUS
 70
0
 71
3
 72
11
 73
7
 74
0
 42
0.0000001
 43
0.0000001
 44
0.0000000001
 40
0.0
 40
0.0
 40
0.0
 40
0.0
 40
0.264002878
 40
0.5188861564
 40
0.7642838085
 40
1.0
 40
1.0
 40
1.0
 40
1.0
 10
16.3410167941
 20
13.4145810101
 30
0.0
 10
16.3399517201
 20
13.4144491552
 30
0.0
 10
16.3378649508
 20
13.4141321091
 30
0.0
 10
16.3348249057
 20
13.4134815569
 30
0.0
 10
16.3319436797
 20
13.4126674213
 30
0.0
 10
16.3301013566
 20
13.412004823
 30
0.0
 10
16.3292129132
 20
13.411645872
 30
0.0
  0
SPLINE
  5
425
100
AcDbEntity
  8
LAYER_FEATURE
100
AcDbSpline
 62
7
  6
CONTINUOUS
 70
0
 71
3
 72
15
 73
11
 74
0
 42
0.0000001
 43
0.0000001
 44
0.0000000001
 40
0.0
 40
0.0
 40
0.0
 40
0.0
 40
0.1304623333
 40
0.2608240315
 40
0.390311859
 40
0.5181905838
 40
0.6437414672
 40
0.766289308
 40
0.8852265643
 40
1.0
 40
1.0
 40
1.0
 40
1.0
 10
16.3536616459
 20
13.4129450916
 30
0.0
 10
16.3531354364
 20
13.4131345829
 30
0.0
 10
16.3520730437
 20
13.4134852641
 30
0.0
 10
16.3504577062
 20
13.4139245846
 30
0.0
 10
16.3488318829
 20
13.4142742618
 30
0.0
 10
16.3472097215
 20
13.4145312873
 30
0.0
 10
16.3456052012
 20
13.4146934116
 30
0.0
 10
16.3440321315
 20
13.4147592651
 30
0.0
 10
16.3425041965
 20
13.4147282346
 30
0.0
 10
16.3415050968
 20
13.4146414615
 30
0.0
 10
16.3410167941
 20
13.4145810101
 30
0.0
  0
SPLINE
  5
426
100
AcDbEntity
  8
LAYER_FEATURE
100
AcDbSpline
 62
7
  6
CONTINUOUS
 70
0
 71
3
 72
11
 73
7
 74
0
 42
0.0000001
 43
0.0000001
 44
0.0000000001
 40
0.0
 40
0.0
 40
0.0
 40
0.0
 40
0.2622768881
 40
0.5167169001
 40
0.7627660367
 40
1.0
 40
1.0
 40
1.0
 40
1.0
 10
16.4581245054
 20
13.3343506357
 30
0.0
 10
16.4569995259
 20
13.3343048641
 30
0.0
 10
16.4547849716
 20
13.3341586165
 30
0.0
 10
16.451532522
 20
13.3337656835
 30
0.0
 10
16.4484139213
 20
13.3332043867
 30
0.0
 10
16.4463971352
 20
13.3327105458
 30
0.0
 10
16.4454167913
 20
13.3324347289
 30
0.0
  0
SPLINE
  5
427
100
AcDbEntity
  8
LAYER_FEATURE
100
AcDbSpline
 62
7
  6
CONTINUOUS
 70
0
 71
3
 72
15
 73
11
 74
0
 42
0.0000001
 43
0.0000001
 44
0.0000000001
 40
0.0
 40
0.0
 40
0.0
 40
0.0
 40
0.1273660434
 40
0.2555323997
 40
0.3837385801
 40
0.5112455243
 40
0.6373146408
 40
0.7612332691
 40
0.8823382809
 40
1.0
 40
1.0
 40
1.0
 40
1.0
 10
16.4708575628
 20
13.3318301806
 30
0.0
 10
16.4703482458
 20
13.332051995
 30
0.0
 10
16.4693139732
 20
13.3324690195
 30
0.0
 10
16.467729653
 20
13.3330110555
 30
0.0
 10
16.4661180697
 20
13.3334681134
 30
0.0
 10
16.4644932561
 20
13.3338362478
 30
0.0
 10
16.4628692214
 20
13.3341122516
 30
0.0
 10
16.4612599659
 20
13.3342937761
 30
0.0
 10
16.4596794919
 20
13.3343792073
 30
0.0
 10
16.4586372772
 20
13.3343714986
 30
0.0
 10
16.4581245054
 20
13.3343506357
 30
0.0
  0
SPLINE
  5
428
100
AcDbEntity
  8
LAYER_FEATURE
100
AcDbSpline
 62
7
  6
CONTINUOUS
 70
0
 71
3
 72
11
 73
7
 74
0
 42
0.0000001
 43
0.0000001
 44
0.0000000001
 40
0.0
 40
0.0
 40
0.0
 40
0.0
 40
0.2603514521
 40
0.5142425515
 40
0.7609879038
 40
1.0
 40
1.0
 40
1.0
 40
1.0
 10
16.5640680588
 20
13.2487507316
 30
0.0
 10
16.5628968991
 20
13.2487920618
 30
0.0
 10
16.5605812913
 20
13.2488192664
 30
0.0
 10
16.5571569771
 20
13.2486887158
 30
0.0
 10
16.5538398312
 20
13.2483870448
 30
0.0
 10
16.5516753567
 20
13.2480675209
 30
0.0
 10
16.5506163182
 20
13.2478781497
 30
0.0
  0
SPLINE
  5
429
100
AcDbEntity
  8
LAYER_FEATURE
100
AcDbSpline
 62
7
  6
CONTINUOUS
 70
0
 71
3
 72
12
 73
8
 74
0
 42
0.0000001
 43
0.0000001
 44
0.0000000001
 40
0.0
 40
0.0
 40
0.0
 40
0.0
 40
0.4615468363
 40
0.589132325
 40
0.7214883005
 40
0.8585062663
 40
1.0
 40
1.0
 40
1.0
 40
1.0
 10
16.8929204801
 20
12.4995865707
 30
0.0
 10
16.8925940837
 20
12.5006649896
 30
0.0
 10
16.8918997959
 20
12.5019634838
 30
0.0
 10
16.8908352301
 20
12.503364806
 30
0.0
 10
16.8902008977
 20
12.5040987436
 30
0.0
 10
16.8895011665
 20
12.5048179222
 30
0.0
 10
16.8890006617
 20
12.5052786999
 30
0.0
 10
16.8887406512
 20
12.50550609
 30
0.0
  0
SPLINE
  5
42A
100
AcDbEntity
  8
LAYER_FEATURE
100
AcDbSpline
 62
7
  6
CONTINUOUS
 70
0
 71
3
 72
15
 73
11
 74
0
 42
0.0000001
 43
0.0000001
 44
0.0000000001
 40
0.0
 40
0.0
 40
0.0
 40
0.0
 40
0.1243053201
 40
0.250274884
 40
0.3771734091
 40
0.5042708604
 40
0.6308224869
 40
0.7560931999
 40
0.879381233
 40
1.0
 40
1.0
 40
1.0
 40
1.0
 10
16.5767291961
 20
13.2453774361
 30
0.0
 10
16.5762433258
 20
13.2456289993
 30
0.0
 10
16.5752503756
 20
13.2461075884
 30
0.0
 10
16.5737168821
 20
13.2467455623
 30
0.0
 10
16.5721396874
 20
13.2473042864
 30
0.0
 10
16.5705325309
 20
13.2477789282
 30
0.0
 10
16.56890927
 20
13.2481653616
 30
0.0
 10
16.5672839124
 20
13.2484602846
 30
0.0
 10
16.5656706009
 20
13.2486610981
 30
0.0
 10
16.5645986345
 20
13.2487320075
 30
0.0
 10
16.5640680588
 20
13.2487507316
 30
0.0
  0
SPLINE
  5
42B
100
AcDbEntity
  8
LAYER_FEATURE
100
AcDbSpline
 62
7
  6
CONTINUOUS
 70
0
 71
3
 72
11
 73
7
 74
0
 42
0.0000001
 43
0.0000001
 44
0.0000000001
 40
0.0
 40
0.0
 40
0.0
 40
0.0
 40
0.2583276421
 40
0.5116086808
 40
0.7590672331
 40
1.0
 40
1.0
 40
1.0
 40
1.0
 10
16.6575151525
 20
13.1588577663
 30
0.0
 10
16.6563122659
 20
13.1589861498
 30
0.0
 10
16.6539239484
 20
13.1591873908
 30
0.0
 10
16.6503705259
 20
13.1593207882
 30
0.0
 10
16.6468962089
 20
13.159282406
 30
0.0
 10
16.6446122895
 20
13.1591403679
 30
0.0
 10
16.6434885489
 20
13.1590394827
 30
0.0
  0
SPLINE
  5
42C
100
AcDbEntity
  8
LAYER_FEATURE
100
AcDbSpline
 62
7
  6
CONTINUOUS
 70
0
 71
3
 72
15
 73
11
 74
0
 42
0.0000001
 43
0.0000001
 44
0.0000000001
 40
0.0
 40
0.0
 40
0.0
 40
0.0
 40
0.1055067525
 40
0.2169031364
 40
0.3342425639
 40
0.4573952075
 40
0.5860528126
 40
0.7197633243
 40
0.8579711664
 40
1.0
 40
1.0
 40
1.0
 40
1.0
 10
16.9106348801
 20
12.5869664258
 30
0.0
 10
16.9104669349
 20
12.5873238236
 30
0.0
 10
16.9100787518
 20
12.5880389475
 30
0.0
 10
16.9093728735
 20
12.5890739349
 30
0.0
 10
16.9085340015
 20
12.5900914409
 30
0.0
 10
16.9075695614
 20
12.5910827547
 30
0.0
 10
16.9064878045
 20
12.5920395326
 30
0.0
 10
16.9052980444
 20
12.5929536692
 30
0.0
 10
16.9040105721
 20
12.5938172605
 30
0.0
 10
16.9031051432
 20
12.5943481387
 30
0.0
 10
16.902639089
 20
12.5946038277
 30
0.0
  0
SPLINE
  5
42D
100
AcDbEntity
  8
LAYER_FEATURE
100
AcDbSpline
 62
7
  6
CONTINUOUS
 70
0
 71
3
 72
15
 73
11
 74
0
 42
0.0000001
 43
0.0000001
 44
0.0000000001
 40
0.0
 40
0.0
 40
0.0
 40
0.0
 40
0.1212865518
 40
0.2450633813
 40
0.3706334245
 40
0.4972882809
 40
0.6242896857
 40
0.750893251
 40
0.876372663
 40
1.0
 40
1.0
 40
1.0
 40
1.0
 10
16.6699451486
 20
13.1546740517
 30
0.0
 10
16.6694890348
 20
13.1549523916
 30
0.0
 10
16.6685501822
 20
13.1554869569
 30
0.0
 10
16.6670866819
 20
13.156212895
 30
0.0
 10
16.6655635936
 20
13.1568663004
 30
0.0
 10
16.6639941884
 20
13.157441515
 30
0.0
 10
16.6623919928
 20
13.1579335472
 30
0.0
 10
16.6607708397
 20
13.1583381824
 30
0.0
 10
16.6591448328
 20
13.1586518669
 30
0.0
 10
16.6580567232
 20
13.1587999647
 30
0.0
 10
16.6575151525
 20
13.1588577663
 30
0.0
  0
SPLINE
  5
42E
100
AcDbEntity
  8
LAYER_FEATURE
100
AcDbSpline
 62
7
  6
CONTINUOUS
 70
0
 71
3
 72
11
 73
7
 74
0
 42
0.0000001
 43
0.0000001
 44
0.0000000001
 40
0.0
 40
0.0
 40
0.0
 40
0.0
 40
0.2562626417
 40
0.5088991388
 40
0.7570731038
 40
1.0
 40
1.0
 40
1.0
 40
1.0
 10
16.7372906351
 20
13.0658021961
 30
0.0
 10
16.7360709964
 20
13.0660164936
 30
0.0
 10
16.7336395106
 20
13.0663902035
 30
0.0
 10
16.7300014121
 20
13.0667858529
 30
0.0
 10
16.7264133307
 20
13.0670111937
 30
0.0
 10
16.7240393848
 20
13.0670474916
 30
0.0
 10
16.7228655611
 20
13.0670359254
 30
0.0
  0
SPLINE
  5
42F
100
AcDbEntity
  8
LAYER_FEATURE
100
AcDbSpline
 62
7
  6
CONTINUOUS
 70
0
 71
3
 72
15
 73
11
 74
0
 42
0.0000001
 43
0.0000001
 44
0.0000000001
 40
0.0
 40
0.0
 40
0.0
 40
0.0
 40
0.1075191581
 40
0.2207118096
 40
0.339401268
 40
0.4632723418
 40
0.5918704265
 40
0.724631755
 40
0.8609186956
 40
1.0
 40
1.0
 40
1.0
 40
1.0
 10
16.9114945416
 20
12.6783755413
 30
0.0
 10
16.9112682164
 20
12.6787310455
 30
0.0
 10
16.9107662607
 20
12.6794375124
 30
0.0
 10
16.9099013992
 20
12.6804502806
 30
0.0
 10
16.9089124241
 20
12.6814352913
 30
0.0
 10
16.9078080014
 20
12.6823840739
 30
0.0
 10
16.9065975736
 20
12.6832885614
 30
0.0
 10
16.9052915627
 20
12.6841410471
 30
0.0
 10
16.9039012796
 20
12.6849341259
 30
0.0
 10
16.9029341308
 20
12.6854147881
 30
0.0
 10
16.9024394852
 20
12.6856439364
 30
0.0
  0
SPLINE
  5
430
100
AcDbEntity
  8
LAYER_FEATURE
100
AcDbSpline
 62
7
  6
CONTINUOUS
 70
0
 71
3
 72
15
 73
11
 74
0
 42
0.0000001
 43
0.0000001
 44
0.0000000001
 40
0.0
 40
0.0
 40
0.0
 40
0.0
 40
0.1183169354
 40
0.2399084717
 40
0.3641307001
 40
0.4903105212
 40
0.6177290527
 40
0.7456451981
 40
0.873320827
 40
1.0
 40
1.0
 40
1.0
 40
1.0
 10
16.7493331756
 20
13.0608606748
 30
0.0
 10
16.7489128087
 20
13.0611624497
 30
0.0
 10
16.7480402464
 20
13.0617466532
 30
0.0
 10
16.7466650175
 20
13.0625514921
 30
0.0
 10
16.7452150683
 20
13.063291415
 30
0.0
 10
16.7437030344
 20
13.0639600115
 30
0.0
 10
16.7421419365
 20
13.0645514906
 30
0.0
 10
16.7405452537
 20
13.0650607795
 30
0.0
 10
16.7389268713
 20
13.0654834146
 30
0.0
 10
16.73783632
 20
13.0657063161
 30
0.0
 10
16.7372906351
 20
13.0658021961
 30
0.0
  0
SPLINE
  5
431
100
AcDbEntity
  8
LAYER_FEATURE
100
AcDbSpline
 62
7
  6
CONTINUOUS
 70
0
 71
3
 72
11
 73
7
 74
0
 42
0.0000001
 43
0.0000001
 44
0.0000000001
 40
0.0
 40
0.0
 40
0.0
 40
0.0
 40
0.2541862868
 40
0.5061587887
 40
0.7550433566
 40
1.0
 40
1.0
 40
1.0
 40
1.0
 10
16.8023912836
 20
12.9707542487
 30
0.0
 10
16.8011701823
 20
12.9710522314
 30
0.0
 10
16.7987258476
 20
12.9715946698
 30
0.0
 10
16.7950486114
 20
12.9722476084
 30
0.0
 10
16.7913916512
 20
12.9727338357
 30
0.0
 10
16.7889579597
 20
12.9729470532
 30
0.0
 10
16.787749143
 20
12.9730244761
 30
0.0
  0
SPLINE
  5
432
100
AcDbEntity
  8
LAYER_FEATURE
100
AcDbSpline
 62
7
  6
CONTINUOUS
 70
0
 71
3
 72
15
 73
11
 74
0
 42
0.0000001
 43
0.0000001
 44
0.0000000001
 40
0.0
 40
0.0
 40
0.0
 40
0.0
 40
0.1099358732
 40
0.2251169692
 40
0.3451947637
 40
0.4697184733
 40
0.5981287694
 40
0.7297848375
 40
0.8639958767
 40
1.0
 40
1.0
 40
1.0
 40
1.0
 10
16.8954886538
 20
12.7726643946
 30
0.0
 10
16.8952072255
 20
12.7730130884
 30
0.0
 10
16.8945987681
 20
12.7737015953
 30
0.0
 10
16.8935857542
 20
12.7746798454
 30
0.0
 10
16.8924589972
 20
12.7756203095
 30
0.0
 10
16.8912283335
 20
12.7765148712
 30
0.0
 10
16.8899043038
 20
12.7773558681
 30
0.0
 10
16.8884983188
 20
12.7781361076
 30
0.0
 10
16.887022572
 20
12.7788487904
 30
0.0
 10
16.8860053999
 20
12.7792728505
 30
0.0
 10
16.8854882046
 20
12.7794723786
 30
0.0
  0
SPLINE
  5
433
100
AcDbEntity
  8
LAYER_FEATURE
100
AcDbSpline
 62
7
  6
CONTINUOUS
 70
0
 71
3
 72
15
 73
11
 74
0
 42
0.0000001
 43
0.0000001
 44
0.0000000001
 40
0.0
 40
0.0
 40
0.0
 40
0.0
 40
0.1154110637
 40
0.2348304874
 40
0.3576859952
 40
0.4833559523
 40
0.6111553364
 40
0.7403596841
 40
0.8702317345
 40
1.0
 40
1.0
 40
1.0
 40
1.0
 10
16.8138949266
 20
12.9651170633
 30
0.0
 10
16.8135159069
 20
12.9654385876
 30
0.0
 10
16.812721101
 20
12.9660654037
 30
0.0
 10
16.8114512998
 20
12.966939116
 30
0.0
 10
16.8100925935
 20
12.9677563237
 30
0.0
 10
16.8086568241
 20
12.9685099494
 30
0.0
 10
16.8071563388
 20
12.9691934813
 30
0.0
 10
16.8056040892
 20
12.9698010565
 30
0.0
 10
16.8040135658
 20
12.9703273585
 30
0.0
 10
16.802934207
 20
12.9706217602
 30
0.0
 10
16.8023912836
 20
12.9707542487
 30
0.0
  0
SPLINE
  5
434
100
AcDbEntity
  8
LAYER_FEATURE
100
AcDbSpline
 62
7
  6
CONTINUOUS
 70
0
 71
3
 72
11
 73
7
 74
0
 42
0.0000001
 43
0.0000001
 44
0.0000000001
 40
0.0
 40
0.0
 40
0.0
 40
0.0
 40
0.2521121685
 40
0.5034089548
 40
0.7529966775
 40
1.0
 40
1.0
 40
1.0
 40
1.0
 10
16.8519984196
 20
12.8749092072
 30
0.0
 10
16.8507912551
 20
12.8752875776
 30
0.0
 10
16.8483647522
 20
12.8759928556
 30
0.0
 10
16.8446944376
 20
12.8768949024
 30
0.0
 10
16.841014387
 20
12.8776359231
 30
0.0
 10
16.8385517577
 20
12.8780224293
 30
0.0
 10
16.8373233458
 20
12.8781873833
 30
0.0
  0
SPLINE
  5
435
100
AcDbEntity
  8
LAYER_FEATURE
100
AcDbSpline
 62
7
  6
CONTINUOUS
 70
0
 71
3
 72
15
 73
11
 74
0
 42
0.0000001
 43
0.0000001
 44
0.0000000001
 40
0.0
 40
0.0
 40
0.0
 40
0.0
 40
0.1125987805
 40
0.2298723621
 40
0.3513441778
 40
0.4764644982
 40
0.6045997757
 40
0.7350576796
 40
0.8671157872
 40
1.0
 40
1.0
 40
1.0
 40
1.0
 10
16.8628185001
 20
12.8686472486
 30
0.0
 10
16.8624859696
 20
12.8689845151
 30
0.0
 10
16.8617795266
 20
12.869646291
 30
0.0
 10
16.8606309727
 20
12.8705780274
 30
0.0
 10
16.8593804538
 20
12.871462347
 30
0.0
 10
16.8580388733
 20
12.8722916002
 30
0.0
 10
16.8566177468
 20
12.8730586474
 30
0.0
 10
16.8551293331
 20
12.8737569146
 30
0.0
 10
16.853586556
 20
12.8743803028
 30
0.0
 10
16.8525317908
 20
12.8747420287
 30
0.0
 10
16.8519984196
 20
12.8749092072
 30
0.0
  0
ENDSEC
  0
SECTION
  2
OBJECTS
  0
DICTIONARY
  5
C
100
AcDbDictionary
280
0
281
1
  3
ACAD_GROUP
350
D
  3
ACAD_MLINESTYLE
350
17
  3
ACAD_LAYOUT
350
1A
  3
ACAD_PLOTSETTINGS
350
19
  3
ACAD_PLOTSTYLENAME
350
E
  0
DICTIONARY
  5
D
102
{ACAD_REACTORS
330
C
102
}
100
AcDbDictionary
280
0
281
1
  0
ACDBDICTIONARYWDFLT
  5
E
102
{ACAD_REACTORS
330
C
102
}
100
AcDbDictionary
281
1
  3
Normal
350
F
100
AcDbDictionaryWithDefault
340
F
  0
DICTIONARY
  5
17
102
{ACAD_REACTORS
330
C
102
}
100
AcDbDictionary
280
0
281
1
  3
Standard
350
18
  0
DICTIONARY
  5
19
102
{ACAD_REACTORS
330
C
102
}
100
AcDbDictionary
281
1
  0
DICTIONARY
  5
1A
102
{ACAD_REACTORS
330
C
102
}
100
AcDbDictionary
281
1
  3
Model
350
436
  3
Layout1
350
437
  0
ACDBPLACEHOLDER
  5
F
102
{ACAD_REACTORS
330
E
102
}
  0
MLINESTYLE
  5
18
102
{ACAD_REACTORS
330
17
102
}
100
AcDbMlineStyle
  2
STANDARD
 70
0
  3

 62
256
 51
90.0
 52
90.0
 71
2
 49
0.5
 62
256
  6
BYLAYER
 49
-0.5
 62
256
  6
BYLAYER
  0
LAYOUT
  5
436
102
{ACAD_REACTORS
330
1A
102
}
100
AcDbPlotSettings
  1

  2
none_device
  4
ANSI_C_(22.00_x_17.00_Inches)
  6

 40
0.0
 41
0.0
 42
0.0
 43
0.0
 44
558.8
 45
431.8
 46
0.0
 47
0.0
 48
0.0
 49
0.0
140
0.0
141
0.0
142
1.0
143
1.0
 70
1024
 72
0
 73
0
 74
0
  7

 75
0
147
1.0
148
0.0
149
0.0
100
AcDbLayout
  1
Model
 70
0
 71
0
 10
0.0
 20
0.0
 11
22.0
 21
17.0
 12
0.0
 22
0.0
 32
0.0
 14
0.0
 24
0.0
 34
0.0
 15
0.0
 25
0.0
 35
0.0
146
0.0
 13
0.0
 23
0.0
 33
0.0
 16
1.0
 26
0.0
 36
0.0
 17
0.0
 27
1.0
 37
0.0
 76
0
330
222
345
0
346
0
  0
LAYOUT
  5
437
102
{ACAD_REACTORS
330
1A
102
}
100
AcDbPlotSettings
  1

  2
none_device
  4
ANSI_C_(22.00_x_17.00_Inches)
  6

 40
0.0
 41
0.0
 42
0.0
 43
0.0
 44
558.8
 45
431.8
 46
0.0
 47
0.0
 48
0.0
 49
0.0
140
0.0
141
0.0
142
1.0
143
1.0
 70
0
 72
0
 73
0
 74
0
  7

 75
0
147
1.0
148
0.0
149
0.0
100
AcDbLayout
  1
Layout1
 70
0
 71
1
 10
0.0
 20
0.0
 11
22.0
 21
17.0
 12
0.0
 22
0.0
 32
0.0
 14
0.0
 24
0.0
 34
0.0
 15
0.0
 25
0.0
 35
0.0
146
0.0
 13
0.0
 23
0.0
 33
0.0
 16
1.0
 26
0.0
 36
0.0
 17
0.0
 27
1.0
 37
0.0
 76
0
330
223
345
0
346
0
  0
ENDSEC
  0
EOF