999
DXF file: _cgs_temp_output.dxf
999
Pro/ENGINEER 2016360 by Parametric Technology Corporation
  0
SECTION
  2
HEADER
  9
$ACADVER
  1
AC1021
  9
$DWGCODEPAGE
  3
ANSI_1252
  9
$EXTMAX
 10
22.0
 20
17.0
 30
0.0
  9
$EXTMIN
 10
0.0
 20
0.0
 30
0.0
  9
$LIMMIN
 10
0.0
 20
0.0
  9
$LIMMAX
 10
22.0
 20
17.0
  9
$VIEWCTR
 10
11.0
 20
8.5
  9
$VIEWSIZE
 40
17.0
  9
$CLAYER
  8
0
  9
$LTSCALE
 40
1.21
  9
$CELTYPE
  6
BYLAYER
  9
$DIMSCALE
 40
1.0
  9
$DIMASZ
 40
0.1875
  9
$DIMEXO
 40
0.0625
  9
$DIMDLI
 40
0.836
  9
$DIMEXE
 40
0.125
  9
$DIMCEN
 40
0.198
  9
$DIMLFAC
 40
1.0
  9
$DIMBLK
  1
_CLOSED
  9
$DIMALT
 70
0
  9
$DIMALTF
 40
25.4
  9
$DIMTXT
 40
0.15625
  9
$DIMTOL
 70
0
  9
$DIMLIM
 70
0
  9
$DIMTFAC
 40
1.0
  9
$DIMGAP
 40
0.09
  9
$DIMDSEP
 70
46
  9
$AUNITS
 70
0
  9
$PDMODE
 70
3
  9
$PDSIZE
 40
0.3125
  9
$HANDSEED
  5
306
  9
$TILEMODE
 70
1
  9
$MEASUREMENT
 70
0
  9
$INSUNITS
 70
1
  0
ENDSEC
  0
SECTION
  2
CLASSES
  0
CLASS
  1
ACDBDICTIONARYWDFLT
  2
AcDbDictionaryWithDefault
  3
AutoCAD 2000
 90
0
 91
1
280
0
281
0
  0
CLASS
  1
ACDBPLACEHOLDER
  2
AcDbPlaceHolder
  3
AutoCAD 2000
 90
0
 91
1
280
0
281
0
  0
CLASS
  1
LAYOUT
  2
AcDbLayout
  3
AutoCAD 2000
 90
0
 91
0
280
0
281
0
  0
ENDSEC
  0
SECTION
  2
TABLES
  0
TABLE
  2
VPORT
  5
8
100
AcDbSymbolTable
 70
2
  0
VPORT
  5
1F4
100
AcDbSymbolTableRecord
100
AcDbViewportTableRecord
  2
*ACTIVE
 70
0
 10
0.0
 20
0.0
 11
1.0
 21
1.0
 12
11.0
 22
8.5
 13
0.0
 23
0.0
 14
1.0
 24
1.0
 15
0.0
 25
0.0
 16
0.0
 26
0.0
 36
1.0
 17
0.0
 27
0.0
 37
0.0
 40
17.0
 41
1.2941176471
 42
50.0
 43
0.0
 44
0.0
 50
0.0
 51
0.0
 71
0
 72
100
 73
1
 74
1
 75
0
 76
0
 77
0
 78
0
  0
ENDTAB
  0
TABLE
  2
LTYPE
  5
5
100
AcDbSymbolTable
 70
6
  0
LTYPE
  5
14
100
AcDbSymbolTableRecord
100
AcDbLinetypeTableRecord
  2
BYBLOCK
 70
0
  3

 72
65
 73
0
 40
0.0
  0
LTYPE
  5
15
100
AcDbSymbolTableRecord
100
AcDbLinetypeTableRecord
  2
BYLAYER
 70
0
  3

 72
65
 73
0
 40
0.0
  0
LTYPE
  5
16
100
AcDbSymbolTableRecord
100
AcDbLinetypeTableRecord
  2
CONTINUOUS
 70
64
  3
Solid line
 72
65
 73
0
 40
0.0
  0
LTYPE
  5
1F5
100
AcDbSymbolTableRecord
100
AcDbLinetypeTableRecord
  2
CENTER
 70
64
  3
____ _ ____ _ ____ _ ____ _ ____ _ ____ _ ____
 72
65
 73
4
 40
0.6
 49
0.375
 74
0
 49
-0.075
 74
0
 49
0.075
 74
0
 49
-0.075
 74
0
  0
LTYPE
  5
1F6
100
AcDbSymbolTableRecord
100
AcDbLinetypeTableRecord
  2
HIDDEN
 70
64
  3
- - - - - - - - - - - - - - - - - - - -
 72
65
 73
2
 40
0.2
 49
0.1
 74
0
 49
-0.1
 74
0
  0
LTYPE
  5
1F7
100
AcDbSymbolTableRecord
100
AcDbLinetypeTableRecord
  2
PHANTOM
 70
64
  3
_____ _ _ _____ _ _ _____ _ _ _____
 72
65
 73
6
 40
0.8
 49
0.45
 74
0
 49
-0.05
 74
0
 49
0.1
 74
0
 49
-0.05
 74
0
 49
0.1
 74
0
 49
-0.05
 74
0
  0
LTYPE
  5
1F8
100
AcDbSymbolTableRecord
100
AcDbLinetypeTableRecord
  2
DOT
 70
64
  3
. . . . . . . . . . . . . . . . . . . .
 72
65
 73
2
 40
0.2
 49
0.1
 74
0
 49
-0.1
 74
0
  0
LTYPE
  5
1F9
100
AcDbSymbolTableRecord
100
AcDbLinetypeTableRecord
  2
DASHED
 70
64
  3
- - - - - - - - - - - - - - - - - - - -
 72
65
 73
2
 40
0.2
 49
0.1
 74
0
 49
-0.1
 74
0
  0
ENDTAB
  0
TABLE
  2
LAYER
  5
2
100
AcDbSymbolTable
 70
36
  0
LAYER
  5
10
100
AcDbSymbolTableRecord
100
AcDbLayerTableRecord
  2
0
 70
0
 62
7
  6
CONTINUOUS
370
-3
390
F
  0
LAYER
  5
1FA
100
AcDbSymbolTableRecord
100
AcDbLayerTableRecord
  2
DEFAULT_1
 70
0
 62
7
  6
CENTER
370
-3
390
F
  0
LAYER
  5
1FB
100
AcDbSymbolTableRecord
100
AcDbLayerTableRecord
  2
DEFAULT_2
 70
0
 62
8
  6
HIDDEN
370
-3
390
F
  0
LAYER
  5
1FC
100
AcDbSymbolTableRecord
100
AcDbLayerTableRecord
  2
DEFAULT_3
 70
0
 62
7
  6
PHANTOM
370
-3
390
F
  0
LAYER
  5
1FD
100
AcDbSymbolTableRecord
100
AcDbLayerTableRecord
  2
01_ALL_DTM_PLN
 70
0
 62
7
  6
CONTINUOUS
370
-3
390
F
  0
LAYER
  5
1FE
100
AcDbSymbolTableRecord
100
AcDbLayerTableRecord
  2
01__ASM_ALL_DTM_PLN
 70
0
 62
7
  6
CONTINUOUS
370
-3
390
F
  0
LAYER
  5
1FF
100
AcDbSymbolTableRecord
100
AcDbLayerTableRecord
  2
01__ASM_DEF_DTM_PLN
 70
0
 62
7
  6
CONTINUOUS
370
-3
390
F
  0
LAYER
  5
200
100
AcDbSymbolTableRecord
100
AcDbLayerTableRecord
  2
01___PRT_ALL_DTM_PLN
 70
0
 62
7
  6
CONTINUOUS
370
-3
390
F
  0
LAYER
  5
201
100
AcDbSymbolTableRecord
100
AcDbLayerTableRecord
  2
01___PRT_DEF_DTM_PLN
 70
0
 62
7
  6
CONTINUOUS
370
-3
390
F
  0
LAYER
  5
202
100
AcDbSymbolTableRecord
100
AcDbLayerTableRecord
  2
02_ALL_AXES
 70
0
 62
7
  6
CONTINUOUS
370
-3
390
F
  0
LAYER
  5
203
100
AcDbSymbolTableRecord
100
AcDbLayerTableRecord
  2
02__ASM_ALL_AXES
 70
0
 62
7
  6
CONTINUOUS
370
-3
390
F
  0
LAYER
  5
204
100
AcDbSymbolTableRecord
100
AcDbLayerTableRecord
  2
02___PRT_ALL_AXES
 70
0
 62
7
  6
CONTINUOUS
370
-3
390
F
  0
LAYER
  5
205
100
AcDbSymbolTableRecord
100
AcDbLayerTableRecord
  2
03_ALL_CURVES
 70
0
 62
7
  6
CONTINUOUS
370
-3
390
F
  0
LAYER
  5
206
100
AcDbSymbolTableRecord
100
AcDbLayerTableRecord
  2
03__ASM_ALL_CURVES
 70
0
 62
7
  6
CONTINUOUS
370
-3
390
F
  0
LAYER
  5
207
100
AcDbSymbolTableRecord
100
AcDbLayerTableRecord
  2
03___PRT_ALL_CURVES
 70
0
 62
7
  6
CONTINUOUS
370
-3
390
F
  0
LAYER
  5
208
100
AcDbSymbolTableRecord
100
AcDbLayerTableRecord
  2
04_ALL_DTM_PNT
 70
0
 62
7
  6
CONTINUOUS
370
-3
390
F
  0
LAYER
  5
209
100
AcDbSymbolTableRecord
100
AcDbLayerTableRecord
  2
04__ASM_ALL_DTM_PNT
 70
0
 62
7
  6
CONTINUOUS
370
-3
390
F
  0
LAYER
  5
20A
100
AcDbSymbolTableRecord
100
AcDbLayerTableRecord
  2
04___PRT_ALL_DTM_PNT
 70
0
 62
7
  6
CONTINUOUS
370
-3
390
F
  0
LAYER
  5
20B
100
AcDbSymbolTableRecord
100
AcDbLayerTableRecord
  2
05_ALL_DTM_CSYS
 70
0
 62
7
  6
CONTINUOUS
370
-3
390
F
  0
LAYER
  5
20C
100
AcDbSymbolTableRecord
100
AcDbLayerTableRecord
  2
05__ASM_ALL_DTM_CSYS
 70
0
 62
7
  6
CONTINUOUS
370
-3
390
F
  0
LAYER
  5
20D
100
AcDbSymbolTableRecord
100
AcDbLayerTableRecord
  2
05__ASM_DEF_DTM_CSYS
 70
0
 62
7
  6
CONTINUOUS
370
-3
390
F
  0
LAYER
  5
20E
100
AcDbSymbolTableRecord
100
AcDbLayerTableRecord
  2
05___PRT_ALL_DTM_CSYS
 70
0
 62
7
  6
CONTINUOUS
370
-3
390
F
  0
LAYER
  5
20F
100
AcDbSymbolTableRecord
100
AcDbLayerTableRecord
  2
05___PRT_DEF_DTM_CSYS
 70
0
 62
7
  6
CONTINUOUS
370
-3
390
F
  0
LAYER
  5
210
100
AcDbSymbolTableRecord
100
AcDbLayerTableRecord
  2
06_ALL_SURFS
 70
0
 62
7
  6
CONTINUOUS
370
-3
390
F
  0
LAYER
  5
211
100
AcDbSymbolTableRecord
100
AcDbLayerTableRecord
  2
06__ASM_ALL_SURFS
 70
0
 62
7
  6
CONTINUOUS
370
-3
390
F
  0
LAYER
  5
212
100
AcDbSymbolTableRecord
100
AcDbLayerTableRecord
  2
06___PRT_ALL_SURFS
 70
0
 62
7
  6
CONTINUOUS
370
-3
390
F
  0
LAYER
  5
213
100
AcDbSymbolTableRecord
100
AcDbLayerTableRecord
  2
07__ASM_ALL_SKELETONS
 70
0
 62
7
  6
CONTINUOUS
370
-3
390
F
  0
ENDTAB
  0
TABLE
  2
STYLE
  5
3
100
AcDbSymbolTable
 70
1
  0
STYLE
  5
11
100
AcDbSymbolTableRecord
100
AcDbTextStyleTableRecord
  2
STANDARD
 70
0
 40
0.0
 41
0.8
 50
0.0
 71
0
 42
0.2
  3
txt
  4

  0
STYLE
  5
214
100
AcDbSymbolTableRecord
100
AcDbTextStyleTableRecord
  2
TEXTSTYLE_1
 70
0
 40
0.0
 41
0.8
 50
0.0
 71
0
 42
0.2
  3
gdt
  4

  0
ENDTAB
  0
TABLE
  2
VIEW
  5
6
100
AcDbSymbolTable
 70
0
  0
ENDTAB
  0
TABLE
  2
UCS
  5
7
100
AcDbSymbolTable
 70
0
  0
ENDTAB
  0
TABLE
  2
APPID
  5
9
100
AcDbSymbolTable
 70
1
  0
APPID
  5
215
100
AcDbSymbolTableRecord
100
AcDbRegAppTableRecord
  2
ACAD
 70
0
  0
ENDTAB
  0
TABLE
  2
BLOCK_RECORD
  5
1
100
AcDbSymbolTable
 70
0
  0
BLOCK_RECORD
  5
216
100
AcDbSymbolTableRecord
100
AcDbBlockTableRecord
  2
*Model_Space
  0
BLOCK_RECORD
  5
217
100
AcDbSymbolTableRecord
100
AcDbBlockTableRecord
  2
*Paper_Space
  0
ENDTAB
  0
TABLE
  2
DIMSTYLE
  5
A
100
AcDbSymbolTable
 70
1
100
AcDbDimStyleTable
 71
0
  0
DIMSTYLE
105
218
100
AcDbSymbolTableRecord
100
AcDbDimStyleTableRecord
  2
STANDARD
 70
0
  3

  4

 40
1.0
 41
0.1875
 42
0.0625
 43
0.38
 44
0.125
 45
0.0
 46
0.0
 47
0.0001
 48
0.0001
140
0.15625
141
0.09
142
0.0
143
25.4
144
1.0
145
0.0
146
1.0
147
0.09
 71
0.0
 72
0.0
 73
1
 74
1
 75
0
 76
0
 77
0
 78
4
 79
1
170
0
171
3
172
0
173
0
174
0
175
0
176
0
177
0
178
0
270
2
179
4
271
4
272
4
273
2
274
2
275
0
280
0
281
0
282
0
283
1
284
4
285
0
286
0
287
3
288
0
340
11
278
46
  0
ENDTAB
  0
ENDSEC
  0
SECTION
  2
BLOCKS
  0
BLOCK
  5
20
100
AcDbEntity
  8
0
100
AcDbBlockBegin
  2
*Model_Space
 70
0
 10
0.0
 20
0.0
 30
0.0
  3
*Model_Space
  1

  0
ENDBLK
  5
21
100
AcDbEntity
  8
0
100
AcDbBlockEnd
  0
BLOCK
  5
1C
100
AcDbEntity
  8
0
100
AcDbBlockBegin
  2
*Paper_Space
 70
0
 10
0.0
 20
0.0
 30
0.0
  3
*Paper_Space
  1

  0
ENDBLK
  5
1D
100
AcDbEntity
  8
0
100
AcDbBlockEnd
  0
ENDSEC
  0
SECTION
  2
ENTITIES
  0
MTEXT
  5
219
100
AcDbEntity
  8
0
100
AcDbMText
 62
7
  6
CONTINUOUS
  7
STANDARD
 71
1
 72
1
 10
15.9560215477
 20
0.9479130325
 30
0.0
 11
1.0
 21
0.0
 31
0.0
 44
0.9
  1
SCALE: 1:1.000
 40
0.3
 41
3.36
  0
LINE
  5
21A
100
AcDbEntity
  8
0
100
AcDbLine
 62
7
  6
CONTINUOUS
 10
0.0
 20
0.0
 11
0.0
 21
17.0
  0
LINE
  5
21B
100
AcDbEntity
  8
0
100
AcDbLine
 62
7
  6
CONTINUOUS
 10
0.0
 20
0.0
 11
22.0
 21
0.0
  0
LINE
  5
21C
100
AcDbEntity
  8
0
100
AcDbLine
 62
7
  6
CONTINUOUS
 10
0.0
 20
17.0
 11
22.0
 21
17.0
  0
LINE
  5
21D
100
AcDbEntity
  8
0
100
AcDbLine
 62
7
  6
CONTINUOUS
 10
22.0
 20
0.0
 11
22.0
 21
17.0
  0
LINE
  5
21E
100
AcDbEntity
  8
0
100
AcDbLine
 62
7
  6
CONTINUOUS
 10
5.1928672762
 20
5.7516198973
 11
5.1928672762
 21
5.6606483534
  0
LINE
  5
21F
100
AcDbEntity
  8
0
100
AcDbLine
 62
7
  6
CONTINUOUS
 10
5.2840709728
 20
5.2825718499
 11
5.1958377035
 21
5.6364561638
  0
LINE
  5
220
100
AcDbEntity
  8
0
100
AcDbLine
 62
7
  6
CONTINUOUS
 10
5.3083283659
 20
5.2636198973
 11
6.9524061864
 21
5.2636198973
  0
LINE
  5
221
100
AcDbEntity
  8
0
100
AcDbLine
 62
7
  6
CONTINUOUS
 10
5.2656932774
 20
5.4346198973
 11
6.9950412749
 21
5.4346198973
  0
LINE
  5
222
100
AcDbEntity
  8
0
100
AcDbLine
 62
7
  6
CONTINUOUS
 10
7.0428672762
 20
5.7766198973
 11
5.2178672762
 21
5.7766198973
  0
LINE
  5
223
100
AcDbEntity
  8
0
100
AcDbLine
 62
7
  6
CONTINUOUS
 10
7.0678672762
 20
5.6606483534
 11
7.0678672762
 21
5.7516198973
  0
LINE
  5
224
100
AcDbEntity
  8
0
100
AcDbLine
 62
7
  6
CONTINUOUS
 10
6.9766635796
 20
5.2825718499
 11
7.0648968488
 21
5.6364561638
  0
LINE
  5
225
100
AcDbEntity
  8
0
100
AcDbLine
 62
7
  6
CONTINUOUS
 10
7.0083720839
 20
10.6000477814
 11
5.1333720839
 21
10.6000477814
  0
LINE
  5
226
100
AcDbEntity
  8
0
100
AcDbLine
 62
7
  6
CONTINUOUS
 10
5.1333720839
 20
10.6000477814
 11
5.1333720839
 21
14.6000477814
  0
LINE
  5
227
100
AcDbEntity
  8
0
100
AcDbLine
 62
7
  6
CONTINUOUS
 10
7.0083720839
 20
10.6000477814
 11
7.0083720839
 21
14.6000477814
  0
LINE
  5
228
100
AcDbEntity
  8
0
100
AcDbLine
 62
7
  6
CONTINUOUS
 10
5.1333720839
 20
14.6000477814
 11
7.0083720839
 21
14.6000477814
  0
LINE
  5
229
100
AcDbEntity
  8
0
100
AcDbLine
 62
7
  6
CONTINUOUS
 10
13.5603552569
 20
5.375124705
 11
13.5603552569
 21
5.717124705
  0
LINE
  5
22A
100
AcDbEntity
  8
0
100
AcDbLine
 62
7
  6
CONTINUOUS
 10
13.6732654614
 20
5.3419913625
 11
13.6974450524
 21
5.2372580474
  0
LINE
  5
22B
100
AcDbEntity
  8
0
100
AcDbLine
 62
7
  6
CONTINUOUS
 10
13.9232654614
 20
5.2372580474
 11
13.9474450524
 21
5.3419913625
  0
LINE
  5
22C
100
AcDbEntity
  8
0
100
AcDbLine
 62
7
  6
CONTINUOUS
 10
14.1732654614
 20
5.3419913625
 11
14.1974450524
 21
5.2372580474
  0
LINE
  5
22D
100
AcDbEntity
  8
0
100
AcDbLine
 62
7
  6
CONTINUOUS
 10
14.4232654614
 20
5.2372580474
 11
14.4474450524
 21
5.3419913625
  0
LINE
  5
22E
100
AcDbEntity
  8
0
100
AcDbLine
 62
7
  6
CONTINUOUS
 10
14.6732654614
 20
5.3419913625
 11
14.6974450524
 21
5.2372580474
  0
LINE
  5
22F
100
AcDbEntity
  8
0
100
AcDbLine
 62
7
  6
CONTINUOUS
 10
14.9232654614
 20
5.2372580474
 11
14.9474450524
 21
5.3419913625
  0
LINE
  5
230
100
AcDbEntity
  8
0
100
AcDbLine
 62
7
  6
CONTINUOUS
 10
15.1732654614
 20
5.3419913625
 11
15.1974450524
 21
5.2372580474
  0
LINE
  5
231
100
AcDbEntity
  8
0
100
AcDbLine
 62
7
  6
CONTINUOUS
 10
13.7390993727
 20
5.204124705
 11
13.8816111412
 21
5.204124705
  0
LINE
  5
232
100
AcDbEntity
  8
0
100
AcDbLine
 62
7
  6
CONTINUOUS
 10
14.2390993727
 20
5.204124705
 11
14.3816111412
 21
5.204124705
  0
LINE
  5
233
100
AcDbEntity
  8
0
100
AcDbLine
 62
7
  6
CONTINUOUS
 10
14.7390993727
 20
5.204124705
 11
14.8816111412
 21
5.204124705
  0
LINE
  5
234
100
AcDbEntity
  8
0
100
AcDbLine
 62
7
  6
CONTINUOUS
 10
15.2390993727
 20
5.204124705
 11
15.3816111412
 21
5.204124705
  0
LINE
  5
235
100
AcDbEntity
  8
0
100
AcDbLine
 62
7
  6
CONTINUOUS
 10
15.7390993727
 20
5.204124705
 11
15.8816111412
 21
5.204124705
  0
LINE
  5
236
100
AcDbEntity
  8
0
100
AcDbLine
 62
7
  6
CONTINUOUS
 10
16.2390993727
 20
5.204124705
 11
16.3816111412
 21
5.204124705
  0
LINE
  5
237
100
AcDbEntity
  8
0
100
AcDbLine
 62
7
  6
CONTINUOUS
 10
16.7390993727
 20
5.204124705
 11
16.8816111412
 21
5.204124705
  0
LINE
  5
238
100
AcDbEntity
  8
0
100
AcDbLine
 62
7
  6
CONTINUOUS
 10
17.2390993727
 20
5.204124705
 11
17.3816111412
 21
5.204124705
  0
LINE
  5
239
100
AcDbEntity
  8
0
100
AcDbLine
 62
7
  6
CONTINUOUS
 10
15.4232654614
 20
5.2372580474
 11
15.4474450524
 21
5.3419913625
  0
LINE
  5
23A
100
AcDbEntity
  8
0
100
AcDbLine
 62
7
  6
CONTINUOUS
 10
13.5603552569
 20
5.375124705
 11
13.6316111412
 21
5.375124705
  0
LINE
  5
23B
100
AcDbEntity
  8
0
100
AcDbLine
 62
7
  6
CONTINUOUS
 10
13.9890993727
 20
5.375124705
 11
14.1316111412
 21
5.375124705
  0
LINE
  5
23C
100
AcDbEntity
  8
0
100
AcDbLine
 62
7
  6
CONTINUOUS
 10
14.4890993727
 20
5.375124705
 11
14.6316111412
 21
5.375124705
  0
LINE
  5
23D
100
AcDbEntity
  8
0
100
AcDbLine
 62
7
  6
CONTINUOUS
 10
14.9890993727
 20
5.375124705
 11
15.1316111412
 21
5.375124705
  0
LINE
  5
23E
100
AcDbEntity
  8
0
100
AcDbLine
 62
7
  6
CONTINUOUS
 10
15.4890993727
 20
5.375124705
 11
15.6316111412
 21
5.375124705
  0
LINE
  5
23F
100
AcDbEntity
  8
0
100
AcDbLine
 62
7
  6
CONTINUOUS
 10
15.9890993727
 20
5.375124705
 11
16.1316111412
 21
5.375124705
  0
LINE
  5
240
100
AcDbEntity
  8
0
100
AcDbLine
 62
7
  6
CONTINUOUS
 10
16.4890993727
 20
5.375124705
 11
16.6316111412
 21
5.375124705
  0
LINE
  5
241
100
AcDbEntity
  8
0
100
AcDbLine
 62
7
  6
CONTINUOUS
 10
16.9890993727
 20
5.375124705
 11
17.1316111412
 21
5.375124705
  0
LINE
  5
242
100
AcDbEntity
  8
0
100
AcDbLine
 62
7
  6
CONTINUOUS
 10
17.4890993727
 20
5.375124705
 11
17.5603552569
 21
5.375124705
  0
LINE
  5
243
100
AcDbEntity
  8
0
100
AcDbLine
 62
7
  6
CONTINUOUS
 10
15.6732654614
 20
5.3419913625
 11
15.6974450524
 21
5.2372580474
  0
LINE
  5
244
100
AcDbEntity
  8
0
100
AcDbLine
 62
7
  6
CONTINUOUS
 10
13.5603552569
 20
5.717124705
 11
17.5603552569
 21
5.717124705
  0
LINE
  5
245
100
AcDbEntity
  8
0
100
AcDbLine
 62
7
  6
CONTINUOUS
 10
15.9232654614
 20
5.2372580474
 11
15.9474450524
 21
5.3419913625
  0
LINE
  5
246
100
AcDbEntity
  8
0
100
AcDbLine
 62
7
  6
CONTINUOUS
 10
16.1732654614
 20
5.3419913625
 11
16.1974450524
 21
5.2372580474
  0
LINE
  5
247
100
AcDbEntity
  8
0
100
AcDbLine
 62
7
  6
CONTINUOUS
 10
16.4232654614
 20
5.2372580474
 11
16.4474450524
 21
5.3419913625
  0
LINE
  5
248
100
AcDbEntity
  8
0
100
AcDbLine
 62
7
  6
CONTINUOUS
 10
16.6732654614
 20
5.3419913625
 11
16.6974450524
 21
5.2372580474
  0
LINE
  5
249
100
AcDbEntity
  8
0
100
AcDbLine
 62
7
  6
CONTINUOUS
 10
16.9232654614
 20
5.2372580474
 11
16.9474450524
 21
5.3419913625
  0
LINE
  5
24A
100
AcDbEntity
  8
0
100
AcDbLine
 62
7
  6
CONTINUOUS
 10
17.1732654614
 20
5.3419913625
 11
17.1974450524
 21
5.2372580474
  0
LINE
  5
24B
100
AcDbEntity
  8
0
100
AcDbLine
 62
7
  6
CONTINUOUS
 10
17.5603552569
 20
5.375124705
 11
17.5603552569
 21
5.717124705
  0
LINE
  5
24C
100
AcDbEntity
  8
0
100
AcDbLine
 62
7
  6
CONTINUOUS
 10
17.4232654614
 20
5.2372580474
 11
17.4474450524
 21
5.3419913625
  0
LINE
  5
24D
100
AcDbEntity
  8
0
100
AcDbLine
 62
7
  6
CONTINUOUS
 10
14.1388743863
 20
10.9633193043
 11
14.2366604644
 21
10.8496365917
  0
LINE
  5
24E
100
AcDbEntity
  8
0
100
AcDbLine
 62
7
  6
CONTINUOUS
 10
14.1010086813
 20
11.034906229
 11
14.1287588108
 21
10.9783574105
  0
LWPOLYLINE
  5
24F
100
AcDbEntity
  8
0
100
AcDbPolyline
 62
7
  6
CONTINUOUS
 90
5
 70
0
 10
15.9022797042
 20
10.8553994958
 10
15.9126068508
 20
10.8575497447
 10
15.9207400996
 20
10.8630562638
 10
15.9260630659
 20
10.8701264728
 10
15.9291520313
 20
10.8770627795
  0
LINE
  5
250
100
AcDbEntity
  8
0
100
AcDbLine
 62
7
  6
CONTINUOUS
 10
14.2647841421
 20
10.8378558691
 11
15.8576191276
 21
10.8378558691
  0
LINE
  5
251
100
AcDbEntity
  8
0
100
AcDbLine
 62
7
  6
CONTINUOUS
 10
15.8767786419
 20
10.8553994665
 11
15.9022814087
 21
10.8553994665
  0
LINE
  5
252
100
AcDbEntity
  8
0
100
AcDbLine
 62
7
  6
CONTINUOUS
 10
15.7973454735
 20
11.0504464782
 11
14.1164091594
 21
11.0504464782
  0
LWPOLYLINE
  5
253
100
AcDbEntity
  8
0
100
AcDbPolyline
 62
7
  6
CONTINUOUS
 90
5
 70
0
 10
16.0233128659
 20
11.2470629507
 10
16.0336400125
 20
11.2492131995
 10
16.0417732613
 20
11.2547197186
 10
16.0470962276
 20
11.2617899276
 10
16.050185193
 20
11.2687262343
  0
LINE
  5
254
100
AcDbEntity
  8
0
100
AcDbLine
 62
7
  6
CONTINUOUS
 10
15.9978118036
 20
11.2470629213
 11
16.0233145704
 21
11.2470629213
  0
LWPOLYLINE
  5
255
100
AcDbEntity
  8
0
100
AcDbPolyline
 62
7
  6
CONTINUOUS
 90
5
 70
0
 10
16.1443460276
 20
11.6387264055
 10
16.1546731742
 20
11.6408766543
 10
16.162806423
 20
11.6463831734
 10
16.1681293893
 20
11.6534533824
 10
16.1712183547
 20
11.6603896891
  0
LINE
  5
256
100
AcDbEntity
  8
0
100
AcDbLine
 62
7
  6
CONTINUOUS
 10
14.100149685
 20
11.0422874133
 11
15.0684149786
 21
14.1755950518
  0
LINE
  5
257
100
AcDbEntity
  8
0
100
AcDbLine
 62
7
  6
CONTINUOUS
 10
16.1188449653
 20
11.6387263761
 11
16.1443477321
 21
11.6387263761
  0
LWPOLYLINE
  5
258
100
AcDbEntity
  8
0
100
AcDbPolyline
 62
7
  6
CONTINUOUS
 90
5
 70
0
 10
16.2653791893
 20
12.0303898603
 10
16.2757063359
 20
12.0325401091
 10
16.2838395847
 20
12.0380466282
 10
16.289162551
 20
12.0451168372
 10
16.2922515164
 20
12.0520531439
  0
LINE
  5
259
100
AcDbEntity
  8
0
100
AcDbLine
 62
7
  6
CONTINUOUS
 10
16.239878127
 20
12.0303898309
 11
16.2653808938
 21
12.0303898309
  0
LWPOLYLINE
  5
25A
100
AcDbEntity
  8
0
100
AcDbPolyline
 62
7
  6
CONTINUOUS
 90
5
 70
0
 10
16.386412351
 20
12.4220533151
 10
16.3967394976
 20
12.4242035639
 10
16.4048727464
 20
12.429710083
 10
16.4101957127
 20
12.436780292
 10
16.4132846781
 20
12.4437165987
  0
LINE
  5
25B
100
AcDbEntity
  8
0
100
AcDbLine
 62
7
  6
CONTINUOUS
 10
15.8557481746
 20
10.9783574105
 11
15.827998045
 21
11.034906229
  0
LINE
  5
25C
100
AcDbEntity
  8
0
100
AcDbLine
 62
7
  6
CONTINUOUS
 10
16.3609112887
 20
12.4220532857
 11
16.3864140555
 21
12.4220532857
  0
LWPOLYLINE
  5
25D
100
AcDbEntity
  8
0
100
AcDbPolyline
 62
7
  6
CONTINUOUS
 90
5
 70
0
 10
16.5074455127
 20
12.8137167699
 10
16.5177726593
 20
12.8158670187
 10
16.5259059081
 20
12.8213735378
 10
16.5312288744
 20
12.8284437468
 10
16.5343178398
 20
12.8353800536
  0
LINE
  5
25E
100
AcDbEntity
  8
0
100
AcDbLine
 62
7
  6
CONTINUOUS
 10
16.4819444504
 20
12.8137167405
 11
16.5074472172
 21
12.8137167405
  0
LINE
  5
25F
100
AcDbEntity
  8
0
100
AcDbLine
 62
7
  6
CONTINUOUS
 10
15.8741805273
 20
10.8496365917
 11
15.8603918604
 21
10.9633193043
  0
LWPOLYLINE
  5
260
100
AcDbEntity
  8
0
100
AcDbPolyline
 62
7
  6
CONTINUOUS
 90
5
 70
0
 10
16.6284786744
 20
13.2053802247
 10
16.638805821
 20
13.2075304735
 10
16.6469390698
 20
13.2130369926
 10
16.6522620361
 20
13.2201072016
 10
16.6553510015
 20
13.2270435084
  0
LINE
  5
261
100
AcDbEntity
  8
0
100
AcDbLine
 62
7
  6
CONTINUOUS
 10
15.968792896
 20
11.0214560948
 11
15.9667495329
 21
11.1054998913
  0
LINE
  5
262
100
AcDbEntity
  8
0
100
AcDbLine
 62
7
  6
CONTINUOUS
 10
16.0898260577
 20
11.4131195497
 11
16.0877826946
 21
11.4971633461
  0
LINE
  5
263
100
AcDbEntity
  8
0
100
AcDbLine
 62
7
  6
CONTINUOUS
 10
15.9667484411
 20
11.1055243575
 11
15.9667293391
 21
11.1115838833
  0
LINE
  5
264
100
AcDbEntity
  8
0
100
AcDbLine
 62
7
  6
CONTINUOUS
 10
15.9687412313
 20
11.0164432313
 11
15.9687913451
 21
11.0215133485
  0
LWPOLYLINE
  5
265
100
AcDbEntity
  8
0
100
AcDbPolyline
 62
7
  6
CONTINUOUS
 90
5
 70
0
 10
15.9667293391
 20
11.1115838833
 10
15.9675018931
 20
11.1265513103
 10
15.9694265644
 20
11.1435089593
 10
15.9723407927
 20
11.1605075809
 10
15.9758483414
 20
11.1755577209
  0
LINE
  5
266
100
AcDbEntity
  8
0
100
AcDbLine
 62
7
  6
CONTINUOUS
 10
15.8738761656
 20
10.8460156836
 11
15.8741805273
 21
10.8496365917
  0
LINE
  5
267
100
AcDbEntity
  8
0
100
AcDbLine
 62
7
  6
CONTINUOUS
 10
16.7433986345
 20
13.6565788393
 11
16.7440016485
 21
13.6576420753
  0
LINE
  5
268
100
AcDbEntity
  8
0
100
AcDbLine
 62
7
  6
CONTINUOUS
 10
16.2108592194
 20
11.8047830045
 11
16.2088158563
 21
11.8888268009
  0
LINE
  5
269
100
AcDbEntity
  8
0
100
AcDbLine
 62
7
  6
CONTINUOUS
 10
16.0877816028
 20
11.4971878123
 11
16.0877625008
 21
11.5032473381
  0
LINE
  5
26A
100
AcDbEntity
  8
0
100
AcDbLine
 62
7
  6
CONTINUOUS
 10
16.2088147645
 20
11.8888512672
 11
16.2087956625
 21
11.8949107929
  0
LINE
  5
26B
100
AcDbEntity
  8
0
100
AcDbLine
 62
7
  6
CONTINUOUS
 10
16.0897743931
 20
11.4081066861
 11
16.0898245068
 21
11.4131768033
  0
LWPOLYLINE
  5
26C
100
AcDbEntity
  8
0
100
AcDbPolyline
 62
7
  6
CONTINUOUS
 90
5
 70
0
 10
16.0877625008
 20
11.5032473381
 10
16.0885350548
 20
11.5182147651
 10
16.0904597261
 20
11.5351724141
 10
16.0933739544
 20
11.5521710357
 10
16.0968815031
 20
11.5672211757
  0
LINE
  5
26D
100
AcDbEntity
  8
0
100
AcDbLine
 62
7
  6
CONTINUOUS
 10
16.6223654728
 20
13.2649153845
 11
16.6229684868
 21
13.2659786205
  0
LINE
  5
26E
100
AcDbEntity
  8
0
100
AcDbLine
 62
7
  6
CONTINUOUS
 10
16.5013323111
 20
12.8732519297
 11
16.5019353251
 21
12.8743151657
  0
LINE
  5
26F
100
AcDbEntity
  8
0
100
AcDbLine
 62
7
  6
CONTINUOUS
 10
16.6029776121
 20
13.2053801954
 11
16.6284803789
 21
13.2053801954
  0
LINE
  5
270
100
AcDbEntity
  8
0
100
AcDbLine
 62
7
  6
CONTINUOUS
 10
16.3318923811
 20
12.1964464593
 11
16.329849018
 21
12.2804902557
  0
LINE
  5
271
100
AcDbEntity
  8
0
100
AcDbLine
 62
7
  6
CONTINUOUS
 10
16.3298479262
 20
12.280514722
 11
16.3298288242
 21
12.2865742477
  0
LINE
  5
272
100
AcDbEntity
  8
0
100
AcDbLine
 62
7
  6
CONTINUOUS
 10
16.2108075548
 20
11.7997701409
 11
16.2108576685
 21
11.8048402581
  0
LINE
  5
273
100
AcDbEntity
  8
0
100
AcDbLine
 62
7
  6
CONTINUOUS
 10
16.3318407165
 20
12.1914335958
 11
16.3318908303
 21
12.1965037129
  0
LWPOLYLINE
  5
274
100
AcDbEntity
  8
0
100
AcDbPolyline
 62
7
  6
CONTINUOUS
 90
5
 70
0
 10
16.2087956625
 20
11.8949107929
 10
16.2095682165
 20
11.9098782199
 10
16.2114928878
 20
11.9268358689
 10
16.2144071161
 20
11.9438344905
 10
16.2179146648
 20
11.9588846306
  0
LWPOLYLINE
  5
275
100
AcDbEntity
  8
0
100
AcDbPolyline
 62
7
  6
CONTINUOUS
 90
5
 70
0
 10
16.3298288242
 20
12.2865742477
 10
16.3306013782
 20
12.3015416747
 10
16.3325260495
 20
12.3184993237
 10
16.3354402778
 20
12.3354979453
 10
16.3389478265
 20
12.3505480854
  0
LWPOLYLINE
  5
276
100
AcDbEntity
  8
0
100
AcDbPolyline
 62
7
  6
CONTINUOUS
 90
3
 70
0
 10
15.9658422479
 20
10.9961168155
 10
15.9677871928
 20
11.0062937018
 10
15.9687412313
 20
11.0164432313
  0
LWPOLYLINE
  5
277
100
AcDbEntity
  8
0
100
AcDbPolyline
 62
7
  6
CONTINUOUS
 90
3
 70
0
 10
16.0868754096
 20
11.3877802703
 10
16.0888203545
 20
11.3979571566
 10
16.0897743931
 20
11.4081066861
  0
LWPOLYLINE
  5
278
100
AcDbEntity
  8
0
100
AcDbPolyline
 62
7
  6
CONTINUOUS
 90
3
 70
0
 10
16.2079085714
 20
11.7794437251
 10
16.2098535162
 20
11.7896206114
 10
16.2108075548
 20
11.7997701409
  0
LINE
  5
279
100
AcDbEntity
  8
0
100
AcDbLine
 62
7
  6
CONTINUOUS
 10
15.964522791
 20
10.9913241789
 11
15.9658422479
 21
10.9961168155
  0
LINE
  5
27A
100
AcDbEntity
  8
0
100
AcDbLine
 62
7
  6
CONTINUOUS
 10
15.9758483414
 20
11.1755577209
 11
15.9776573888
 21
11.181847913
  0
LINE
  5
27B
100
AcDbEntity
  8
0
100
AcDbLine
 62
7
  6
CONTINUOUS
 10
16.0968815031
 20
11.5672211757
 11
16.0986905505
 21
11.5735113679
  0
LINE
  5
27C
100
AcDbEntity
  8
0
100
AcDbLine
 62
7
  6
CONTINUOUS
 10
16.2179146648
 20
11.9588846306
 11
16.2197237123
 21
11.9651748227
  0
LINE
  5
27D
100
AcDbEntity
  8
0
100
AcDbLine
 62
7
  6
CONTINUOUS
 10
16.3389478265
 20
12.3505480854
 11
16.340756874
 21
12.3568382775
  0
LINE
  5
27E
100
AcDbEntity
  8
0
100
AcDbLine
 62
7
  6
CONTINUOUS
 10
15.8749265383
 20
10.8494060569
 11
15.891127253
 21
10.9018315889
  0
LINE
  5
27F
100
AcDbEntity
  8
0
100
AcDbLine
 62
7
  6
CONTINUOUS
 10
15.9776631138
 20
11.1818617372
 11
16.0121604147
 21
11.2934950437
  0
LINE
  5
280
100
AcDbEntity
  8
0
100
AcDbLine
 62
7
  6
CONTINUOUS
 10
16.0986962755
 20
11.573525192
 11
16.1331935764
 21
11.6851584985
  0
LINE
  5
281
100
AcDbEntity
  8
0
100
AcDbLine
 62
7
  6
CONTINUOUS
 10
16.2197294372
 20
11.9651886469
 11
16.2542267381
 21
12.0768219533
  0
LINE
  5
282
100
AcDbEntity
  8
0
100
AcDbLine
 62
7
  6
CONTINUOUS
 10
16.3407625989
 20
12.3568521017
 11
16.3752598998
 21
12.4684854081
  0
LINE
  5
283
100
AcDbEntity
  8
0
100
AcDbLine
 62
7
  6
CONTINUOUS
 10
16.4617957607
 20
12.7485155565
 11
16.4962930615
 21
12.860148863
  0
LINE
  5
284
100
AcDbEntity
  8
0
100
AcDbLine
 62
7
  6
CONTINUOUS
 10
16.5828289224
 20
13.1401790113
 11
16.6173262232
 21
13.2518123178
  0
LINE
  5
285
100
AcDbEntity
  8
0
100
AcDbLine
 62
7
  6
CONTINUOUS
 10
16.7038620841
 20
13.5318424661
 11
16.7383593849
 21
13.6434757726
  0
LINE
  5
286
100
AcDbEntity
  8
0
100
AcDbLine
 62
7
  6
CONTINUOUS
 10
16.8248952458
 20
13.9235059209
 11
16.8421438957
 21
13.9793225725
  0
LINE
  5
287
100
AcDbEntity
  8
0
100
AcDbLine
 62
7
  6
CONTINUOUS
 10
16.738359604
 20
13.6434789057
 11
16.7390477858
 21
13.645644107
  0
LINE
  5
288
100
AcDbEntity
  8
0
100
AcDbLine
 62
7
  6
CONTINUOUS
 10
16.6173264423
 20
13.2518154509
 11
16.6180146241
 21
13.2539806522
  0
LINE
  5
289
100
AcDbEntity
  8
0
100
AcDbLine
 62
7
  6
CONTINUOUS
 10
16.4962932806
 20
12.8601519961
 11
16.4969814624
 21
12.8623171974
  0
LINE
  5
28A
100
AcDbEntity
  8
0
100
AcDbLine
 62
7
  6
CONTINUOUS
 10
16.3752601189
 20
12.4684885413
 11
16.3759483007
 21
12.4706537426
  0
LINE
  5
28B
100
AcDbEntity
  8
0
100
AcDbLine
 62
7
  6
CONTINUOUS
 10
16.2542269572
 20
12.0768250864
 11
16.254915139
 21
12.0789902877
  0
LINE
  5
28C
100
AcDbEntity
  8
0
100
AcDbLine
 62
7
  6
CONTINUOUS
 10
16.1331937955
 20
11.6851616316
 11
16.1338819773
 21
11.6873268329
  0
LINE
  5
28D
100
AcDbEntity
  8
0
100
AcDbLine
 62
7
  6
CONTINUOUS
 10
16.0121606338
 20
11.2934981768
 11
16.0128488156
 21
11.2956633781
  0
LWPOLYLINE
  5
28E
100
AcDbEntity
  8
0
100
AcDbPolyline
 62
7
  6
CONTINUOUS
 90
3
 70
0
 10
16.7390477858
 20
13.645644107
 10
16.7414840129
 20
13.652377495
 10
16.7433986345
 20
13.6565788393
  0
LWPOLYLINE
  5
28F
100
AcDbEntity
  8
0
100
AcDbPolyline
 62
7
  6
CONTINUOUS
 90
3
 70
0
 10
16.6180146241
 20
13.2539806522
 10
16.6204508512
 20
13.2607140402
 10
16.6223654728
 20
13.2649153845
  0
LWPOLYLINE
  5
290
100
AcDbEntity
  8
0
100
AcDbPolyline
 62
7
  6
CONTINUOUS
 90
3
 70
0
 10
16.4969814624
 20
12.8623171974
 10
16.4994176895
 20
12.8690505853
 10
16.5013323111
 20
12.8732519297
  0
LWPOLYLINE
  5
291
100
AcDbEntity
  8
0
100
AcDbPolyline
 62
7
  6
CONTINUOUS
 90
3
 70
0
 10
16.3759483007
 20
12.4706537426
 10
16.3783845278
 20
12.4773871305
 10
16.3802991494
 20
12.4815884749
  0
LWPOLYLINE
  5
292
100
AcDbEntity
  8
0
100
AcDbPolyline
 62
7
  6
CONTINUOUS
 90
3
 70
0
 10
16.254915139
 20
12.0789902877
 10
16.2573513661
 20
12.0857236757
 10
16.2592659877
 20
12.08992502
  0
LINE
  5
293
100
AcDbEntity
  8
0
100
AcDbLine
 62
7
  6
CONTINUOUS
 10
16.3802991494
 20
12.4815884749
 11
16.3809021634
 21
12.4826517109
  0
LWPOLYLINE
  5
294
100
AcDbEntity
  8
0
100
AcDbPolyline
 62
7
  6
CONTINUOUS
 90
5
 70
0
 10
16.7495118361
 20
13.5970436795
 10
16.7598389827
 20
13.5991939283
 10
16.7679722315
 20
13.6047004475
 10
16.7732951978
 20
13.6117706565
 10
16.7763841632
 20
13.6187069632
  0
LINE
  5
295
100
AcDbEntity
  8
0
100
AcDbLine
 62
7
  6
CONTINUOUS
 10
16.4529255428
 20
12.5881099141
 11
16.4508821797
 21
12.6721537105
  0
LINE
  5
296
100
AcDbEntity
  8
0
100
AcDbLine
 62
7
  6
CONTINUOUS
 10
16.4508810879
 20
12.6721781768
 11
16.4508619859
 21
12.6782377025
  0
LINE
  5
297
100
AcDbEntity
  8
0
100
AcDbLine
 62
7
  6
CONTINUOUS
 10
16.4528738782
 20
12.5830970506
 11
16.452923992
 21
12.5881671678
  0
LWPOLYLINE
  5
298
100
AcDbEntity
  8
0
100
AcDbPolyline
 62
7
  6
CONTINUOUS
 90
5
 70
0
 10
16.4508619859
 20
12.6782377025
 10
16.4516345399
 20
12.6932051295
 10
16.4535592112
 20
12.7101627785
 10
16.4564734395
 20
12.7271614002
 10
16.4599809882
 20
12.7422115402
  0
LWPOLYLINE
  5
299
100
AcDbEntity
  8
0
100
AcDbPolyline
 62
7
  6
CONTINUOUS
 90
3
 70
0
 10
16.3289417331
 20
12.1711071799
 10
16.3308866779
 20
12.1812840662
 10
16.3318407165
 20
12.1914335958
  0
LWPOLYLINE
  5
29A
100
AcDbEntity
  8
0
100
AcDbPolyline
 62
7
  6
CONTINUOUS
 90
3
 70
0
 10
16.4499748948
 20
12.5627706348
 10
16.4519198396
 20
12.572947521
 10
16.4528738782
 20
12.5830970506
  0
LWPOLYLINE
  5
29B
100
AcDbEntity
  8
0
100
AcDbPolyline
 62
7
  6
CONTINUOUS
 90
3
 70
0
 10
16.5710080565
 20
12.9544340896
 10
16.5729530013
 20
12.9646109758
 10
16.5739070399
 20
12.9747605054
  0
LINE
  5
29C
100
AcDbEntity
  8
0
100
AcDbLine
 62
7
  6
CONTINUOUS
 10
16.0855559527
 20
11.3829876337
 11
16.0868754096
 21
11.3877802703
  0
LINE
  5
29D
100
AcDbEntity
  8
0
100
AcDbLine
 62
7
  6
CONTINUOUS
 10
16.2065891144
 20
11.7746510885
 11
16.2079085714
 21
11.7794437251
  0
LINE
  5
29E
100
AcDbEntity
  8
0
100
AcDbLine
 62
7
  6
CONTINUOUS
 10
16.3276222762
 20
12.1663145433
 11
16.3289417331
 21
12.1711071799
  0
LINE
  5
29F
100
AcDbEntity
  8
0
100
AcDbLine
 62
7
  6
CONTINUOUS
 10
16.4486554379
 20
12.5579779981
 11
16.4499748948
 21
12.5627706348
  0
LINE
  5
2A0
100
AcDbEntity
  8
0
100
AcDbLine
 62
7
  6
CONTINUOUS
 10
16.5696885996
 20
12.9496414529
 11
16.5710080565
 21
12.9544340896
  0
LINE
  5
2A1
100
AcDbEntity
  8
0
100
AcDbLine
 62
7
  6
CONTINUOUS
 10
16.6907217613
 20
13.3413049077
 11
16.6920412182
 21
13.3460975444
  0
LINE
  5
2A2
100
AcDbEntity
  8
0
100
AcDbLine
 62
7
  6
CONTINUOUS
 10
16.811754923
 20
13.7329683625
 11
16.8130743799
 21
13.7377609992
  0
LINE
  5
2A3
100
AcDbEntity
  8
0
100
AcDbLine
 62
7
  6
CONTINUOUS
 10
16.4599809882
 20
12.7422115402
 11
16.4617900357
 21
12.7485017323
  0
LINE
  5
2A4
100
AcDbEntity
  8
0
100
AcDbLine
 62
7
  6
CONTINUOUS
 10
16.5810141499
 20
13.133874995
 11
16.5828231974
 21
13.1401651871
  0
LINE
  5
2A5
100
AcDbEntity
  8
0
100
AcDbLine
 62
7
  6
CONTINUOUS
 10
16.7020473116
 20
13.5255384498
 11
16.7038563591
 21
13.5318286419
  0
LINE
  5
2A6
100
AcDbEntity
  8
0
100
AcDbLine
 62
7
  6
CONTINUOUS
 10
16.8230804733
 20
13.9172019046
 11
16.8248895208
 21
13.9234920967
  0
LINE
  5
2A7
100
AcDbEntity
  8
0
100
AcDbLine
 62
7
  6
CONTINUOUS
 10
15.9300391752
 20
10.8797347053
 11
15.9645364751
 21
10.9913680086
  0
LINE
  5
2A8
100
AcDbEntity
  8
0
100
AcDbLine
 62
7
  6
CONTINUOUS
 10
16.0510723369
 20
11.2713981601
 11
16.0855696368
 21
11.3830314634
  0
LINE
  5
2A9
100
AcDbEntity
  8
0
100
AcDbLine
 62
7
  6
CONTINUOUS
 10
16.1721054986
 20
11.6630616149
 11
16.2066027985
 21
11.7746949182
  0
LINE
  5
2AA
100
AcDbEntity
  8
0
100
AcDbLine
 62
7
  6
CONTINUOUS
 10
16.2931386603
 20
12.0547250697
 11
16.3276359602
 21
12.166358373
  0
LINE
  5
2AB
100
AcDbEntity
  8
0
100
AcDbLine
 62
7
  6
CONTINUOUS
 10
16.414171822
 20
12.4463885245
 11
16.4486691219
 21
12.5580218279
  0
LINE
  5
2AC
100
AcDbEntity
  8
0
100
AcDbLine
 62
7
  6
CONTINUOUS
 10
16.5352049837
 20
12.8380519793
 11
16.5697022836
 21
12.9496852827
  0
LINE
  5
2AD
100
AcDbEntity
  8
0
100
AcDbLine
 62
7
  6
CONTINUOUS
 10
16.6562381454
 20
13.2297154341
 11
16.6907354453
 21
13.3413487375
  0
LINE
  5
2AE
100
AcDbEntity
  8
0
100
AcDbLine
 62
7
  6
CONTINUOUS
 10
16.7772713071
 20
13.6213788889
 11
16.811768607
 21
13.7330121923
  0
LINE
  5
2AF
100
AcDbEntity
  8
0
100
AcDbLine
 62
7
  6
CONTINUOUS
 10
15.8911274721
 20
10.901834722
 11
15.8918156539
 21
10.9039999233
  0
LINE
  5
2B0
100
AcDbEntity
  8
0
100
AcDbLine
 62
7
  6
CONTINUOUS
 10
16.7763841632
 20
13.6187069632
 11
16.7772866665
 21
13.6214291624
  0
LINE
  5
2B1
100
AcDbEntity
  8
0
100
AcDbLine
 62
7
  6
CONTINUOUS
 10
16.6553510015
 20
13.2270435084
 11
16.6562535048
 21
13.2297657076
  0
LINE
  5
2B2
100
AcDbEntity
  8
0
100
AcDbLine
 62
7
  6
CONTINUOUS
 10
16.5343178398
 20
12.8353800536
 11
16.5352203431
 21
12.8381022528
  0
LINE
  5
2B3
100
AcDbEntity
  8
0
100
AcDbLine
 62
7
  6
CONTINUOUS
 10
16.4132846781
 20
12.4437165987
 11
16.4141871814
 21
12.446438798
  0
LINE
  5
2B4
100
AcDbEntity
  8
0
100
AcDbLine
 62
7
  6
CONTINUOUS
 10
16.2922515164
 20
12.0520531439
 11
16.2931540197
 21
12.0547753431
  0
LINE
  5
2B5
100
AcDbEntity
  8
0
100
AcDbLine
 62
7
  6
CONTINUOUS
 10
16.1712183547
 20
11.6603896891
 11
16.172120858
 21
11.6631118883
  0
LINE
  5
2B6
100
AcDbEntity
  8
0
100
AcDbLine
 62
7
  6
CONTINUOUS
 10
16.050185193
 20
11.2687262343
 11
16.0510876963
 21
11.2714484335
  0
LINE
  5
2B7
100
AcDbEntity
  8
0
100
AcDbLine
 62
7
  6
CONTINUOUS
 10
15.9291520313
 20
10.8770627795
 11
15.9300545346
 21
10.8797849787
  0
LWPOLYLINE
  5
2B8
100
AcDbEntity
  8
0
100
AcDbPolyline
 62
7
  6
CONTINUOUS
 90
3
 70
0
 10
16.1338819773
 20
11.6873268329
 10
16.1363182044
 20
11.6940602209
 10
16.138232826
 20
11.6982615652
  0
LWPOLYLINE
  5
2B9
100
AcDbEntity
  8
0
100
AcDbPolyline
 62
7
  6
CONTINUOUS
 90
3
 70
0
 10
16.0128488156
 20
11.2956633781
 10
16.0152850427
 20
11.3023967661
 10
16.0171996643
 20
11.3065981104
  0
LWPOLYLINE
  5
2BA
100
AcDbEntity
  8
0
100
AcDbPolyline
 62
7
  6
CONTINUOUS
 90
3
 70
0
 10
15.8918156539
 20
10.9039999233
 10
15.894251881
 20
10.9107333113
 10
15.8961665025
 20
10.9149346556
  0
LINE
  5
2BB
100
AcDbEntity
  8
0
100
AcDbLine
 62
7
  6
CONTINUOUS
 10
16.2592659877
 20
12.08992502
 11
16.2598690017
 21
12.0909882561
  0
LINE
  5
2BC
100
AcDbEntity
  8
0
100
AcDbLine
 62
7
  6
CONTINUOUS
 10
16.138232826
 20
11.6982615652
 11
16.13883584
 21
11.6993248013
  0
LINE
  5
2BD
100
AcDbEntity
  8
0
100
AcDbLine
 62
7
  6
CONTINUOUS
 10
16.5739587045
 20
12.9797733689
 11
16.5719153414
 21
13.0638171654
  0
LINE
  5
2BE
100
AcDbEntity
  8
0
100
AcDbLine
 62
7
  6
CONTINUOUS
 10
16.5719142496
 20
13.0638416316
 11
16.5718951476
 21
13.0699011573
  0
LINE
  5
2BF
100
AcDbEntity
  8
0
100
AcDbLine
 62
7
  6
CONTINUOUS
 10
16.5739070399
 20
12.9747605054
 11
16.5739571537
 21
12.9798306226
  0
LWPOLYLINE
  5
2C0
100
AcDbEntity
  8
0
100
AcDbPolyline
 62
7
  6
CONTINUOUS
 90
5
 70
0
 10
16.5718951476
 20
13.0699011573
 10
16.5726677016
 20
13.0848685843
 10
16.5745923729
 20
13.1018262333
 10
16.5775066013
 20
13.118824855
 10
16.5810141499
 20
13.133874995
  0
LWPOLYLINE
  5
2C1
100
AcDbEntity
  8
0
100
AcDbPolyline
 62
7
  6
CONTINUOUS
 90
5
 70
0
 10
16.6929283093
 20
13.4615646121
 10
16.6937008633
 20
13.4765320391
 10
16.6956255346
 20
13.4934896882
 10
16.698539763
 20
13.5104883098
 10
16.7020473116
 20
13.5255384498
  0
LWPOLYLINE
  5
2C2
100
AcDbEntity
  8
0
100
AcDbPolyline
 62
7
  6
CONTINUOUS
 90
3
 70
0
 10
16.6920412182
 20
13.3460975444
 10
16.6939861631
 20
13.3562744307
 10
16.6949402016
 20
13.3664239602
  0
LWPOLYLINE
  5
2C3
100
AcDbEntity
  8
0
100
AcDbPolyline
 62
7
  6
CONTINUOUS
 90
3
 70
0
 10
16.8130743799
 20
13.7377609992
 10
16.8150193248
 20
13.7479378855
 10
16.8159733633
 20
13.758087415
  0
LINE
  5
2C4
100
AcDbEntity
  8
0
100
AcDbLine
 62
7
  6
CONTINUOUS
 10
16.0171996643
 20
11.3065981104
 11
16.0178026783
 21
11.3076613465
  0
LINE
  5
2C5
100
AcDbEntity
  8
0
100
AcDbLine
 62
7
  6
CONTINUOUS
 10
15.8961665025
 20
10.9149346556
 11
15.8967695166
 21
10.9159978916
  0
LINE
  5
2C6
100
AcDbEntity
  8
0
100
AcDbLine
 62
7
  6
CONTINUOUS
 10
16.7240107738
 20
13.5970436502
 11
16.7495135406
 21
13.5970436502
  0
LINE
  5
2C7
100
AcDbEntity
  8
0
100
AcDbLine
 62
7
  6
CONTINUOUS
 10
16.6949918662
 20
13.3714368237
 11
16.6929485031
 21
13.4554806202
  0
LINE
  5
2C8
100
AcDbEntity
  8
0
100
AcDbLine
 62
7
  6
CONTINUOUS
 10
16.6929474113
 20
13.4555050864
 11
16.6929283093
 21
13.4615646121
  0
LINE
  5
2C9
100
AcDbEntity
  8
0
100
AcDbLine
 62
7
  6
CONTINUOUS
 10
16.6949402016
 20
13.3664239602
 11
16.6949903154
 21
13.3714940774
  0
LWPOLYLINE
  5
2CA
100
AcDbEntity
  8
0
100
AcDbPolyline
 62
7
  6
CONTINUOUS
 90
5
 70
0
 10
16.813961471
 20
13.853228067
 10
16.814734025
 20
13.868195494
 10
16.8166586963
 20
13.885153143
 10
16.8195729247
 20
13.9021517646
 10
16.8230804733
 20
13.9172019046
  0
LINE
  5
2CB
100
AcDbEntity
  8
0
100
AcDbLine
 62
7
  6
CONTINUOUS
 10
16.8424458209
 20
13.9829442302
 11
16.8421414592
 21
13.9793233221
  0
LINE
  5
2CC
100
AcDbEntity
  8
0
100
AcDbLine
 62
7
  6
CONTINUOUS
 10
16.8160250279
 20
13.7631002785
 11
16.8139816648
 21
13.847144075
  0
LINE
  5
2CD
100
AcDbEntity
  8
0
100
AcDbLine
 62
7
  6
CONTINUOUS
 10
16.813980573
 20
13.8471685412
 11
16.813961471
 21
13.853228067
  0
LINE
  5
2CE
100
AcDbEntity
  8
0
100
AcDbLine
 62
7
  6
CONTINUOUS
 10
16.8159733633
 20
13.758087415
 11
16.8160234771
 21
13.7631575322
  0
LINE
  5
2CF
100
AcDbEntity
  8
0
100
AcDbLine
 62
7
  6
CONTINUOUS
 10
16.8424458209
 20
13.9829442302
 11
16.8286571541
 21
14.0966269428
  0
LINE
  5
2D0
100
AcDbEntity
  8
0
100
AcDbLine
 62
7
  6
CONTINUOUS
 10
16.7656107671
 20
14.1837541167
 11
15.0846744531
 21
14.1837541167
  0
LINE
  5
2D1
100
AcDbEntity
  8
0
100
AcDbLine
 62
7
  6
CONTINUOUS
 10
16.8240134682
 20
14.111665049
 11
16.7962633386
 21
14.1682138675
  0
ARC
  5
2D2
100
AcDbEntity
  8
0
100
AcDbCircle
 62
7
  6
CONTINUOUS
 10
5.2656932774
 20
5.4596198973
 40
0.025
100
AcDbArc
 50
194.0
 51
270.0
  0
ARC
  5
2D3
100
AcDbEntity
  8
0
100
AcDbCircle
 62
7
  6
CONTINUOUS
 10
5.3083283657
 20
5.2886198982
 40
0.025
100
AcDbArc
 50
194.0000020669
 51
270.0000005
  0
ARC
  5
2D4
100
AcDbEntity
  8
0
100
AcDbCircle
 62
7
  6
CONTINUOUS
 10
5.2928672762
 20
5.6606483534
 40
0.1
100
AcDbArc
 50
180.0
 51
194.0
  0
ARC
  5
2D5
100
AcDbEntity
  8
0
100
AcDbCircle
 62
7
  6
CONTINUOUS
 10
5.2178672762
 20
5.7516198973
 40
0.025
100
AcDbArc
 50
90.0
 51
180.0
  0
ARC
  5
2D6
100
AcDbEntity
  8
0
100
AcDbCircle
 62
7
  6
CONTINUOUS
 10
6.9950412749
 20
5.4596198973
 40
0.025
100
AcDbArc
 50
270.0
 51
346.0
  0
ARC
  5
2D7
100
AcDbEntity
  8
0
100
AcDbCircle
 62
7
  6
CONTINUOUS
 10
6.9524061864
 20
5.2886198973
 40
0.025
100
AcDbArc
 50
270.0
 51
346.0
  0
ARC
  5
2D8
100
AcDbEntity
  8
0
100
AcDbCircle
 62
7
  6
CONTINUOUS
 10
6.9678672762
 20
5.6606483534
 40
0.1
100
AcDbArc
 50
346.0
 51
360.0
  0
ARC
  5
2D9
100
AcDbEntity
  8
0
100
AcDbCircle
 62
7
  6
CONTINUOUS
 10
7.0428672762
 20
5.7516198973
 40
0.025
100
AcDbArc
 50
0.0
 51
90.0
  0
ARC
  5
2DA
100
AcDbEntity
  8
0
100
AcDbCircle
 62
7
  6
CONTINUOUS
 10
13.7390993727
 20
5.246874705
 40
0.04275
100
AcDbArc
 50
193.0
 51
270.0
  0
ARC
  5
2DB
100
AcDbEntity
  8
0
100
AcDbCircle
 62
7
  6
CONTINUOUS
 10
13.8816111412
 20
5.246874705
 40
0.04275
100
AcDbArc
 50
270.0
 51
347.0
  0
ARC
  5
2DC
100
AcDbEntity
  8
0
100
AcDbCircle
 62
7
  6
CONTINUOUS
 10
14.2390993727
 20
5.246874705
 40
0.04275
100
AcDbArc
 50
193.0
 51
270.0
  0
ARC
  5
2DD
100
AcDbEntity
  8
0
100
AcDbCircle
 62
7
  6
CONTINUOUS
 10
14.3816111412
 20
5.246874705
 40
0.04275
100
AcDbArc
 50
270.0
 51
347.0
  0
ARC
  5
2DE
100
AcDbEntity
  8
0
100
AcDbCircle
 62
7
  6
CONTINUOUS
 10
14.7390993727
 20
5.246874705
 40
0.04275
100
AcDbArc
 50
193.0
 51
270.0
  0
ARC
  5
2DF
100
AcDbEntity
  8
0
100
AcDbCircle
 62
7
  6
CONTINUOUS
 10
14.8816111412
 20
5.246874705
 40
0.04275
100
AcDbArc
 50
270.0
 51
347.0
  0
ARC
  5
2E0
100
AcDbEntity
  8
0
100
AcDbCircle
 62
7
  6
CONTINUOUS
 10
15.2390993727
 20
5.246874705
 40
0.04275
100
AcDbArc
 50
193.0
 51
270.0
  0
ARC
  5
2E1
100
AcDbEntity
  8
0
100
AcDbCircle
 62
7
  6
CONTINUOUS
 10
15.3816111412
 20
5.246874705
 40
0.04275
100
AcDbArc
 50
270.0
 51
347.0
  0
ARC
  5
2E2
100
AcDbEntity
  8
0
100
AcDbCircle
 62
7
  6
CONTINUOUS
 10
13.6316111412
 20
5.332374705
 40
0.04275
100
AcDbArc
 50
13.0
 51
90.0
  0
ARC
  5
2E3
100
AcDbEntity
  8
0
100
AcDbCircle
 62
7
  6
CONTINUOUS
 10
13.9890993727
 20
5.332374705
 40
0.04275
100
AcDbArc
 50
90.0
 51
167.0
  0
ARC
  5
2E4
100
AcDbEntity
  8
0
100
AcDbCircle
 62
7
  6
CONTINUOUS
 10
14.1316111412
 20
5.332374705
 40
0.04275
100
AcDbArc
 50
13.0
 51
90.0
  0
ARC
  5
2E5
100
AcDbEntity
  8
0
100
AcDbCircle
 62
7
  6
CONTINUOUS
 10
14.4890993727
 20
5.332374705
 40
0.04275
100
AcDbArc
 50
90.0
 51
167.0
  0
ARC
  5
2E6
100
AcDbEntity
  8
0
100
AcDbCircle
 62
7
  6
CONTINUOUS
 10
14.6316111412
 20
5.332374705
 40
0.04275
100
AcDbArc
 50
13.0
 51
90.0
  0
ARC
  5
2E7
100
AcDbEntity
  8
0
100
AcDbCircle
 62
7
  6
CONTINUOUS
 10
14.9890993727
 20
5.332374705
 40
0.04275
100
AcDbArc
 50
90.0
 51
167.0
  0
ARC
  5
2E8
100
AcDbEntity
  8
0
100
AcDbCircle
 62
7
  6
CONTINUOUS
 10
15.1316111412
 20
5.332374705
 40
0.04275
100
AcDbArc
 50
13.0
 51
90.0
  0
ARC
  5
2E9
100
AcDbEntity
  8
0
100
AcDbCircle
 62
7
  6
CONTINUOUS
 10
15.4890993727
 20
5.332374705
 40
0.04275
100
AcDbArc
 50
90.0
 51
167.0
  0
ARC
  5
2EA
100
AcDbEntity
  8
0
100
AcDbCircle
 62
7
  6
CONTINUOUS
 10
17.3816111412
 20
5.246874705
 40
0.04275
100
AcDbArc
 50
270.0
 51
347.0
  0
ARC
  5
2EB
100
AcDbEntity
  8
0
100
AcDbCircle
 62
7
  6
CONTINUOUS
 10
17.2390993727
 20
5.246874705
 40
0.04275
100
AcDbArc
 50
193.0
 51
270.0
  0
ARC
  5
2EC
100
AcDbEntity
  8
0
100
AcDbCircle
 62
7
  6
CONTINUOUS
 10
16.8816111412
 20
5.246874705
 40
0.04275
100
AcDbArc
 50
270.0
 51
347.0
  0
ARC
  5
2ED
100
AcDbEntity
  8
0
100
AcDbCircle
 62
7
  6
CONTINUOUS
 10
16.7390993727
 20
5.246874705
 40
0.04275
100
AcDbArc
 50
193.0
 51
270.0
  0
ARC
  5
2EE
100
AcDbEntity
  8
0
100
AcDbCircle
 62
7
  6
CONTINUOUS
 10
16.3816111412
 20
5.246874705
 40
0.04275
100
AcDbArc
 50
270.0
 51
347.0
  0
ARC
  5
2EF
100
AcDbEntity
  8
0
100
AcDbCircle
 62
7
  6
CONTINUOUS
 10
16.2390993727
 20
5.246874705
 40
0.04275
100
AcDbArc
 50
193.0
 51
270.0
  0
ARC
  5
2F0
100
AcDbEntity
  8
0
100
AcDbCircle
 62
7
  6
CONTINUOUS
 10
15.8816111412
 20
5.246874705
 40
0.04275
100
AcDbArc
 50
270.0
 51
347.0
  0
ARC
  5
2F1
100
AcDbEntity
  8
0
100
AcDbCircle
 62
7
  6
CONTINUOUS
 10
15.7390993727
 20
5.246874705
 40
0.04275
100
AcDbArc
 50
193.0
 51
270.0
  0
ARC
  5
2F2
100
AcDbEntity
  8
0
100
AcDbCircle
 62
7
  6
CONTINUOUS
 10
17.4890993727
 20
5.332374705
 40
0.04275
100
AcDbArc
 50
90.0
 51
167.0
  0
ARC
  5
2F3
100
AcDbEntity
  8
0
100
AcDbCircle
 62
7
  6
CONTINUOUS
 10
17.1316111412
 20
5.332374705
 40
0.04275
100
AcDbArc
 50
13.0
 51
90.0
  0
ARC
  5
2F4
100
AcDbEntity
  8
0
100
AcDbCircle
 62
7
  6
CONTINUOUS
 10
16.9890993727
 20
5.332374705
 40
0.04275
100
AcDbArc
 50
90.0
 51
167.0
  0
ARC
  5
2F5
100
AcDbEntity
  8
0
100
AcDbCircle
 62
7
  6
CONTINUOUS
 10
16.6316111412
 20
5.332374705
 40
0.04275
100
AcDbArc
 50
13.0
 51
90.0
  0
ARC
  5
2F6
100
AcDbEntity
  8
0
100
AcDbCircle
 62
7
  6
CONTINUOUS
 10
16.4890993727
 20
5.332374705
 40
0.04275
100
AcDbArc
 50
90.0
 51
167.0
  0
ARC
  5
2F7
100
AcDbEntity
  8
0
100
AcDbCircle
 62
7
  6
CONTINUOUS
 10
16.1316111412
 20
5.332374705
 40
0.04275
100
AcDbArc
 50
13.0
 51
90.0
  0
ARC
  5
2F8
100
AcDbEntity
  8
0
100
AcDbCircle
 62
7
  6
CONTINUOUS
 10
15.9890993727
 20
5.332374705
 40
0.04275
100
AcDbArc
 50
90.0
 51
167.0
  0
ARC
  5
2F9
100
AcDbEntity
  8
0
100
AcDbCircle
 62
7
  6
CONTINUOUS
 10
15.6316111412
 20
5.332374705
 40
0.04275
100
AcDbArc
 50
13.0
 51
90.0
  0
SPLINE
  5
2FA
100
AcDbEntity
  8
0
100
AcDbSpline
 62
7
  6
CONTINUOUS
 70
0
 71
3
 72
15
 73
11
 74
0
 42
0.0000001
 43
0.0000001
 44
0.0000000001
 40
0.0
 40
0.0
 40
0.0
 40
0.0
 40
0.1295688977
 40
0.2645762617
 40
0.4012660828
 40
0.536271642
 40
0.6662155983
 40
0.7881005088
 40
0.8998139762
 40
1.0
 40
1.0
 40
1.0
 40
1.0
 10
16.7656107671
 20
14.1837541167
 30
0.0
 10
16.7671590301
 20
14.1837541167
 30
0.0
 10
16.7703229883
 20
14.1835388811
 30
0.0
 10
16.7750455061
 20
14.1826549981
 30
0.0
 10
16.7797018078
 20
14.1812275433
 30
0.0
 10
16.7841136642
 20
14.1793122221
 30
0.0
 10
16.7881198486
 20
14.1769835465
 30
0.0
 10
16.7915719331
 20
14.1743222209
 30
0.0
 10
16.7943377772
 20
14.1714261657
 30
0.0
 10
16.7957359398
 20
14.1692885933
 30
0.0
 10
16.7962633386
 20
14.1682138675
 30
0.0
  0
SPLINE
  5
2FB
100
AcDbEntity
  8
0
100
AcDbSpline
 62
7
  6
CONTINUOUS
 70
0
 71
3
 72
15
 73
11
 74
0
 42
0.0000001
 43
0.0000001
 44
0.0000000001
 40
0.0
 40
0.0
 40
0.0
 40
0.0
 40
0.0996457535
 40
0.202871743
 40
0.3125940378
 40
0.4308565193
 40
0.5588140907
 40
0.696830392
 40
0.8443980642
 40
1.0
 40
1.0
 40
1.0
 40
1.0
 10
15.0684149583
 20
14.1755950613
 30
0.0
 10
15.0686050735
 20
14.1762103005
 30
0.0
 10
15.0691437161
 20
14.1774212404
 30
0.0
 10
15.0703747058
 20
14.1790421817
 30
0.0
 10
15.0719980884
 20
14.1804573498
 30
0.0
 10
15.0739822439
 20
14.181641412
 30
0.0
 10
15.0762897812
 20
14.1825800447
 30
0.0
 10
15.0788813998
 20
14.1832587641
 30
0.0
 10
15.0817082826
 20
14.1836664305
 30
0.0
 10
15.0836689026
 20
14.1837541167
 30
0.0
 10
15.0846744531
 20
14.1837541167
 30
0.0
  0
SPLINE
  5
2FC
100
AcDbEntity
  8
0
100
AcDbSpline
 62
7
  6
CONTINUOUS
 70
0
 71
3
 72
11
 73
7
 74
0
 42
0.0000001
 43
0.0000001
 44
0.0000000001
 40
0.0
 40
0.0
 40
0.0
 40
0.0
 40
0.2336935277
 40
0.4747273347
 40
0.7289543378
 40
1.0
 40
1.0
 40
1.0
 40
1.0
 10
14.1001496646
 20
11.0422874228
 30
0.0
 10
14.0999748101
 20
11.0417215694
 30
0.0
 10
14.0997444998
 20
11.0405294229
 30
0.0
 10
14.0997867997
 20
11.0386701455
 30
0.0
 10
14.1002046034
 20
11.0367629679
 30
0.0
 10
14.1007060656
 20
11.0355228949
 30
0.0
 10
14.1010086813
 20
11.034906229
 30
0.0
  0
SPLINE
  5
2FD
100
AcDbEntity
  8
0
100
AcDbSpline
 62
7
  6
CONTINUOUS
 70
0
 71
3
 72
9
 73
5
 74
0
 42
0.0000001
 43
0.0000001
 44
0.0000000001
 40
0.0
 40
0.0
 40
0.0
 40
0.0
 40
0.5166047352
 40
1.0
 40
1.0
 40
1.0
 40
1.0
 10
16.8240134682
 20
14.111665049
 30
0.0
 10
16.8252116522
 20
14.1092234067
 30
0.0
 10
16.8272039305
 20
14.1043252354
 30
0.0
 10
16.8283507207
 20
14.0991533784
 30
0.0
 10
16.8286571541
 20
14.0966269428
 30
0.0
  0
SPLINE
  5
2FE
100
AcDbEntity
  8
0
100
AcDbSpline
 62
7
  6
CONTINUOUS
 70
0
 71
3
 72
14
 73
10
 74
0
 42
0.0000001
 43
0.0000001
 44
0.0000000001
 40
0.0
 40
0.0
 40
0.0
 40
0.0
 40
0.1556193546
 40
0.3032584041
 40
0.5688343755
 40
0.6871448167
 40
0.7968768648
 40
0.900166617
 40
1.0
 40
1.0
 40
1.0
 40
1.0
 10
15.8576191276
 20
10.8378558691
 30
0.0
 10
15.8586242131
 20
10.8378558691
 30
0.0
 10
15.8605851558
 20
10.8379437283
 30
0.0
 10
15.8642230692
 20
10.8384684269
 30
0.0
 10
15.867543817
 20
10.8395125396
 30
0.0
 10
15.8702941537
 20
10.8411511972
 30
0.0
 10
15.8719179216
 20
10.842565598
 30
0.0
 10
15.8731491624
 20
10.8441869961
 30
0.0
 10
15.8736877604
 20
10.8453990356
 30
0.0
 10
15.8738775214
 20
10.8460152651
 30
0.0
  0
SPLINE
  5
2FF
100
AcDbEntity
  8
0
100
AcDbSpline
 62
7
  6
CONTINUOUS
 70
0
 71
3
 72
15
 73
11
 74
0
 42
0.0000001
 43
0.0000001
 44
0.0000000001
 40
0.0
 40
0.0
 40
0.0
 40
0.0
 40
0.1095612505
 40
0.2276775136
 40
0.3524298255
 40
0.4818023142
 40
0.6136286445
 40
0.7455979079
 40
0.8752991582
 40
1.0
 40
1.0
 40
1.0
 40
1.0
 10
14.2366604644
 20
10.8496365917
 30
0.0
 10
14.2374063362
 20
10.8487694671
 30
0.0
 10
14.2390986518
 20
10.8470877172
 30
0.0
 10
14.2420167585
 20
10.8448341908
 30
0.0
 10
14.2453456486
 20
10.8428146315
 30
0.0
 10
14.2489892481
 20
10.8410796656
 30
0.0
 10
14.2528534066
 20
10.8396776537
 30
0.0
 10
14.2568353373
 20
10.8386425186
 30
0.0
 10
14.2608249454
 20
10.8380090089
 30
0.0
 10
14.2634823116
 20
10.8378558691
 30
0.0
 10
14.2647841421
 20
10.8378558691
 30
0.0
  0
SPLINE
  5
300
100
AcDbEntity
  8
0
100
AcDbSpline
 62
7
  6
CONTINUOUS
 70
0
 71
3
 72
9
 73
5
 74
0
 42
0.0000001
 43
0.0000001
 44
0.0000000001
 40
0.0
 40
0.0
 40
0.0
 40
0.0
 40
0.4825233765
 40
1.0
 40
1.0
 40
1.0
 40
1.0
 10
14.1287588108
 20
10.9783574105
 30
0.0
 10
14.130045587
 20
10.9757352362
 30
0.0
 10
14.1331239466
 20
10.9704978778
 30
0.0
 10
14.1368316631
 20
10.9656941036
 30
0.0
 10
14.1388743863
 20
10.9633193043
 30
0.0
  0
SPLINE
  5
301
100
AcDbEntity
  8
0
100
AcDbSpline
 62
7
  6
CONTINUOUS
 70
0
 71
3
 72
15
 73
11
 74
0
 42
0.0000001
 43
0.0000001
 44
0.0000000001
 40
0.0
 40
0.0
 40
0.0
 40
0.0
 40
0.1556019358
 40
0.303169608
 40
0.4411859093
 40
0.5691434807
 40
0.6874059622
 40
0.797128257
 40
0.9003542465
 40
1.0
 40
1.0
 40
1.0
 40
1.0
 10
14.1164091594
 20
11.0504464782
 30
0.0
 10
14.115403609
 20
11.0504464782
 30
0.0
 10
14.113442989
 20
11.050358792
 30
0.0
 10
14.1106161061
 20
11.0499511256
 30
0.0
 10
14.1080244876
 20
11.0492724062
 30
0.0
 10
14.1057169503
 20
11.0483337735
 30
0.0
 10
14.1037327948
 20
11.0471497113
 30
0.0
 10
14.1021094122
 20
11.0457345432
 30
0.0
 10
14.1008784224
 20
11.0441136018
 30
0.0
 10
14.1003397799
 20
11.042902662
 30
0.0
 10
14.1001496646
 20
11.0422874228
 30
0.0
  0
SPLINE
  5
302
100
AcDbEntity
  8
0
100
AcDbSpline
 62
7
  6
CONTINUOUS
 70
0
 71
3
 72
9
 73
5
 74
0
 42
0.0000001
 43
0.0000001
 44
0.0000000001
 40
0.0
 40
0.0
 40
0.0
 40
0.0
 40
0.4833952648
 40
1.0
 40
1.0
 40
1.0
 40
1.0
 10
15.8603918604
 20
10.9633193043
 30
0.0
 10
15.8600854271
 20
10.9658457398
 30
0.0
 10
15.8589386368
 20
10.9710175969
 30
0.0
 10
15.8569463586
 20
10.9759157682
 30
0.0
 10
15.8557481746
 20
10.9783574105
 30
0.0
  0
SPLINE
  5
303
100
AcDbEntity
  8
0
100
AcDbSpline
 62
7
  6
CONTINUOUS
 70
0
 71
3
 72
15
 73
11
 74
0
 42
0.0000001
 43
0.0000001
 44
0.0000000001
 40
0.0
 40
0.0
 40
0.0
 40
0.0
 40
0.1001860238
 40
0.2118994912
 40
0.3337844017
 40
0.463728358
 40
0.5987339172
 40
0.7354237383
 40
0.8704311023
 40
1.0
 40
1.0
 40
1.0
 40
1.0
 10
15.827998045
 20
11.034906229
 30
0.0
 10
15.8274706462
 20
11.0359809548
 30
0.0
 10
15.8260724836
 20
11.0381185271
 30
0.0
 10
15.8233066395
 20
11.0410145824
 30
0.0
 10
15.819854555
 20
11.043675908
 30
0.0
 10
15.8158483705
 20
11.0460045836
 30
0.0
 10
15.8114365142
 20
11.0479199048
 30
0.0
 10
15.8067802125
 20
11.0493473596
 30
0.0
 10
15.8020576947
 20
11.0502312426
 30
0.0
 10
15.7988937365
 20
11.0504464782
 30
0.0
 10
15.7973454735
 20
11.0504464782
 30
0.0
  0
ENDSEC
  0
SECTION
  2
OBJECTS
  0
DICTIONARY
  5
C
100
AcDbDictionary
280
0
281
1
  3
ACAD_GROUP
350
D
  3
ACAD_MLINESTYLE
350
17
  3
ACAD_LAYOUT
350
1A
  3
ACAD_PLOTSETTINGS
350
19
  3
ACAD_PLOTSTYLENAME
350
E
  0
DICTIONARY
  5
D
102
{ACAD_REACTORS
330
C
102
}
100
AcDbDictionary
280
0
281
1
  0
ACDBDICTIONARYWDFLT
  5
E
102
{ACAD_REACTORS
330
C
102
}
100
AcDbDictionary
281
1
  3
Normal
350
F
100
AcDbDictionaryWithDefault
340
F
  0
DICTIONARY
  5
17
102
{ACAD_REACTORS
330
C
102
}
100
AcDbDictionary
280
0
281
1
  3
Standard
350
18
  0
DICTIONARY
  5
19
102
{ACAD_REACTORS
330
C
102
}
100
AcDbDictionary
281
1
  0
DICTIONARY
  5
1A
102
{ACAD_REACTORS
330
C
102
}
100
AcDbDictionary
281
1
  3
Model
350
304
  3
Layout1
350
305
  0
ACDBPLACEHOLDER
  5
F
102
{ACAD_REACTORS
330
E
102
}
  0
MLINESTYLE
  5
18
102
{ACAD_REACTORS
330
17
102
}
100
AcDbMlineStyle
  2
STANDARD
 70
0
  3

 62
256
 51
90.0
 52
90.0
 71
2
 49
0.5
 62
256
  6
BYLAYER
 49
-0.5
 62
256
  6
BYLAYER
  0
LAYOUT
  5
304
102
{ACAD_REACTORS
330
1A
102
}
100
AcDbPlotSettings
  1

  2
none_device
  4
ANSI_C_(22.00_x_17.00_Inches)
  6

 40
0.0
 41
0.0
 42
0.0
 43
0.0
 44
558.8
 45
431.8
 46
0.0
 47
0.0
 48
0.0
 49
0.0
140
0.0
141
0.0
142
1.0
143
1.0
 70
1024
 72
0
 73
0
 74
0
  7

 75
0
147
1.0
148
0.0
149
0.0
100
AcDbLayout
  1
Model
 70
0
 71
0
 10
0.0
 20
0.0
 11
22.0
 21
17.0
 12
0.0
 22
0.0
 32
0.0
 14
0.0
 24
0.0
 34
0.0
 15
0.0
 25
0.0
 35
0.0
146
0.0
 13
0.0
 23
0.0
 33
0.0
 16
1.0
 26
0.0
 36
0.0
 17
0.0
 27
1.0
 37
0.0
 76
0
330
216
345
0
346
0
  0
LAYOUT
  5
305
102
{ACAD_REACTORS
330
1A
102
}
100
AcDbPlotSettings
  1

  2
none_device
  4
ANSI_C_(22.00_x_17.00_Inches)
  6

 40
0.0
 41
0.0
 42
0.0
 43
0.0
 44
558.8
 45
431.8
 46
0.0
 47
0.0
 48
0.0
 49
0.0
140
0.0
141
0.0
142
1.0
143
1.0
 70
0
 72
0
 73
0
 74
0
  7

 75
0
147
1.0
148
0.0
149
0.0
100
AcDbLayout
  1
Layout1
 70
0
 71
1
 10
0.0
 20
0.0
 11
22.0
 21
17.0
 12
0.0
 22
0.0
 32
0.0
 14
0.0
 24
0.0
 34
0.0
 15
0.0
 25
0.0
 35
0.0
146
0.0
 13
0.0
 23
0.0
 33
0.0
 16
1.0
 26
0.0
 36
0.0
 17
0.0
 27
1.0
 37
0.0
 76
0
330
217
345
0
346
0
  0
ENDSEC
  0
EOF