999
DXF file: _cgs_temp_output.dxf
999
Pro/ENGINEER 2015110 by Parametric Technology Corporation
  0
SECTION
  2
HEADER
  9
$ACADVER
  1
AC1021
  9
$DWGCODEPAGE
  3
ANSI_1252
  9
$EXTMAX
 10
22.0
 20
17.0
 30
0.0
  9
$EXTMIN
 10
0.0
 20
0.0
 30
0.0
  9
$LIMMIN
 10
0.0
 20
0.0
  9
$LIMMAX
 10
22.0
 20
17.0
  9
$VIEWCTR
 10
11.0
 20
8.5
  9
$VIEWSIZE
 40
17.0
  9
$CLAYER
  8
0
  9
$LTSCALE
 40
1.21
  9
$CELTYPE
  6
BYLAYER
  9
$DIMSCALE
 40
1.0
  9
$DIMASZ
 40
0.1875
  9
$DIMEXO
 40
0.0625
  9
$DIMDLI
 40
0.836
  9
$DIMEXE
 40
0.125
  9
$DIMCEN
 40
0.198
  9
$DIMLFAC
 40
1.0
  9
$DIMBLK
  1
_CLOSED
  9
$DIMALT
 70
0
  9
$DIMALTF
 40
25.4
  9
$DIMTXT
 40
0.15625
  9
$DIMTOL
 70
0
  9
$DIMLIM
 70
0
  9
$DIMTFAC
 40
1.0
  9
$DIMGAP
 40
0.09
  9
$DIMDSEP
 70
46
  9
$AUNITS
 70
0
  9
$PDMODE
 70
3
  9
$PDSIZE
 40
0.3125
  9
$HANDSEED
  5
2A8
  9
$TILEMODE
 70
1
  9
$MEASUREMENT
 70
0
  9
$INSUNITS
 70
1
  0
ENDSEC
  0
SECTION
  2
CLASSES
  0
CLASS
  1
ACDBDICTIONARYWDFLT
  2
AcDbDictionaryWithDefault
  3
AutoCAD 2000
 90
0
 91
1
280
0
281
0
  0
CLASS
  1
ACDBPLACEHOLDER
  2
AcDbPlaceHolder
  3
AutoCAD 2000
 90
0
 91
1
280
0
281
0
  0
CLASS
  1
LAYOUT
  2
AcDbLayout
  3
AutoCAD 2000
 90
0
 91
0
280
0
281
0
  0
ENDSEC
  0
SECTION
  2
TABLES
  0
TABLE
  2
VPORT
  5
8
100
AcDbSymbolTable
 70
2
  0
VPORT
  5
1F4
100
AcDbSymbolTableRecord
100
AcDbViewportTableRecord
  2
*ACTIVE
 70
0
 10
0.0
 20
0.0
 11
1.0
 21
1.0
 12
11.0
 22
8.5
 13
0.0
 23
0.0
 14
1.0
 24
1.0
 15
0.0
 25
0.0
 16
0.0
 26
0.0
 36
1.0
 17
0.0
 27
0.0
 37
0.0
 40
17.0
 41
1.2941176471
 42
50.0
 43
0.0
 44
0.0
 50
0.0
 51
0.0
 71
0
 72
100
 73
1
 74
1
 75
0
 76
0
 77
0
 78
0
  0
ENDTAB
  0
TABLE
  2
LTYPE
  5
5
100
AcDbSymbolTable
 70
6
  0
LTYPE
  5
14
100
AcDbSymbolTableRecord
100
AcDbLinetypeTableRecord
  2
BYBLOCK
 70
0
  3

 72
65
 73
0
 40
0.0
  0
LTYPE
  5
15
100
AcDbSymbolTableRecord
100
AcDbLinetypeTableRecord
  2
BYLAYER
 70
0
  3

 72
65
 73
0
 40
0.0
  0
LTYPE
  5
16
100
AcDbSymbolTableRecord
100
AcDbLinetypeTableRecord
  2
CONTINUOUS
 70
64
  3
Solid line
 72
65
 73
0
 40
0.0
  0
LTYPE
  5
1F5
100
AcDbSymbolTableRecord
100
AcDbLinetypeTableRecord
  2
CENTER
 70
64
  3
____ _ ____ _ ____ _ ____ _ ____ _ ____ _ ____
 72
65
 73
4
 40
0.6
 49
0.375
 74
0
 49
-0.075
 74
0
 49
0.075
 74
0
 49
-0.075
 74
0
  0
LTYPE
  5
1F6
100
AcDbSymbolTableRecord
100
AcDbLinetypeTableRecord
  2
HIDDEN
 70
64
  3
- - - - - - - - - - - - - - - - - - - -
 72
65
 73
2
 40
0.2
 49
0.1
 74
0
 49
-0.1
 74
0
  0
LTYPE
  5
1F7
100
AcDbSymbolTableRecord
100
AcDbLinetypeTableRecord
  2
PHANTOM
 70
64
  3
_____ _ _ _____ _ _ _____ _ _ _____
 72
65
 73
6
 40
0.8
 49
0.45
 74
0
 49
-0.05
 74
0
 49
0.1
 74
0
 49
-0.05
 74
0
 49
0.1
 74
0
 49
-0.05
 74
0
  0
LTYPE
  5
1F8
100
AcDbSymbolTableRecord
100
AcDbLinetypeTableRecord
  2
DOT
 70
64
  3
. . . . . . . . . . . . . . . . . . . .
 72
65
 73
2
 40
0.2
 49
0.1
 74
0
 49
-0.1
 74
0
  0
LTYPE
  5
1F9
100
AcDbSymbolTableRecord
100
AcDbLinetypeTableRecord
  2
DASHED
 70
64
  3
- - - - - - - - - - - - - - - - - - - -
 72
65
 73
2
 40
0.2
 49
0.1
 74
0
 49
-0.1
 74
0
  0
ENDTAB
  0
TABLE
  2
LAYER
  5
2
100
AcDbSymbolTable
 70
36
  0
LAYER
  5
10
100
AcDbSymbolTableRecord
100
AcDbLayerTableRecord
  2
0
 70
0
 62
7
  6
CONTINUOUS
370
-3
390
F
  0
LAYER
  5
1FA
100
AcDbSymbolTableRecord
100
AcDbLayerTableRecord
  2
DEFAULT_1
 70
0
 62
7
  6
CENTER
370
-3
390
F
  0
LAYER
  5
1FB
100
AcDbSymbolTableRecord
100
AcDbLayerTableRecord
  2
DEFAULT_2
 70
0
 62
8
  6
HIDDEN
370
-3
390
F
  0
LAYER
  5
1FC
100
AcDbSymbolTableRecord
100
AcDbLayerTableRecord
  2
DEFAULT_3
 70
0
 62
7
  6
PHANTOM
370
-3
390
F
  0
LAYER
  5
1FD
100
AcDbSymbolTableRecord
100
AcDbLayerTableRecord
  2
01_ALL_DTM_PLN
 70
0
 62
7
  6
CONTINUOUS
370
-3
390
F
  0
LAYER
  5
1FE
100
AcDbSymbolTableRecord
100
AcDbLayerTableRecord
  2
01__ASM_ALL_DTM_PLN
 70
0
 62
7
  6
CONTINUOUS
370
-3
390
F
  0
LAYER
  5
1FF
100
AcDbSymbolTableRecord
100
AcDbLayerTableRecord
  2
01__ASM_DEF_DTM_PLN
 70
0
 62
7
  6
CONTINUOUS
370
-3
390
F
  0
LAYER
  5
200
100
AcDbSymbolTableRecord
100
AcDbLayerTableRecord
  2
01___PRT_ALL_DTM_PLN
 70
0
 62
7
  6
CONTINUOUS
370
-3
390
F
  0
LAYER
  5
201
100
AcDbSymbolTableRecord
100
AcDbLayerTableRecord
  2
01___PRT_DEF_DTM_PLN
 70
0
 62
7
  6
CONTINUOUS
370
-3
390
F
  0
LAYER
  5
202
100
AcDbSymbolTableRecord
100
AcDbLayerTableRecord
  2
02_ALL_AXES
 70
0
 62
7
  6
CONTINUOUS
370
-3
390
F
  0
LAYER
  5
203
100
AcDbSymbolTableRecord
100
AcDbLayerTableRecord
  2
02__ASM_ALL_AXES
 70
0
 62
7
  6
CONTINUOUS
370
-3
390
F
  0
LAYER
  5
204
100
AcDbSymbolTableRecord
100
AcDbLayerTableRecord
  2
02___PRT_ALL_AXES
 70
0
 62
7
  6
CONTINUOUS
370
-3
390
F
  0
LAYER
  5
205
100
AcDbSymbolTableRecord
100
AcDbLayerTableRecord
  2
03_ALL_CURVES
 70
0
 62
7
  6
CONTINUOUS
370
-3
390
F
  0
LAYER
  5
206
100
AcDbSymbolTableRecord
100
AcDbLayerTableRecord
  2
03__ASM_ALL_CURVES
 70
0
 62
7
  6
CONTINUOUS
370
-3
390
F
  0
LAYER
  5
207
100
AcDbSymbolTableRecord
100
AcDbLayerTableRecord
  2
03___PRT_ALL_CURVES
 70
0
 62
7
  6
CONTINUOUS
370
-3
390
F
  0
LAYER
  5
208
100
AcDbSymbolTableRecord
100
AcDbLayerTableRecord
  2
04_ALL_DTM_PNT
 70
0
 62
7
  6
CONTINUOUS
370
-3
390
F
  0
LAYER
  5
209
100
AcDbSymbolTableRecord
100
AcDbLayerTableRecord
  2
04__ASM_ALL_DTM_PNT
 70
0
 62
7
  6
CONTINUOUS
370
-3
390
F
  0
LAYER
  5
20A
100
AcDbSymbolTableRecord
100
AcDbLayerTableRecord
  2
04___PRT_ALL_DTM_PNT
 70
0
 62
7
  6
CONTINUOUS
370
-3
390
F
  0
LAYER
  5
20B
100
AcDbSymbolTableRecord
100
AcDbLayerTableRecord
  2
05_ALL_DTM_CSYS
 70
0
 62
7
  6
CONTINUOUS
370
-3
390
F
  0
LAYER
  5
20C
100
AcDbSymbolTableRecord
100
AcDbLayerTableRecord
  2
05__ASM_ALL_DTM_CSYS
 70
0
 62
7
  6
CONTINUOUS
370
-3
390
F
  0
LAYER
  5
20D
100
AcDbSymbolTableRecord
100
AcDbLayerTableRecord
  2
05__ASM_DEF_DTM_CSYS
 70
0
 62
7
  6
CONTINUOUS
370
-3
390
F
  0
LAYER
  5
20E
100
AcDbSymbolTableRecord
100
AcDbLayerTableRecord
  2
05___PRT_ALL_DTM_CSYS
 70
0
 62
7
  6
CONTINUOUS
370
-3
390
F
  0
LAYER
  5
20F
100
AcDbSymbolTableRecord
100
AcDbLayerTableRecord
  2
05___PRT_DEF_DTM_CSYS
 70
0
 62
7
  6
CONTINUOUS
370
-3
390
F
  0
LAYER
  5
210
100
AcDbSymbolTableRecord
100
AcDbLayerTableRecord
  2
06_ALL_SURFS
 70
0
 62
7
  6
CONTINUOUS
370
-3
390
F
  0
LAYER
  5
211
100
AcDbSymbolTableRecord
100
AcDbLayerTableRecord
  2
06__ASM_ALL_SURFS
 70
0
 62
7
  6
CONTINUOUS
370
-3
390
F
  0
LAYER
  5
212
100
AcDbSymbolTableRecord
100
AcDbLayerTableRecord
  2
06___PRT_ALL_SURFS
 70
0
 62
7
  6
CONTINUOUS
370
-3
390
F
  0
LAYER
  5
213
100
AcDbSymbolTableRecord
100
AcDbLayerTableRecord
  2
07__ASM_ALL_SKELETONS
 70
0
 62
7
  6
CONTINUOUS
370
-3
390
F
  0
ENDTAB
  0
TABLE
  2
STYLE
  5
3
100
AcDbSymbolTable
 70
1
  0
STYLE
  5
11
100
AcDbSymbolTableRecord
100
AcDbTextStyleTableRecord
  2
STANDARD
 70
0
 40
0.0
 41
0.8
 50
0.0
 71
0
 42
0.2
  3
txt
  4

  0
STYLE
  5
214
100
AcDbSymbolTableRecord
100
AcDbTextStyleTableRecord
  2
TEXTSTYLE_1
 70
0
 40
0.0
 41
0.8
 50
0.0
 71
0
 42
0.2
  3
gdt
  4

  0
ENDTAB
  0
TABLE
  2
VIEW
  5
6
100
AcDbSymbolTable
 70
0
  0
ENDTAB
  0
TABLE
  2
UCS
  5
7
100
AcDbSymbolTable
 70
0
  0
ENDTAB
  0
TABLE
  2
APPID
  5
9
100
AcDbSymbolTable
 70
1
  0
APPID
  5
215
100
AcDbSymbolTableRecord
100
AcDbRegAppTableRecord
  2
ACAD
 70
0
  0
ENDTAB
  0
TABLE
  2
BLOCK_RECORD
  5
1
100
AcDbSymbolTable
 70
0
  0
BLOCK_RECORD
  5
216
100
AcDbSymbolTableRecord
100
AcDbBlockTableRecord
  2
*Model_Space
  0
BLOCK_RECORD
  5
217
100
AcDbSymbolTableRecord
100
AcDbBlockTableRecord
  2
*Paper_Space
  0
ENDTAB
  0
TABLE
  2
DIMSTYLE
  5
A
100
AcDbSymbolTable
 70
1
100
AcDbDimStyleTable
 71
0
  0
DIMSTYLE
105
218
100
AcDbSymbolTableRecord
100
AcDbDimStyleTableRecord
  2
STANDARD
 70
0
  3

  4

 40
1.0
 41
0.1875
 42
0.0625
 43
0.38
 44
0.125
 45
0.0
 46
0.0
 47
0.0001
 48
0.0001
140
0.15625
141
0.09
142
0.0
143
25.4
144
1.0
145
0.0
146
1.0
147
0.09
 71
0.0
 72
0.0
 73
1
 74
1
 75
0
 76
0
 77
0
 78
4
170
0
171
2
172
0
173
0
174
0
175
0
176
0
177
0
178
0
270
2
271
4
272
4
273
2
274
2
275
0
280
0
281
0
282
0
283
1
284
4
285
0
286
0
287
3
288
0
340
11
278
46
  0
ENDTAB
  0
ENDSEC
  0
SECTION
  2
BLOCKS
  0
BLOCK
  5
20
100
AcDbEntity
  8
0
100
AcDbBlockBegin
  2
*Model_Space
 70
0
 10
0.0
 20
0.0
 30
0.0
  3
*Model_Space
  1

  0
ENDBLK
  5
21
100
AcDbEntity
  8
0
100
AcDbBlockEnd
  0
BLOCK
  5
1C
100
AcDbEntity
  8
0
100
AcDbBlockBegin
  2
*Paper_Space
 70
0
 10
0.0
 20
0.0
 30
0.0
  3
*Paper_Space
  1

  0
ENDBLK
  5
1D
100
AcDbEntity
  8
0
100
AcDbBlockEnd
  0
ENDSEC
  0
SECTION
  2
ENTITIES
  0
MTEXT
  5
219
100
AcDbEntity
  8
0
100
AcDbMText
 62
7
  6
CONTINUOUS
  7
STANDARD
 71
1
 72
1
 10
15.9560215477
 20
0.9479130325
 30
0.0
 11
1.0
 21
0.0
 31
0.0
 44
0.9
  1
SCALE: 1:1.000
 40
0.3
 41
3.36
  0
LINE
  5
21A
100
AcDbEntity
  8
0
100
AcDbLine
 62
7
  6
CONTINUOUS
 10
0.0
 20
0.0
 11
0.0
 21
17.0
  0
LINE
  5
21B
100
AcDbEntity
  8
0
100
AcDbLine
 62
7
  6
CONTINUOUS
 10
0.0
 20
0.0
 11
22.0
 21
0.0
  0
LINE
  5
21C
100
AcDbEntity
  8
0
100
AcDbLine
 62
7
  6
CONTINUOUS
 10
0.0
 20
17.0
 11
22.0
 21
17.0
  0
LINE
  5
21D
100
AcDbEntity
  8
0
100
AcDbLine
 62
7
  6
CONTINUOUS
 10
22.0
 20
0.0
 11
22.0
 21
17.0
  0
LINE
  5
21E
100
AcDbEntity
  8
0
100
AcDbLine
 62
7
  6
CONTINUOUS
 10
4.4768239691
 20
5.7151986369
 11
4.4768239691
 21
5.5549624164
  0
LINE
  5
21F
100
AcDbEntity
  8
0
100
AcDbLine
 62
7
  6
CONTINUOUS
 10
4.6914231305
 20
5.3250411566
 11
4.8134059101
 21
5.3250411566
  0
LINE
  5
220
100
AcDbEntity
  8
0
100
AcDbLine
 62
7
  6
CONTINUOUS
 10
5.2426042328
 20
5.3250411566
 11
5.3645870124
 21
5.3250411566
  0
LINE
  5
221
100
AcDbEntity
  8
0
100
AcDbLine
 62
7
  6
CONTINUOUS
 10
5.7937853352
 20
5.3250411566
 11
5.9157681148
 21
5.3250411566
  0
LINE
  5
222
100
AcDbEntity
  8
0
100
AcDbLine
 62
7
  6
CONTINUOUS
 10
6.3449664376
 20
5.3250411566
 11
6.4669492171
 21
5.3250411566
  0
LINE
  5
223
100
AcDbEntity
  8
0
100
AcDbLine
 62
7
  6
CONTINUOUS
 10
6.8961475399
 20
5.3250411566
 11
7.0181303195
 21
5.3250411566
  0
LINE
  5
224
100
AcDbEntity
  8
0
100
AcDbLine
 62
7
  6
CONTINUOUS
 10
7.4473286423
 20
5.3250411566
 11
7.5693114219
 21
5.3250411566
  0
LINE
  5
225
100
AcDbEntity
  8
0
100
AcDbLine
 62
7
  6
CONTINUOUS
 10
4.4768239691
 20
5.5549624164
 11
4.5366312066
 21
5.5549624164
  0
LINE
  5
226
100
AcDbEntity
  8
0
100
AcDbLine
 62
7
  6
CONTINUOUS
 10
4.9681978339
 20
5.5549624164
 11
5.087812309
 21
5.5549624164
  0
LINE
  5
227
100
AcDbEntity
  8
0
100
AcDbLine
 62
7
  6
CONTINUOUS
 10
5.5193789362
 20
5.5549624164
 11
5.6389934114
 21
5.5549624164
  0
LINE
  5
228
100
AcDbEntity
  8
0
100
AcDbLine
 62
7
  6
CONTINUOUS
 10
6.0705600386
 20
5.5549624164
 11
6.1901745137
 21
5.5549624164
  0
LINE
  5
229
100
AcDbEntity
  8
0
100
AcDbLine
 62
7
  6
CONTINUOUS
 10
6.621741141
 20
5.5549624164
 11
6.7413556161
 21
5.5549624164
  0
LINE
  5
22A
100
AcDbEntity
  8
0
100
AcDbLine
 62
7
  6
CONTINUOUS
 10
7.1729222433
 20
5.5549624164
 11
7.2925367185
 21
5.5549624164
  0
LINE
  5
22B
100
AcDbEntity
  8
0
100
AcDbLine
 62
7
  6
CONTINUOUS
 10
7.7241033457
 20
5.5549624164
 11
7.7839105833
 21
5.5549624164
  0
LINE
  5
22C
100
AcDbEntity
  8
0
100
AcDbLine
 62
7
  6
CONTINUOUS
 10
7.7839105833
 20
5.7151986369
 11
4.4768239691
 21
5.7151986369
  0
LINE
  5
22D
100
AcDbEntity
  8
0
100
AcDbLine
 62
7
  6
CONTINUOUS
 10
7.7839105833
 20
5.5549624164
 11
7.7839105833
 21
5.7151986369
  0
LINE
  5
22E
100
AcDbEntity
  8
0
100
AcDbLine
 62
7
  6
CONTINUOUS
 10
4.4173287768
 20
13.3874493562
 11
4.4173287768
 21
11.8126462066
  0
LINE
  5
22F
100
AcDbEntity
  8
0
100
AcDbLine
 62
7
  6
CONTINUOUS
 10
7.7244153909
 20
11.8126462066
 11
4.4173287768
 21
11.8126462066
  0
LINE
  5
230
100
AcDbEntity
  8
0
100
AcDbLine
 62
7
  6
CONTINUOUS
 10
4.4173287768
 20
13.3874493562
 11
7.7244153909
 21
13.3874493562
  0
LINE
  5
231
100
AcDbEntity
  8
0
100
AcDbLine
 62
7
  6
CONTINUOUS
 10
7.7244153909
 20
13.3874493562
 11
7.7244153909
 21
11.8126462066
  0
LINE
  5
232
100
AcDbEntity
  8
0
100
AcDbLine
 62
7
  6
CONTINUOUS
 10
14.7729536821
 20
5.2655459643
 11
14.7729536821
 21
5.6557034446
  0
LINE
  5
233
100
AcDbEntity
  8
0
100
AcDbLine
 62
7
  6
CONTINUOUS
 10
14.7729536821
 20
5.2655459643
 11
16.3477568317
 21
5.2655459643
  0
LINE
  5
234
100
AcDbEntity
  8
0
100
AcDbLine
 62
7
  6
CONTINUOUS
 10
16.3477568317
 20
5.4954672241
 11
14.7729536821
 21
5.4954672241
  0
LINE
  5
235
100
AcDbEntity
  8
0
100
AcDbLine
 62
7
  6
CONTINUOUS
 10
16.3477568317
 20
5.6557034446
 11
14.7729536821
 21
5.6557034446
  0
LINE
  5
236
100
AcDbEntity
  8
0
100
AcDbLine
 62
7
  6
CONTINUOUS
 10
16.3477568317
 20
5.2655459643
 11
16.3477568317
 21
5.6557034446
  0
LINE
  5
237
100
AcDbEntity
  8
0
100
AcDbLine
 62
7
  6
CONTINUOUS
 10
13.7330554443
 20
12.0152750402
 11
13.7819342001
 21
11.9156706082
  0
LINE
  5
238
100
AcDbEntity
  8
0
100
AcDbLine
 62
7
  6
CONTINUOUS
 10
14.1142622528
 20
13.2488607246
 11
13.7330554443
 21
12.0152750402
  0
LINE
  5
239
100
AcDbEntity
  8
0
100
AcDbLine
 62
7
  6
CONTINUOUS
 10
14.2441743804
 20
11.9156706082
 11
14.2080292709
 21
11.7987049911
  0
LINE
  5
23A
100
AcDbEntity
  8
0
100
AcDbLine
 62
7
  6
CONTINUOUS
 10
14.2066524325
 20
11.794504322
 11
14.2080264255
 21
11.79870587
  0
LINE
  5
23B
100
AcDbEntity
  8
0
100
AcDbLine
 62
7
  6
CONTINUOUS
 10
14.0497287272
 20
11.7727492612
 11
14.1620823075
 21
11.7727492612
  0
LINE
  5
23C
100
AcDbEntity
  8
0
100
AcDbLine
 62
7
  6
CONTINUOUS
 10
14.5574001413
 20
11.7727492612
 11
14.6697537215
 21
11.7727492612
  0
LINE
  5
23D
100
AcDbEntity
  8
0
100
AcDbLine
 62
7
  6
CONTINUOUS
 10
15.0650715553
 20
11.7727492612
 11
15.1774251355
 21
11.7727492612
  0
LINE
  5
23E
100
AcDbEntity
  8
0
100
AcDbLine
 62
7
  6
CONTINUOUS
 10
15.5727429693
 20
11.7727492612
 11
15.6850965495
 21
11.7727492612
  0
LINE
  5
23F
100
AcDbEntity
  8
0
100
AcDbLine
 62
7
  6
CONTINUOUS
 10
16.0804143833
 20
11.7727492612
 11
16.1927679635
 21
11.7727492612
  0
LINE
  5
240
100
AcDbEntity
  8
0
100
AcDbLine
 62
7
  6
CONTINUOUS
 10
16.5880857973
 20
11.7727492612
 11
16.7004393776
 21
11.7727492612
  0
LINE
  5
241
100
AcDbEntity
  8
0
100
AcDbLine
 62
7
  6
CONTINUOUS
 10
14.7518457944
 20
11.9156706082
 11
14.7157006849
 21
11.7987049911
  0
LINE
  5
242
100
AcDbEntity
  8
0
100
AcDbLine
 62
7
  6
CONTINUOUS
 10
14.7143238466
 20
11.794504322
 11
14.7156978395
 21
11.79870587
  0
LINE
  5
243
100
AcDbEntity
  8
0
100
AcDbLine
 62
7
  6
CONTINUOUS
 10
13.7819342001
 20
11.9156706082
 11
13.8370203137
 21
11.9156706082
  0
LINE
  5
244
100
AcDbEntity
  8
0
100
AcDbLine
 62
7
  6
CONTINUOUS
 10
14.2345195004
 20
11.9156706082
 11
14.3446917278
 21
11.9156706082
  0
LINE
  5
245
100
AcDbEntity
  8
0
100
AcDbLine
 62
7
  6
CONTINUOUS
 10
14.7421909144
 20
11.9156706082
 11
14.8523631418
 21
11.9156706082
  0
LINE
  5
246
100
AcDbEntity
  8
0
100
AcDbLine
 62
7
  6
CONTINUOUS
 10
15.2498623284
 20
11.9156706082
 11
15.3600345558
 21
11.9156706082
  0
LINE
  5
247
100
AcDbEntity
  8
0
100
AcDbLine
 62
7
  6
CONTINUOUS
 10
15.7575337425
 20
11.9156706082
 11
15.8677059698
 21
11.9156706082
  0
LINE
  5
248
100
AcDbEntity
  8
0
100
AcDbLine
 62
7
  6
CONTINUOUS
 10
16.2652051565
 20
11.9156706082
 11
16.3753773838
 21
11.9156706082
  0
LINE
  5
249
100
AcDbEntity
  8
0
100
AcDbLine
 62
7
  6
CONTINUOUS
 10
16.7728765705
 20
11.9156706082
 11
16.8279626842
 21
11.9156706082
  0
LINE
  5
24A
100
AcDbEntity
  8
0
100
AcDbLine
 62
7
  6
CONTINUOUS
 10
16.7790839284
 20
12.0152750402
 11
13.7330554443
 21
12.0152750402
  0
LINE
  5
24B
100
AcDbEntity
  8
0
100
AcDbLine
 62
7
  6
CONTINUOUS
 10
15.2595172084
 20
11.9156706082
 11
15.223372099
 21
11.7987049911
  0
LINE
  5
24C
100
AcDbEntity
  8
0
100
AcDbLine
 62
7
  6
CONTINUOUS
 10
15.2219952606
 20
11.794504322
 11
15.2233692535
 21
11.79870587
  0
LINE
  5
24D
100
AcDbEntity
  8
0
100
AcDbLine
 62
7
  6
CONTINUOUS
 10
15.7671886225
 20
11.9156706082
 11
15.731043513
 21
11.7987049911
  0
LINE
  5
24E
100
AcDbEntity
  8
0
100
AcDbLine
 62
7
  6
CONTINUOUS
 10
15.7296666746
 20
11.794504322
 11
15.7310421855
 21
11.7987054013
  0
LINE
  5
24F
100
AcDbEntity
  8
0
100
AcDbLine
 62
7
  6
CONTINUOUS
 10
14.1142622528
 20
13.2488607246
 11
17.1602907369
 21
13.2488607246
  0
LINE
  5
250
100
AcDbEntity
  8
0
100
AcDbLine
 62
7
  6
CONTINUOUS
 10
16.2748600365
 20
11.9156706082
 11
16.238714927
 21
11.7987049911
  0
LINE
  5
251
100
AcDbEntity
  8
0
100
AcDbLine
 62
7
  6
CONTINUOUS
 10
16.2373380886
 20
11.794504322
 11
16.2387135995
 21
11.7987054013
  0
LINE
  5
252
100
AcDbEntity
  8
0
100
AcDbLine
 62
7
  6
CONTINUOUS
 10
16.8279626842
 20
11.9156706082
 11
16.7790839284
 21
12.0152750402
  0
LINE
  5
253
100
AcDbEntity
  8
0
100
AcDbLine
 62
7
  6
CONTINUOUS
 10
17.1602907369
 20
13.2488607246
 11
16.7790839284
 21
12.0152750402
  0
LINE
  5
254
100
AcDbEntity
  8
0
100
AcDbLine
 62
7
  6
CONTINUOUS
 10
16.7825314505
 20
11.9156706082
 11
16.746386341
 21
11.7987049911
  0
LINE
  5
255
100
AcDbEntity
  8
0
100
AcDbLine
 62
7
  6
CONTINUOUS
 10
17.2091694927
 20
13.1492562927
 11
16.8279626842
 21
11.9156706082
  0
LINE
  5
256
100
AcDbEntity
  8
0
100
AcDbLine
 62
7
  6
CONTINUOUS
 10
16.7450095026
 20
11.794504322
 11
16.7463851622
 21
11.7987053553
  0
LINE
  5
257
100
AcDbEntity
  8
0
100
AcDbLine
 62
7
  6
CONTINUOUS
 10
17.2091694927
 20
13.1492562927
 11
17.1602907369
 21
13.2488607246
  0
ARC
  5
258
100
AcDbEntity
  8
0
100
AcDbCircle
 62
7
  6
CONTINUOUS
 10
4.5284971974
 20
5.5549624164
 40
0.3961614173
100
AcDbArc
 50
330.5258999203
 51
354.0364298817
  0
ARC
  5
259
100
AcDbEntity
  8
0
100
AcDbCircle
 62
7
  6
CONTINUOUS
 10
5.5275129455
 20
5.5549624164
 40
0.3961614173
100
AcDbArc
 50
185.9635701183
 51
209.4741000797
  0
ARC
  5
25A
100
AcDbEntity
  8
0
100
AcDbCircle
 62
7
  6
CONTINUOUS
 10
5.0796782998
 20
5.5549624164
 40
0.3961614173
100
AcDbArc
 50
330.5258999203
 51
354.0364298817
  0
ARC
  5
25B
100
AcDbEntity
  8
0
100
AcDbCircle
 62
7
  6
CONTINUOUS
 10
6.0786940478
 20
5.5549624164
 40
0.3961614173
100
AcDbArc
 50
185.9635701183
 51
209.4741000797
  0
ARC
  5
25C
100
AcDbEntity
  8
0
100
AcDbCircle
 62
7
  6
CONTINUOUS
 10
5.6308594022
 20
5.5549624164
 40
0.3961614173
100
AcDbArc
 50
330.5258999203
 51
354.0364298817
  0
ARC
  5
25D
100
AcDbEntity
  8
0
100
AcDbCircle
 62
7
  6
CONTINUOUS
 10
6.6298751502
 20
5.5549624164
 40
0.3961614173
100
AcDbArc
 50
185.9635701183
 51
209.4741000797
  0
ARC
  5
25E
100
AcDbEntity
  8
0
100
AcDbCircle
 62
7
  6
CONTINUOUS
 10
4.9763318431
 20
5.5549624164
 40
0.3961614173
100
AcDbArc
 50
185.9635701183
 51
209.4741000797
  0
ARC
  5
25F
100
AcDbEntity
  8
0
100
AcDbCircle
 62
7
  6
CONTINUOUS
 10
7.2844027092
 20
5.5549624164
 40
0.3961614173
100
AcDbArc
 50
330.5258999203
 51
354.0364298817
  0
ARC
  5
260
100
AcDbEntity
  8
0
100
AcDbCircle
 62
7
  6
CONTINUOUS
 10
7.7322373549
 20
5.5549624164
 40
0.3961614173
100
AcDbArc
 50
185.9635701183
 51
209.4741000797
  0
ARC
  5
261
100
AcDbEntity
  8
0
100
AcDbCircle
 62
7
  6
CONTINUOUS
 10
6.7332216069
 20
5.5549624164
 40
0.3961614173
100
AcDbArc
 50
330.5258999203
 51
354.0364298817
  0
ARC
  5
262
100
AcDbEntity
  8
0
100
AcDbCircle
 62
7
  6
CONTINUOUS
 10
7.1810562525
 20
5.5549624164
 40
0.3961614173
100
AcDbArc
 50
185.9635701183
 51
209.4741000797
  0
ARC
  5
263
100
AcDbEntity
  8
0
100
AcDbCircle
 62
7
  6
CONTINUOUS
 10
6.1820405045
 20
5.5549624164
 40
0.3961614173
100
AcDbArc
 50
330.5258999203
 51
354.0364298817
  0
ARC
  5
264
100
AcDbEntity
  8
0
100
AcDbCircle
 62
7
  6
CONTINUOUS
 10
4.6914231305
 20
5.3939387944
 40
0.0688976378
100
AcDbArc
 50
209.4741000797
 51
270.0
  0
ARC
  5
265
100
AcDbEntity
  8
0
100
AcDbCircle
 62
7
  6
CONTINUOUS
 10
4.8134059101
 20
5.3939387944
 40
0.0688976378
100
AcDbArc
 50
270.0
 51
330.5258999203
  0
ARC
  5
266
100
AcDbEntity
  8
0
100
AcDbCircle
 62
7
  6
CONTINUOUS
 10
5.2426042328
 20
5.3939387944
 40
0.0688976378
100
AcDbArc
 50
209.4741000797
 51
270.0
  0
ARC
  5
267
100
AcDbEntity
  8
0
100
AcDbCircle
 62
7
  6
CONTINUOUS
 10
5.3645870124
 20
5.3939387944
 40
0.0688976378
100
AcDbArc
 50
270.0
 51
330.5258999203
  0
ARC
  5
268
100
AcDbEntity
  8
0
100
AcDbCircle
 62
7
  6
CONTINUOUS
 10
5.7937853352
 20
5.3939387944
 40
0.0688976378
100
AcDbArc
 50
209.4741000797
 51
270.0
  0
ARC
  5
269
100
AcDbEntity
  8
0
100
AcDbCircle
 62
7
  6
CONTINUOUS
 10
5.9157681148
 20
5.3939387944
 40
0.0688976378
100
AcDbArc
 50
270.0
 51
330.5258999203
  0
ARC
  5
26A
100
AcDbEntity
  8
0
100
AcDbCircle
 62
7
  6
CONTINUOUS
 10
6.3449664376
 20
5.3939387944
 40
0.0688976378
100
AcDbArc
 50
209.4741000797
 51
270.0
  0
ARC
  5
26B
100
AcDbEntity
  8
0
100
AcDbCircle
 62
7
  6
CONTINUOUS
 10
7.5693114219
 20
5.3939387944
 40
0.0688976378
100
AcDbArc
 50
270.0
 51
330.5258999203
  0
ARC
  5
26C
100
AcDbEntity
  8
0
100
AcDbCircle
 62
7
  6
CONTINUOUS
 10
7.4473286423
 20
5.3939387944
 40
0.0688976378
100
AcDbArc
 50
209.4741000797
 51
270.0
  0
ARC
  5
26D
100
AcDbEntity
  8
0
100
AcDbCircle
 62
7
  6
CONTINUOUS
 10
7.0181303195
 20
5.3939387944
 40
0.0688976378
100
AcDbArc
 50
270.0
 51
330.5258999203
  0
ARC
  5
26E
100
AcDbEntity
  8
0
100
AcDbCircle
 62
7
  6
CONTINUOUS
 10
6.8961475399
 20
5.3939387944
 40
0.0688976378
100
AcDbArc
 50
209.4741000797
 51
270.0
  0
ARC
  5
26F
100
AcDbEntity
  8
0
100
AcDbCircle
 62
7
  6
CONTINUOUS
 10
6.4669492171
 20
5.3939387944
 40
0.0688976378
100
AcDbArc
 50
270.0
 51
330.5258999203
  0
ARC
  5
270
100
AcDbEntity
  8
0
100
AcDbCircle
 62
7
  6
CONTINUOUS
 10
4.5366312066
 20
5.5090306579
 40
0.0459317585
100
AcDbArc
 50
5.9635701183
 51
90.0
  0
ARC
  5
271
100
AcDbEntity
  8
0
100
AcDbCircle
 62
7
  6
CONTINUOUS
 10
4.9681978339
 20
5.5090306579
 40
0.0459317585
100
AcDbArc
 50
90.0
 51
174.0364298817
  0
ARC
  5
272
100
AcDbEntity
  8
0
100
AcDbCircle
 62
7
  6
CONTINUOUS
 10
5.087812309
 20
5.5090306579
 40
0.0459317585
100
AcDbArc
 50
5.9635701183
 51
90.0
  0
ARC
  5
273
100
AcDbEntity
  8
0
100
AcDbCircle
 62
7
  6
CONTINUOUS
 10
5.5193789362
 20
5.5090306579
 40
0.0459317585
100
AcDbArc
 50
90.0
 51
174.0364298817
  0
ARC
  5
274
100
AcDbEntity
  8
0
100
AcDbCircle
 62
7
  6
CONTINUOUS
 10
5.6389934114
 20
5.5090306579
 40
0.0459317585
100
AcDbArc
 50
5.9635701183
 51
90.0
  0
ARC
  5
275
100
AcDbEntity
  8
0
100
AcDbCircle
 62
7
  6
CONTINUOUS
 10
6.0705600386
 20
5.5090306579
 40
0.0459317585
100
AcDbArc
 50
90.0
 51
174.0364298817
  0
ARC
  5
276
100
AcDbEntity
  8
0
100
AcDbCircle
 62
7
  6
CONTINUOUS
 10
6.1901745137
 20
5.5090306579
 40
0.0459317585
100
AcDbArc
 50
5.9635701183
 51
90.0
  0
ARC
  5
277
100
AcDbEntity
  8
0
100
AcDbCircle
 62
7
  6
CONTINUOUS
 10
6.621741141
 20
5.5090306579
 40
0.0459317585
100
AcDbArc
 50
90.0
 51
174.0364298817
  0
ARC
  5
278
100
AcDbEntity
  8
0
100
AcDbCircle
 62
7
  6
CONTINUOUS
 10
6.7413556161
 20
5.5090306579
 40
0.0459317585
100
AcDbArc
 50
5.9635701183
 51
90.0
  0
ARC
  5
279
100
AcDbEntity
  8
0
100
AcDbCircle
 62
7
  6
CONTINUOUS
 10
7.1729222433
 20
5.5090306579
 40
0.0459317585
100
AcDbArc
 50
90.0
 51
174.0364298817
  0
ARC
  5
27A
100
AcDbEntity
  8
0
100
AcDbCircle
 62
7
  6
CONTINUOUS
 10
7.2925367185
 20
5.5090306579
 40
0.0459317585
100
AcDbArc
 50
5.9635701183
 51
90.0
  0
ARC
  5
27B
100
AcDbEntity
  8
0
100
AcDbCircle
 62
7
  6
CONTINUOUS
 10
7.7241033457
 20
5.5090306579
 40
0.0459317585
100
AcDbArc
 50
90.0
 51
174.0364298817
  0
SPLINE
  5
27C
100
AcDbEntity
  8
0
100
AcDbSpline
 62
7
  6
CONTINUOUS
 70
0
 71
3
 72
11
 73
7
 74
0
 42
0.0000001
 43
0.0000001
 44
0.0000000001
 40
0.0
 40
0.0
 40
0.0
 40
0.0
 40
0.2022220435
 40
0.4300655502
 40
0.6961869655
 40
1.0
 40
1.0
 40
1.0
 40
1.0
 10
14.2046465615
 20
11.9006801773
 30
0.0
 10
14.2053531587
 20
11.9029669532
 30
0.0
 10
14.2081153927
 20
11.9074895819
 30
0.0
 10
14.2150524508
 20
11.9122392898
 30
0.0
 10
14.2241515125
 20
11.91510071
 30
0.0
 10
14.2309236381
 20
11.9156706082
 30
0.0
 10
14.2345195004
 20
11.9156706082
 30
0.0
  0
SPLINE
  5
27D
100
AcDbEntity
  8
0
100
AcDbSpline
 62
7
  6
CONTINUOUS
 70
0
 71
3
 72
11
 73
7
 74
0
 42
0.0000001
 43
0.0000001
 44
0.0000000001
 40
0.0
 40
0.0
 40
0.0
 40
0.0
 40
0.2022220435
 40
0.4300655502
 40
0.6961869655
 40
1.0
 40
1.0
 40
1.0
 40
1.0
 10
14.7123179755
 20
11.9006801773
 30
0.0
 10
14.7130245727
 20
11.9029669532
 30
0.0
 10
14.7157868067
 20
11.9074895819
 30
0.0
 10
14.7227238648
 20
11.9122392898
 30
0.0
 10
14.7318229265
 20
11.91510071
 30
0.0
 10
14.7385950522
 20
11.9156706082
 30
0.0
 10
14.7421909144
 20
11.9156706082
 30
0.0
  0
SPLINE
  5
27E
100
AcDbEntity
  8
0
100
AcDbSpline
 62
7
  6
CONTINUOUS
 70
0
 71
3
 72
11
 73
7
 74
0
 42
0.0000001
 43
0.0000001
 44
0.0000000001
 40
0.0
 40
0.0
 40
0.0
 40
0.0
 40
0.2022220435
 40
0.4300655502
 40
0.6961869655
 40
1.0
 40
1.0
 40
1.0
 40
1.0
 10
15.2199893895
 20
11.9006801773
 30
0.0
 10
15.2206959868
 20
11.9029669532
 30
0.0
 10
15.2234582207
 20
11.9074895819
 30
0.0
 10
15.2303952788
 20
11.9122392898
 30
0.0
 10
15.2394943405
 20
11.91510071
 30
0.0
 10
15.2462664662
 20
11.9156706082
 30
0.0
 10
15.2498623284
 20
11.9156706082
 30
0.0
  0
SPLINE
  5
27F
100
AcDbEntity
  8
0
100
AcDbSpline
 62
7
  6
CONTINUOUS
 70
0
 71
3
 72
11
 73
7
 74
0
 42
0.0000001
 43
0.0000001
 44
0.0000000001
 40
0.0
 40
0.0
 40
0.0
 40
0.0
 40
0.2022220435
 40
0.4300655502
 40
0.6961869655
 40
1.0
 40
1.0
 40
1.0
 40
1.0
 10
15.7276608035
 20
11.9006801773
 30
0.0
 10
15.7283674008
 20
11.9029669532
 30
0.0
 10
15.7311296347
 20
11.9074895819
 30
0.0
 10
15.7380666928
 20
11.9122392898
 30
0.0
 10
15.7471657545
 20
11.91510071
 30
0.0
 10
15.7539378802
 20
11.9156706082
 30
0.0
 10
15.7575337425
 20
11.9156706082
 30
0.0
  0
SPLINE
  5
280
100
AcDbEntity
  8
0
100
AcDbSpline
 62
7
  6
CONTINUOUS
 70
0
 71
3
 72
11
 73
7
 74
0
 42
0.0000001
 43
0.0000001
 44
0.0000000001
 40
0.0
 40
0.0
 40
0.0
 40
0.0
 40
0.2022220435
 40
0.4300655502
 40
0.6961869655
 40
1.0
 40
1.0
 40
1.0
 40
1.0
 10
16.2353322175
 20
11.9006801773
 30
0.0
 10
16.2360388148
 20
11.9029669532
 30
0.0
 10
16.2388010488
 20
11.9074895819
 30
0.0
 10
16.2457381068
 20
11.9122392898
 30
0.0
 10
16.2548371685
 20
11.91510071
 30
0.0
 10
16.2616092942
 20
11.9156706082
 30
0.0
 10
16.2652051565
 20
11.9156706082
 30
0.0
  0
SPLINE
  5
281
100
AcDbEntity
  8
0
100
AcDbSpline
 62
7
  6
CONTINUOUS
 70
0
 71
3
 72
11
 73
7
 74
0
 42
0.0000001
 43
0.0000001
 44
0.0000000001
 40
0.0
 40
0.0
 40
0.0
 40
0.0
 40
0.2022220435
 40
0.4300655502
 40
0.6961869655
 40
1.0
 40
1.0
 40
1.0
 40
1.0
 10
16.7430036316
 20
11.9006801773
 30
0.0
 10
16.7437102288
 20
11.9029669532
 30
0.0
 10
16.7464724628
 20
11.9074895819
 30
0.0
 10
16.7534095209
 20
11.9122392898
 30
0.0
 10
16.7625085825
 20
11.91510071
 30
0.0
 10
16.7692807082
 20
11.9156706082
 30
0.0
 10
16.7728765705
 20
11.9156706082
 30
0.0
  0
SPLINE
  5
282
100
AcDbEntity
  8
0
100
AcDbSpline
 62
7
  6
CONTINUOUS
 70
0
 71
3
 72
11
 73
7
 74
0
 42
0.0000001
 43
0.0000001
 44
0.0000000001
 40
0.0
 40
0.0
 40
0.0
 40
0.0
 40
0.2600307243
 40
0.5283882632
 40
0.7814357695
 40
1.0
 40
1.0
 40
1.0
 40
1.0
 10
13.8370203137
 20
11.9156706082
 30
0.0
 10
13.8424240007
 20
11.9156706082
 30
0.0
 10
13.8534249939
 20
11.914282582
 30
0.0
 10
13.8688896976
 20
11.9089805104
 30
0.0
 10
13.8821820545
 20
11.9010358783
 30
0.0
 10
13.8891894483
 20
11.8939013673
 30
0.0
 10
13.8916527214
 20
11.8900853733
 30
0.0
  0
SPLINE
  5
283
100
AcDbEntity
  8
0
100
AcDbSpline
 62
7
  6
CONTINUOUS
 70
0
 71
3
 72
11
 73
7
 74
0
 42
0.0000001
 43
0.0000001
 44
0.0000000001
 40
0.0
 40
0.0
 40
0.0
 40
0.0
 40
0.2600307243
 40
0.5283882632
 40
0.7814357695
 40
1.0
 40
1.0
 40
1.0
 40
1.0
 10
14.3446917278
 20
11.9156706082
 30
0.0
 10
14.3500954147
 20
11.9156706082
 30
0.0
 10
14.3610964079
 20
11.914282582
 30
0.0
 10
14.3765611117
 20
11.9089805104
 30
0.0
 10
14.3898534686
 20
11.9010358783
 30
0.0
 10
14.3968608623
 20
11.8939013673
 30
0.0
 10
14.3993241354
 20
11.8900853733
 30
0.0
  0
SPLINE
  5
284
100
AcDbEntity
  8
0
100
AcDbSpline
 62
7
  6
CONTINUOUS
 70
0
 71
3
 72
9
 73
5
 74
0
 42
0.0000001
 43
0.0000001
 44
0.0000000001
 40
0.0
 40
0.0
 40
0.0
 40
0.0
 40
0.4746386337
 40
1.0
 40
1.0
 40
1.0
 40
1.0
 10
13.8916527214
 20
11.8900853733
 30
0.0
 10
13.9030883322
 20
11.8723698299
 30
0.0
 10
13.9314388011
 20
11.8377450174
 30
0.0
 10
13.9651616823
 20
11.8085426271
 30
0.0
 10
13.9838069357
 20
11.794504322
 30
0.0
  0
SPLINE
  5
285
100
AcDbEntity
  8
0
100
AcDbSpline
 62
7
  6
CONTINUOUS
 70
0
 71
3
 72
11
 73
7
 74
0
 42
0.0000001
 43
0.0000001
 44
0.0000000001
 40
0.0
 40
0.0
 40
0.0
 40
0.0
 40
0.3029377646
 40
0.5690852018
 40
0.7975948323
 40
1.0
 40
1.0
 40
1.0
 40
1.0
 10
16.7004393776
 20
11.7727492612
 30
0.0
 10
16.7057415292
 20
11.7727492612
 30
0.0
 10
16.7157393995
 20
11.7735766941
 30
0.0
 10
16.7292108317
 20
11.7777237863
 30
0.0
 10
16.7395708507
 20
11.7845929047
 30
0.0
 10
16.7438490162
 20
11.7911572065
 30
0.0
 10
16.7450095026
 20
11.794504322
 30
0.0
  0
SPLINE
  5
286
100
AcDbEntity
  8
0
100
AcDbSpline
 62
7
  6
CONTINUOUS
 70
0
 71
3
 72
9
 73
5
 74
0
 42
0.0000001
 43
0.0000001
 44
0.0000000001
 40
0.0
 40
0.0
 40
0.0
 40
0.0
 40
0.4970490335
 40
1.0
 40
1.0
 40
1.0
 40
1.0
 10
16.5221640057
 20
11.794504322
 30
0.0
 10
16.5314619576
 20
11.7875037476
 30
0.0
 10
16.5528602116
 20
11.7769583843
 30
0.0
 10
16.5763088733
 20
11.7727492612
 30
0.0
 10
16.5880857973
 20
11.7727492612
 30
0.0
  0
SPLINE
  5
287
100
AcDbEntity
  8
0
100
AcDbSpline
 62
7
  6
CONTINUOUS
 70
0
 71
3
 72
9
 73
5
 74
0
 42
0.0000001
 43
0.0000001
 44
0.0000000001
 40
0.0
 40
0.0
 40
0.0
 40
0.0
 40
0.474639384
 40
1.0
 40
1.0
 40
1.0
 40
1.0
 10
16.4300097915
 20
11.8900853733
 30
0.0
 10
16.4414454167
 20
11.8723698076
 30
0.0
 10
16.4697962524
 20
11.8377453307
 30
0.0
 10
16.503518785
 20
11.8085426025
 30
0.0
 10
16.5221640057
 20
11.794504322
 30
0.0
  0
SPLINE
  5
288
100
AcDbEntity
  8
0
100
AcDbSpline
 62
7
  6
CONTINUOUS
 70
0
 71
3
 72
11
 73
7
 74
0
 42
0.0000001
 43
0.0000001
 44
0.0000000001
 40
0.0
 40
0.0
 40
0.0
 40
0.0
 40
0.3029377646
 40
0.5690852018
 40
0.7975948323
 40
1.0
 40
1.0
 40
1.0
 40
1.0
 10
16.1927679635
 20
11.7727492612
 30
0.0
 10
16.1980701152
 20
11.7727492612
 30
0.0
 10
16.2080679855
 20
11.7735766941
 30
0.0
 10
16.2215394177
 20
11.7777237863
 30
0.0
 10
16.2318994367
 20
11.7845929047
 30
0.0
 10
16.2361776022
 20
11.7911572065
 30
0.0
 10
16.2373380886
 20
11.794504322
 30
0.0
  0
SPLINE
  5
289
100
AcDbEntity
  8
0
100
AcDbSpline
 62
7
  6
CONTINUOUS
 70
0
 71
3
 72
9
 73
5
 74
0
 42
0.0000001
 43
0.0000001
 44
0.0000000001
 40
0.0
 40
0.0
 40
0.0
 40
0.0
 40
0.4970490335
 40
1.0
 40
1.0
 40
1.0
 40
1.0
 10
16.0144925917
 20
11.794504322
 30
0.0
 10
16.0237905436
 20
11.7875037476
 30
0.0
 10
16.0451887976
 20
11.7769583843
 30
0.0
 10
16.0686374593
 20
11.7727492612
 30
0.0
 10
16.0804143833
 20
11.7727492612
 30
0.0
  0
SPLINE
  5
28A
100
AcDbEntity
  8
0
100
AcDbSpline
 62
7
  6
CONTINUOUS
 70
0
 71
3
 72
9
 73
5
 74
0
 42
0.0000001
 43
0.0000001
 44
0.0000000001
 40
0.0
 40
0.0
 40
0.0
 40
0.0
 40
0.4746394405
 40
1.0
 40
1.0
 40
1.0
 40
1.0
 10
15.9223383774
 20
11.8900853733
 30
0.0
 10
15.933774004
 20
11.8723698055
 30
0.0
 10
15.9621248402
 20
11.8377453289
 30
0.0
 10
15.995847373
 20
11.808542601
 30
0.0
 10
16.0144925917
 20
11.794504322
 30
0.0
  0
SPLINE
  5
28B
100
AcDbEntity
  8
0
100
AcDbSpline
 62
7
  6
CONTINUOUS
 70
0
 71
3
 72
11
 73
7
 74
0
 42
0.0000001
 43
0.0000001
 44
0.0000000001
 40
0.0
 40
0.0
 40
0.0
 40
0.0
 40
0.3029377646
 40
0.5690852018
 40
0.7975948323
 40
1.0
 40
1.0
 40
1.0
 40
1.0
 10
15.6850965495
 20
11.7727492612
 30
0.0
 10
15.6903987011
 20
11.7727492612
 30
0.0
 10
15.7003965715
 20
11.7735766941
 30
0.0
 10
15.7138680036
 20
11.7777237863
 30
0.0
 10
15.7242280227
 20
11.7845929047
 30
0.0
 10
15.7285061882
 20
11.7911572065
 30
0.0
 10
15.7296666746
 20
11.794504322
 30
0.0
  0
SPLINE
  5
28C
100
AcDbEntity
  8
0
100
AcDbSpline
 62
7
  6
CONTINUOUS
 70
0
 71
3
 72
9
 73
5
 74
0
 42
0.0000001
 43
0.0000001
 44
0.0000000001
 40
0.0
 40
0.0
 40
0.0
 40
0.0
 40
0.4970490335
 40
1.0
 40
1.0
 40
1.0
 40
1.0
 10
15.5068211777
 20
11.794504322
 30
0.0
 10
15.5161191296
 20
11.7875037476
 30
0.0
 10
15.5375173835
 20
11.7769583843
 30
0.0
 10
15.5609660453
 20
11.7727492612
 30
0.0
 10
15.5727429693
 20
11.7727492612
 30
0.0
  0
SPLINE
  5
28D
100
AcDbEntity
  8
0
100
AcDbSpline
 62
7
  6
CONTINUOUS
 70
0
 71
3
 72
9
 73
5
 74
0
 42
0.0000001
 43
0.0000001
 44
0.0000000001
 40
0.0
 40
0.0
 40
0.0
 40
0.0
 40
0.4746394405
 40
1.0
 40
1.0
 40
1.0
 40
1.0
 10
15.4146669634
 20
11.8900853733
 30
0.0
 10
15.42610259
 20
11.8723698055
 30
0.0
 10
15.4544534262
 20
11.8377453289
 30
0.0
 10
15.4881759589
 20
11.808542601
 30
0.0
 10
15.5068211777
 20
11.794504322
 30
0.0
  0
SPLINE
  5
28E
100
AcDbEntity
  8
0
100
AcDbSpline
 62
7
  6
CONTINUOUS
 70
0
 71
3
 72
11
 73
7
 74
0
 42
0.0000001
 43
0.0000001
 44
0.0000000001
 40
0.0
 40
0.0
 40
0.0
 40
0.0
 40
0.3029377646
 40
0.5690852018
 40
0.7975948323
 40
1.0
 40
1.0
 40
1.0
 40
1.0
 10
15.1774251355
 20
11.7727492612
 30
0.0
 10
15.1827272871
 20
11.7727492612
 30
0.0
 10
15.1927251574
 20
11.7735766941
 30
0.0
 10
15.2061965896
 20
11.7777237863
 30
0.0
 10
15.2165566086
 20
11.7845929047
 30
0.0
 10
15.2208347741
 20
11.7911572065
 30
0.0
 10
15.2219952606
 20
11.794504322
 30
0.0
  0
SPLINE
  5
28F
100
AcDbEntity
  8
0
100
AcDbSpline
 62
7
  6
CONTINUOUS
 70
0
 71
3
 72
9
 73
5
 74
0
 42
0.0000001
 43
0.0000001
 44
0.0000000001
 40
0.0
 40
0.0
 40
0.0
 40
0.0
 40
0.4970490335
 40
1.0
 40
1.0
 40
1.0
 40
1.0
 10
14.9991497637
 20
11.794504322
 30
0.0
 10
15.0084477156
 20
11.7875037476
 30
0.0
 10
15.0298459695
 20
11.7769583843
 30
0.0
 10
15.0532946313
 20
11.7727492612
 30
0.0
 10
15.0650715553
 20
11.7727492612
 30
0.0
  0
SPLINE
  5
290
100
AcDbEntity
  8
0
100
AcDbSpline
 62
7
  6
CONTINUOUS
 70
0
 71
3
 72
9
 73
5
 74
0
 42
0.0000001
 43
0.0000001
 44
0.0000000001
 40
0.0
 40
0.0
 40
0.0
 40
0.0
 40
0.4746386337
 40
1.0
 40
1.0
 40
1.0
 40
1.0
 10
14.9069955494
 20
11.8900853733
 30
0.0
 10
14.9184311602
 20
11.8723698299
 30
0.0
 10
14.9467816291
 20
11.8377450174
 30
0.0
 10
14.9805045103
 20
11.8085426271
 30
0.0
 10
14.9991497637
 20
11.794504322
 30
0.0
  0
SPLINE
  5
291
100
AcDbEntity
  8
0
100
AcDbSpline
 62
7
  6
CONTINUOUS
 70
0
 71
3
 72
11
 73
7
 74
0
 42
0.0000001
 43
0.0000001
 44
0.0000000001
 40
0.0
 40
0.0
 40
0.0
 40
0.0
 40
0.3029377646
 40
0.5690852018
 40
0.7975948323
 40
1.0
 40
1.0
 40
1.0
 40
1.0
 10
14.6697537215
 20
11.7727492612
 30
0.0
 10
14.6750558731
 20
11.7727492612
 30
0.0
 10
14.6850537434
 20
11.7735766941
 30
0.0
 10
14.6985251756
 20
11.7777237863
 30
0.0
 10
14.7088851946
 20
11.7845929047
 30
0.0
 10
14.7131633601
 20
11.7911572065
 30
0.0
 10
14.7143238466
 20
11.794504322
 30
0.0
  0
SPLINE
  5
292
100
AcDbEntity
  8
0
100
AcDbSpline
 62
7
  6
CONTINUOUS
 70
0
 71
3
 72
9
 73
5
 74
0
 42
0.0000001
 43
0.0000001
 44
0.0000000001
 40
0.0
 40
0.0
 40
0.0
 40
0.0
 40
0.4970490335
 40
1.0
 40
1.0
 40
1.0
 40
1.0
 10
14.4914783497
 20
11.794504322
 30
0.0
 10
14.5007763016
 20
11.7875037476
 30
0.0
 10
14.5221745555
 20
11.7769583843
 30
0.0
 10
14.5456232173
 20
11.7727492612
 30
0.0
 10
14.5574001413
 20
11.7727492612
 30
0.0
  0
SPLINE
  5
293
100
AcDbEntity
  8
0
100
AcDbSpline
 62
7
  6
CONTINUOUS
 70
0
 71
3
 72
9
 73
5
 74
0
 42
0.0000001
 43
0.0000001
 44
0.0000000001
 40
0.0
 40
0.0
 40
0.0
 40
0.0
 40
0.4746386337
 40
1.0
 40
1.0
 40
1.0
 40
1.0
 10
14.3993241354
 20
11.8900853733
 30
0.0
 10
14.4107597462
 20
11.8723698299
 30
0.0
 10
14.4391102151
 20
11.8377450174
 30
0.0
 10
14.4728330963
 20
11.8085426271
 30
0.0
 10
14.4914783497
 20
11.794504322
 30
0.0
  0
SPLINE
  5
294
100
AcDbEntity
  8
0
100
AcDbSpline
 62
7
  6
CONTINUOUS
 70
0
 71
3
 72
11
 73
7
 74
0
 42
0.0000001
 43
0.0000001
 44
0.0000000001
 40
0.0
 40
0.0
 40
0.0
 40
0.0
 40
0.3029377646
 40
0.5690852018
 40
0.7975948323
 40
1.0
 40
1.0
 40
1.0
 40
1.0
 10
14.1620823075
 20
11.7727492612
 30
0.0
 10
14.1673844591
 20
11.7727492612
 30
0.0
 10
14.1773823294
 20
11.7735766941
 30
0.0
 10
14.1908537616
 20
11.7777237863
 30
0.0
 10
14.2012137806
 20
11.7845929047
 30
0.0
 10
14.2054919461
 20
11.7911572065
 30
0.0
 10
14.2066524325
 20
11.794504322
 30
0.0
  0
SPLINE
  5
295
100
AcDbEntity
  8
0
100
AcDbSpline
 62
7
  6
CONTINUOUS
 70
0
 71
3
 72
9
 73
5
 74
0
 42
0.0000001
 43
0.0000001
 44
0.0000000001
 40
0.0
 40
0.0
 40
0.0
 40
0.0
 40
0.4970490335
 40
1.0
 40
1.0
 40
1.0
 40
1.0
 10
13.9838069357
 20
11.794504322
 30
0.0
 10
13.9931048875
 20
11.7875037476
 30
0.0
 10
14.0145031415
 20
11.7769583843
 30
0.0
 10
14.0379518032
 20
11.7727492612
 30
0.0
 10
14.0497287272
 20
11.7727492612
 30
0.0
  0
SPLINE
  5
296
100
AcDbEntity
  8
0
100
AcDbSpline
 62
7
  6
CONTINUOUS
 70
0
 71
3
 72
11
 73
7
 74
0
 42
0.0000001
 43
0.0000001
 44
0.0000000001
 40
0.0
 40
0.0
 40
0.0
 40
0.0
 40
0.2600307243
 40
0.5283882632
 40
0.7814357695
 40
1.0
 40
1.0
 40
1.0
 40
1.0
 10
14.8523631418
 20
11.9156706082
 30
0.0
 10
14.8577668288
 20
11.9156706082
 30
0.0
 10
14.8687678219
 20
11.914282582
 30
0.0
 10
14.8842325257
 20
11.9089805104
 30
0.0
 10
14.8975248826
 20
11.9010358783
 30
0.0
 10
14.9045322763
 20
11.8939013673
 30
0.0
 10
14.9069955494
 20
11.8900853733
 30
0.0
  0
SPLINE
  5
297
100
AcDbEntity
  8
0
100
AcDbSpline
 62
7
  6
CONTINUOUS
 70
0
 71
3
 72
11
 73
7
 74
0
 42
0.0000001
 43
0.0000001
 44
0.0000000001
 40
0.0
 40
0.0
 40
0.0
 40
0.0
 40
0.2600307243
 40
0.5283882632
 40
0.7814357695
 40
1.0
 40
1.0
 40
1.0
 40
1.0
 10
15.3600345558
 20
11.9156706082
 30
0.0
 10
15.3654382428
 20
11.9156706082
 30
0.0
 10
15.3764392359
 20
11.914282582
 30
0.0
 10
15.3919039397
 20
11.9089805104
 30
0.0
 10
15.4051962966
 20
11.9010358783
 30
0.0
 10
15.4122036903
 20
11.8939013673
 30
0.0
 10
15.4146669634
 20
11.8900853733
 30
0.0
  0
SPLINE
  5
298
100
AcDbEntity
  8
0
100
AcDbSpline
 62
7
  6
CONTINUOUS
 70
0
 71
3
 72
11
 73
7
 74
0
 42
0.0000001
 43
0.0000001
 44
0.0000000001
 40
0.0
 40
0.0
 40
0.0
 40
0.0
 40
0.2600307243
 40
0.5283882632
 40
0.7814357695
 40
1.0
 40
1.0
 40
1.0
 40
1.0
 10
15.8677059698
 20
11.9156706082
 30
0.0
 10
15.8731096568
 20
11.9156706082
 30
0.0
 10
15.88411065
 20
11.914282582
 30
0.0
 10
15.8995753537
 20
11.9089805104
 30
0.0
 10
15.9128677106
 20
11.9010358783
 30
0.0
 10
15.9198751043
 20
11.8939013673
 30
0.0
 10
15.9223383774
 20
11.8900853733
 30
0.0
  0
SPLINE
  5
299
100
AcDbEntity
  8
0
100
AcDbSpline
 62
7
  6
CONTINUOUS
 70
0
 71
3
 72
11
 73
7
 74
0
 42
0.0000001
 43
0.0000001
 44
0.0000000001
 40
0.0
 40
0.0
 40
0.0
 40
0.0
 40
0.2600307243
 40
0.5283882632
 40
0.7814357695
 40
1.0
 40
1.0
 40
1.0
 40
1.0
 10
16.3753773838
 20
11.9156706082
 30
0.0
 10
16.3807810708
 20
11.9156706082
 30
0.0
 10
16.391782064
 20
11.914282582
 30
0.0
 10
16.4072467677
 20
11.9089805104
 30
0.0
 10
16.4205391246
 20
11.9010358783
 30
0.0
 10
16.4275465184
 20
11.8939013673
 30
0.0
 10
16.4300097915
 20
11.8900853733
 30
0.0
  0
SPLINE
  5
29A
100
AcDbEntity
  8
0
100
AcDbSpline
 62
7
  6
CONTINUOUS
 70
0
 71
3
 72
10
 73
6
 74
0
 42
0.0000001
 43
0.0000001
 44
0.0000000001
 40
0.0
 40
0.0
 40
0.0
 40
0.0
 40
0.2394923405
 40
0.4835465886
 40
1.0
 40
1.0
 40
1.0
 40
1.0
 10
16.238714845
 20
11.7987050164
 30
0.0
 10
16.2409004006
 20
11.8057782379
 30
0.0
 10
16.2440880171
 20
11.8204730072
 30
0.0
 10
16.2454941311
 20
11.8514621224
 30
0.0
 10
16.2407675693
 20
11.8749519226
 30
0.0
 10
16.2356835682
 20
11.8900853733
 30
0.0
  0
SPLINE
  5
29B
100
AcDbEntity
  8
0
100
AcDbSpline
 62
7
  6
CONTINUOUS
 70
0
 71
3
 72
9
 73
5
 74
0
 42
0.0000001
 43
0.0000001
 44
0.0000000001
 40
0.0
 40
0.0
 40
0.0
 40
0.0
 40
0.5171840988
 40
1.0
 40
1.0
 40
1.0
 40
1.0
 10
15.7280121542
 20
11.8900853733
 30
0.0
 10
15.7274228752
 20
11.8918394689
 30
0.0
 10
15.7266994116
 20
11.8954013204
 30
0.0
 10
15.7271508196
 20
11.8990297054
 30
0.0
 10
15.7276608035
 20
11.9006801773
 30
0.0
  0
SPLINE
  5
29C
100
AcDbEntity
  8
0
100
AcDbSpline
 62
7
  6
CONTINUOUS
 70
0
 71
3
 72
9
 73
5
 74
0
 42
0.0000001
 43
0.0000001
 44
0.0000000001
 40
0.0
 40
0.0
 40
0.0
 40
0.0
 40
0.5171840988
 40
1.0
 40
1.0
 40
1.0
 40
1.0
 10
14.2049979121
 20
11.8900853733
 30
0.0
 10
14.2044086332
 20
11.8918394689
 30
0.0
 10
14.2036851695
 20
11.8954013204
 30
0.0
 10
14.2041365776
 20
11.8990297054
 30
0.0
 10
14.2046465615
 20
11.9006801773
 30
0.0
  0
SPLINE
  5
29D
100
AcDbEntity
  8
0
100
AcDbSpline
 62
7
  6
CONTINUOUS
 70
0
 71
3
 72
9
 73
5
 74
0
 42
0.0000001
 43
0.0000001
 44
0.0000000001
 40
0.0
 40
0.0
 40
0.0
 40
0.0
 40
0.5171840988
 40
1.0
 40
1.0
 40
1.0
 40
1.0
 10
16.2356835682
 20
11.8900853733
 30
0.0
 10
16.2350942893
 20
11.8918394689
 30
0.0
 10
16.2343708256
 20
11.8954013204
 30
0.0
 10
16.2348222336
 20
11.8990297054
 30
0.0
 10
16.2353322175
 20
11.9006801773
 30
0.0
  0
SPLINE
  5
29E
100
AcDbEntity
  8
0
100
AcDbSpline
 62
7
  6
CONTINUOUS
 70
0
 71
3
 72
10
 73
6
 74
0
 42
0.0000001
 43
0.0000001
 44
0.0000000001
 40
0.0
 40
0.0
 40
0.0
 40
0.0
 40
0.2394889445
 40
0.4835516515
 40
1.0
 40
1.0
 40
1.0
 40
1.0
 10
14.7157004986
 20
11.7987050484
 30
0.0
 10
14.7178857072
 20
11.8057782678
 30
0.0
 10
14.7210731288
 20
11.8204731461
 30
0.0
 10
14.722480945
 20
11.8514622392
 30
0.0
 10
14.7177532779
 20
11.8749520697
 30
0.0
 10
14.7126693262
 20
11.8900853733
 30
0.0
  0
SPLINE
  5
29F
100
AcDbEntity
  8
0
100
AcDbSpline
 62
7
  6
CONTINUOUS
 70
0
 71
3
 72
9
 73
5
 74
0
 42
0.0000001
 43
0.0000001
 44
0.0000000001
 40
0.0
 40
0.0
 40
0.0
 40
0.0
 40
0.5171840988
 40
1.0
 40
1.0
 40
1.0
 40
1.0
 10
16.7433549822
 20
11.8900853733
 30
0.0
 10
16.7427657033
 20
11.8918394689
 30
0.0
 10
16.7420422396
 20
11.8954013204
 30
0.0
 10
16.7424936476
 20
11.8990297054
 30
0.0
 10
16.7430036316
 20
11.9006801773
 30
0.0
  0
SPLINE
  5
2A0
100
AcDbEntity
  8
0
100
AcDbSpline
 62
7
  6
CONTINUOUS
 70
0
 71
3
 72
10
 73
6
 74
0
 42
0.0000001
 43
0.0000001
 44
0.0000000001
 40
0.0
 40
0.0
 40
0.0
 40
0.0
 40
0.2394923405
 40
0.4835465886
 40
1.0
 40
1.0
 40
1.0
 40
1.0
 10
15.7310434309
 20
11.7987050164
 30
0.0
 10
15.7332289866
 20
11.8057782379
 30
0.0
 10
15.7364166031
 20
11.8204730072
 30
0.0
 10
15.7378227171
 20
11.8514621224
 30
0.0
 10
15.7330961553
 20
11.8749519226
 30
0.0
 10
15.7280121542
 20
11.8900853733
 30
0.0
  0
SPLINE
  5
2A1
100
AcDbEntity
  8
0
100
AcDbSpline
 62
7
  6
CONTINUOUS
 70
0
 71
3
 72
10
 73
6
 74
0
 42
0.0000001
 43
0.0000001
 44
0.0000000001
 40
0.0
 40
0.0
 40
0.0
 40
0.0
 40
0.2394923449
 40
0.4835466497
 40
1.0
 40
1.0
 40
1.0
 40
1.0
 10
16.746386259
 20
11.7987050164
 30
0.0
 10
16.7485718148
 20
11.805778238
 30
0.0
 10
16.7517594313
 20
11.8204730093
 30
0.0
 10
16.7531655452
 20
11.8514621245
 30
0.0
 10
16.7484389828
 20
11.8749519244
 30
0.0
 10
16.7433549822
 20
11.8900853733
 30
0.0
  0
SPLINE
  5
2A2
100
AcDbEntity
  8
0
100
AcDbSpline
 62
7
  6
CONTINUOUS
 70
0
 71
3
 72
10
 73
6
 74
0
 42
0.0000001
 43
0.0000001
 44
0.0000000001
 40
0.0
 40
0.0
 40
0.0
 40
0.0
 40
0.2394889445
 40
0.4835516515
 40
1.0
 40
1.0
 40
1.0
 40
1.0
 10
15.2233719126
 20
11.7987050484
 30
0.0
 10
15.2255571212
 20
11.8057782678
 30
0.0
 10
15.2287445429
 20
11.8204731461
 30
0.0
 10
15.230152359
 20
11.8514622392
 30
0.0
 10
15.2254246919
 20
11.8749520697
 30
0.0
 10
15.2203407402
 20
11.8900853733
 30
0.0
  0
SPLINE
  5
2A3
100
AcDbEntity
  8
0
100
AcDbSpline
 62
7
  6
CONTINUOUS
 70
0
 71
3
 72
9
 73
5
 74
0
 42
0.0000001
 43
0.0000001
 44
0.0000000001
 40
0.0
 40
0.0
 40
0.0
 40
0.0
 40
0.5171840988
 40
1.0
 40
1.0
 40
1.0
 40
1.0
 10
14.7126693262
 20
11.8900853733
 30
0.0
 10
14.7120800472
 20
11.8918394689
 30
0.0
 10
14.7113565835
 20
11.8954013204
 30
0.0
 10
14.7118079916
 20
11.8990297054
 30
0.0
 10
14.7123179755
 20
11.9006801773
 30
0.0
  0
SPLINE
  5
2A4
100
AcDbEntity
  8
0
100
AcDbSpline
 62
7
  6
CONTINUOUS
 70
0
 71
3
 72
10
 73
6
 74
0
 42
0.0000001
 43
0.0000001
 44
0.0000000001
 40
0.0
 40
0.0
 40
0.0
 40
0.0
 40
0.2394889445
 40
0.4835516515
 40
1.0
 40
1.0
 40
1.0
 40
1.0
 10
14.2080290846
 20
11.7987050484
 30
0.0
 10
14.2102142932
 20
11.8057782678
 30
0.0
 10
14.2134017148
 20
11.8204731461
 30
0.0
 10
14.214809531
 20
11.8514622392
 30
0.0
 10
14.2100818638
 20
11.8749520697
 30
0.0
 10
14.2049979121
 20
11.8900853733
 30
0.0
  0
SPLINE
  5
2A5
100
AcDbEntity
  8
0
100
AcDbSpline
 62
7
  6
CONTINUOUS
 70
0
 71
3
 72
9
 73
5
 74
0
 42
0.0000001
 43
0.0000001
 44
0.0000000001
 40
0.0
 40
0.0
 40
0.0
 40
0.0
 40
0.5171840988
 40
1.0
 40
1.0
 40
1.0
 40
1.0
 10
15.2203407402
 20
11.8900853733
 30
0.0
 10
15.2197514612
 20
11.8918394689
 30
0.0
 10
15.2190279975
 20
11.8954013204
 30
0.0
 10
15.2194794056
 20
11.8990297054
 30
0.0
 10
15.2199893895
 20
11.9006801773
 30
0.0
  0
ENDSEC
  0
SECTION
  2
OBJECTS
  0
DICTIONARY
  5
C
100
AcDbDictionary
280
0
281
1
  3
ACAD_GROUP
350
D
  3
ACAD_MLINESTYLE
350
17
  3
ACAD_LAYOUT
350
1A
  3
ACAD_PLOTSETTINGS
350
19
  3
ACAD_PLOTSTYLENAME
350
E
  0
DICTIONARY
  5
D
102
{ACAD_REACTORS
330
C
102
}
100
AcDbDictionary
280
0
281
1
  0
ACDBDICTIONARYWDFLT
  5
E
102
{ACAD_REACTORS
330
C
102
}
100
AcDbDictionary
281
1
  3
Normal
350
F
100
AcDbDictionaryWithDefault
340
F
  0
DICTIONARY
  5
17
102
{ACAD_REACTORS
330
C
102
}
100
AcDbDictionary
280
0
281
1
  3
Standard
350
18
  0
DICTIONARY
  5
19
102
{ACAD_REACTORS
330
C
102
}
100
AcDbDictionary
281
1
  0
DICTIONARY
  5
1A
102
{ACAD_REACTORS
330
C
102
}
100
AcDbDictionary
281
1
  3
Model
350
2A6
  3
Layout1
350
2A7
  0
ACDBPLACEHOLDER
  5
F
102
{ACAD_REACTORS
330
E
102
}
  0
MLINESTYLE
  5
18
102
{ACAD_REACTORS
330
17
102
}
100
AcDbMlineStyle
  2
STANDARD
 70
0
  3

 62
256
 51
90.0
 52
90.0
 71
2
 49
0.5
 62
256
  6
BYLAYER
 49
-0.5
 62
256
  6
BYLAYER
  0
LAYOUT
  5
2A6
102
{ACAD_REACTORS
330
1A
102
}
100
AcDbPlotSettings
  1

  2
none_device
  4
ANSI_C_(22.00_x_17.00_Inches)
  6

 40
0.0
 41
0.0
 42
0.0
 43
0.0
 44
558.8
 45
431.8
 46
0.0
 47
0.0
 48
0.0
 49
0.0
140
0.0
141
0.0
142
1.0
143
1.0
 70
1024
 72
0
 73
0
 74
0
  7

 75
0
147
1.0
148
0.0
149
0.0
100
AcDbLayout
  1
Model
 70
0
 71
0
 10
0.0
 20
0.0
 11
22.0
 21
17.0
 12
0.0
 22
0.0
 32
0.0
 14
0.0
 24
0.0
 34
0.0
 15
0.0
 25
0.0
 35
0.0
146
0.0
 13
0.0
 23
0.0
 33
0.0
 16
1.0
 26
0.0
 36
0.0
 17
0.0
 27
1.0
 37
0.0
 76
0
330
216
345
0
346
0
  0
LAYOUT
  5
2A7
102
{ACAD_REACTORS
330
1A
102
}
100
AcDbPlotSettings
  1

  2
none_device
  4
ANSI_C_(22.00_x_17.00_Inches)
  6

 40
0.0
 41
0.0
 42
0.0
 43
0.0
 44
558.8
 45
431.8
 46
0.0
 47
0.0
 48
0.0
 49
0.0
140
0.0
141
0.0
142
1.0
143
1.0
 70
0
 72
0
 73
0
 74
0
  7

 75
0
147
1.0
148
0.0
149
0.0
100
AcDbLayout
  1
Layout1
 70
0
 71
1
 10
0.0
 20
0.0
 11
22.0
 21
17.0
 12
0.0
 22
0.0
 32
0.0
 14
0.0
 24
0.0
 34
0.0
 15
0.0
 25
0.0
 35
0.0
146
0.0
 13
0.0
 23
0.0
 33
0.0
 16
1.0
 26
0.0
 36
0.0
 17
0.0
 27
1.0
 37
0.0
 76
0
330
217
345
0
346
0
  0
ENDSEC
  0
EOF