999
DXF file: _cgs_temp_output.dxf
999
Pro/ENGINEER 2016360 by Parametric Technology Corporation
  0
SECTION
  2
HEADER
  9
$ACADVER
  1
AC1021
  9
$DWGCODEPAGE
  3
ANSI_1252
  9
$EXTMAX
 10
22.0
 20
17.0
 30
0.0
  9
$EXTMIN
 10
0.0
 20
0.0
 30
0.0
  9
$LIMMIN
 10
0.0
 20
0.0
  9
$LIMMAX
 10
22.0
 20
17.0
  9
$VIEWCTR
 10
11.0
 20
8.5
  9
$VIEWSIZE
 40
17.0
  9
$CLAYER
  8
0
  9
$LTSCALE
 40
1.21
  9
$CELTYPE
  6
BYLAYER
  9
$DIMSCALE
 40
1.0
  9
$DIMASZ
 40
0.1875
  9
$DIMEXO
 40
0.0625
  9
$DIMDLI
 40
0.836
  9
$DIMEXE
 40
0.125
  9
$DIMCEN
 40
0.198
  9
$DIMLFAC
 40
1.0
  9
$DIMBLK
  1
_CLOSED
  9
$DIMALT
 70
0
  9
$DIMALTF
 40
25.4
  9
$DIMTXT
 40
0.15625
  9
$DIMTOL
 70
0
  9
$DIMLIM
 70
0
  9
$DIMTFAC
 40
1.0
  9
$DIMGAP
 40
0.09
  9
$DIMDSEP
 70
46
  9
$AUNITS
 70
0
  9
$PDMODE
 70
3
  9
$PDSIZE
 40
0.3125
  9
$HANDSEED
  5
316
  9
$TILEMODE
 70
1
  9
$MEASUREMENT
 70
0
  9
$INSUNITS
 70
1
  0
ENDSEC
  0
SECTION
  2
CLASSES
  0
CLASS
  1
ACDBDICTIONARYWDFLT
  2
AcDbDictionaryWithDefault
  3
AutoCAD 2000
 90
0
 91
1
280
0
281
0
  0
CLASS
  1
ACDBPLACEHOLDER
  2
AcDbPlaceHolder
  3
AutoCAD 2000
 90
0
 91
1
280
0
281
0
  0
CLASS
  1
LAYOUT
  2
AcDbLayout
  3
AutoCAD 2000
 90
0
 91
0
280
0
281
0
  0
ENDSEC
  0
SECTION
  2
TABLES
  0
TABLE
  2
VPORT
  5
8
100
AcDbSymbolTable
 70
2
  0
VPORT
  5
1F4
100
AcDbSymbolTableRecord
100
AcDbViewportTableRecord
  2
*ACTIVE
 70
0
 10
0.0
 20
0.0
 11
1.0
 21
1.0
 12
11.0
 22
8.5
 13
0.0
 23
0.0
 14
1.0
 24
1.0
 15
0.0
 25
0.0
 16
0.0
 26
0.0
 36
1.0
 17
0.0
 27
0.0
 37
0.0
 40
17.0
 41
1.2941176471
 42
50.0
 43
0.0
 44
0.0
 50
0.0
 51
0.0
 71
0
 72
100
 73
1
 74
1
 75
0
 76
0
 77
0
 78
0
  0
ENDTAB
  0
TABLE
  2
LTYPE
  5
5
100
AcDbSymbolTable
 70
6
  0
LTYPE
  5
14
100
AcDbSymbolTableRecord
100
AcDbLinetypeTableRecord
  2
BYBLOCK
 70
0
  3

 72
65
 73
0
 40
0.0
  0
LTYPE
  5
15
100
AcDbSymbolTableRecord
100
AcDbLinetypeTableRecord
  2
BYLAYER
 70
0
  3

 72
65
 73
0
 40
0.0
  0
LTYPE
  5
16
100
AcDbSymbolTableRecord
100
AcDbLinetypeTableRecord
  2
CONTINUOUS
 70
64
  3
Solid line
 72
65
 73
0
 40
0.0
  0
LTYPE
  5
1F5
100
AcDbSymbolTableRecord
100
AcDbLinetypeTableRecord
  2
CENTER
 70
64
  3
____ _ ____ _ ____ _ ____ _ ____ _ ____ _ ____
 72
65
 73
4
 40
0.6
 49
0.375
 74
0
 49
-0.075
 74
0
 49
0.075
 74
0
 49
-0.075
 74
0
  0
LTYPE
  5
1F6
100
AcDbSymbolTableRecord
100
AcDbLinetypeTableRecord
  2
HIDDEN
 70
64
  3
- - - - - - - - - - - - - - - - - - - -
 72
65
 73
2
 40
0.2
 49
0.1
 74
0
 49
-0.1
 74
0
  0
LTYPE
  5
1F7
100
AcDbSymbolTableRecord
100
AcDbLinetypeTableRecord
  2
PHANTOM
 70
64
  3
_____ _ _ _____ _ _ _____ _ _ _____
 72
65
 73
6
 40
0.8
 49
0.45
 74
0
 49
-0.05
 74
0
 49
0.1
 74
0
 49
-0.05
 74
0
 49
0.1
 74
0
 49
-0.05
 74
0
  0
LTYPE
  5
1F8
100
AcDbSymbolTableRecord
100
AcDbLinetypeTableRecord
  2
DOT
 70
64
  3
. . . . . . . . . . . . . . . . . . . .
 72
65
 73
2
 40
0.2
 49
0.1
 74
0
 49
-0.1
 74
0
  0
LTYPE
  5
1F9
100
AcDbSymbolTableRecord
100
AcDbLinetypeTableRecord
  2
DASHED
 70
64
  3
- - - - - - - - - - - - - - - - - - - -
 72
65
 73
2
 40
0.2
 49
0.1
 74
0
 49
-0.1
 74
0
  0
ENDTAB
  0
TABLE
  2
LAYER
  5
2
100
AcDbSymbolTable
 70
36
  0
LAYER
  5
10
100
AcDbSymbolTableRecord
100
AcDbLayerTableRecord
  2
0
 70
0
 62
7
  6
CONTINUOUS
370
-3
390
F
  0
LAYER
  5
1FA
100
AcDbSymbolTableRecord
100
AcDbLayerTableRecord
  2
DEFAULT_1
 70
0
 62
7
  6
CENTER
370
-3
390
F
  0
LAYER
  5
1FB
100
AcDbSymbolTableRecord
100
AcDbLayerTableRecord
  2
DEFAULT_2
 70
0
 62
8
  6
HIDDEN
370
-3
390
F
  0
LAYER
  5
1FC
100
AcDbSymbolTableRecord
100
AcDbLayerTableRecord
  2
DEFAULT_3
 70
0
 62
7
  6
PHANTOM
370
-3
390
F
  0
LAYER
  5
1FD
100
AcDbSymbolTableRecord
100
AcDbLayerTableRecord
  2
01_ALL_DTM_PLN
 70
0
 62
7
  6
CONTINUOUS
370
-3
390
F
  0
LAYER
  5
1FE
100
AcDbSymbolTableRecord
100
AcDbLayerTableRecord
  2
01__ASM_ALL_DTM_PLN
 70
0
 62
7
  6
CONTINUOUS
370
-3
390
F
  0
LAYER
  5
1FF
100
AcDbSymbolTableRecord
100
AcDbLayerTableRecord
  2
01__ASM_DEF_DTM_PLN
 70
0
 62
7
  6
CONTINUOUS
370
-3
390
F
  0
LAYER
  5
200
100
AcDbSymbolTableRecord
100
AcDbLayerTableRecord
  2
01___PRT_ALL_DTM_PLN
 70
0
 62
7
  6
CONTINUOUS
370
-3
390
F
  0
LAYER
  5
201
100
AcDbSymbolTableRecord
100
AcDbLayerTableRecord
  2
01___PRT_DEF_DTM_PLN
 70
0
 62
7
  6
CONTINUOUS
370
-3
390
F
  0
LAYER
  5
202
100
AcDbSymbolTableRecord
100
AcDbLayerTableRecord
  2
02_ALL_AXES
 70
0
 62
7
  6
CONTINUOUS
370
-3
390
F
  0
LAYER
  5
203
100
AcDbSymbolTableRecord
100
AcDbLayerTableRecord
  2
02__ASM_ALL_AXES
 70
0
 62
7
  6
CONTINUOUS
370
-3
390
F
  0
LAYER
  5
204
100
AcDbSymbolTableRecord
100
AcDbLayerTableRecord
  2
02___PRT_ALL_AXES
 70
0
 62
7
  6
CONTINUOUS
370
-3
390
F
  0
LAYER
  5
205
100
AcDbSymbolTableRecord
100
AcDbLayerTableRecord
  2
03_ALL_CURVES
 70
0
 62
7
  6
CONTINUOUS
370
-3
390
F
  0
LAYER
  5
206
100
AcDbSymbolTableRecord
100
AcDbLayerTableRecord
  2
03__ASM_ALL_CURVES
 70
0
 62
7
  6
CONTINUOUS
370
-3
390
F
  0
LAYER
  5
207
100
AcDbSymbolTableRecord
100
AcDbLayerTableRecord
  2
03___PRT_ALL_CURVES
 70
0
 62
7
  6
CONTINUOUS
370
-3
390
F
  0
LAYER
  5
208
100
AcDbSymbolTableRecord
100
AcDbLayerTableRecord
  2
04_ALL_DTM_PNT
 70
0
 62
7
  6
CONTINUOUS
370
-3
390
F
  0
LAYER
  5
209
100
AcDbSymbolTableRecord
100
AcDbLayerTableRecord
  2
04__ASM_ALL_DTM_PNT
 70
0
 62
7
  6
CONTINUOUS
370
-3
390
F
  0
LAYER
  5
20A
100
AcDbSymbolTableRecord
100
AcDbLayerTableRecord
  2
04___PRT_ALL_DTM_PNT
 70
0
 62
7
  6
CONTINUOUS
370
-3
390
F
  0
LAYER
  5
20B
100
AcDbSymbolTableRecord
100
AcDbLayerTableRecord
  2
05_ALL_DTM_CSYS
 70
0
 62
7
  6
CONTINUOUS
370
-3
390
F
  0
LAYER
  5
20C
100
AcDbSymbolTableRecord
100
AcDbLayerTableRecord
  2
05__ASM_ALL_DTM_CSYS
 70
0
 62
7
  6
CONTINUOUS
370
-3
390
F
  0
LAYER
  5
20D
100
AcDbSymbolTableRecord
100
AcDbLayerTableRecord
  2
05__ASM_DEF_DTM_CSYS
 70
0
 62
7
  6
CONTINUOUS
370
-3
390
F
  0
LAYER
  5
20E
100
AcDbSymbolTableRecord
100
AcDbLayerTableRecord
  2
05___PRT_ALL_DTM_CSYS
 70
0
 62
7
  6
CONTINUOUS
370
-3
390
F
  0
LAYER
  5
20F
100
AcDbSymbolTableRecord
100
AcDbLayerTableRecord
  2
05___PRT_DEF_DTM_CSYS
 70
0
 62
7
  6
CONTINUOUS
370
-3
390
F
  0
LAYER
  5
210
100
AcDbSymbolTableRecord
100
AcDbLayerTableRecord
  2
06_ALL_SURFS
 70
0
 62
7
  6
CONTINUOUS
370
-3
390
F
  0
LAYER
  5
211
100
AcDbSymbolTableRecord
100
AcDbLayerTableRecord
  2
06__ASM_ALL_SURFS
 70
0
 62
7
  6
CONTINUOUS
370
-3
390
F
  0
LAYER
  5
212
100
AcDbSymbolTableRecord
100
AcDbLayerTableRecord
  2
06___PRT_ALL_SURFS
 70
0
 62
7
  6
CONTINUOUS
370
-3
390
F
  0
LAYER
  5
213
100
AcDbSymbolTableRecord
100
AcDbLayerTableRecord
  2
07__ASM_ALL_SKELETONS
 70
0
 62
7
  6
CONTINUOUS
370
-3
390
F
  0
ENDTAB
  0
TABLE
  2
STYLE
  5
3
100
AcDbSymbolTable
 70
1
  0
STYLE
  5
11
100
AcDbSymbolTableRecord
100
AcDbTextStyleTableRecord
  2
STANDARD
 70
0
 40
0.0
 41
0.8
 50
0.0
 71
0
 42
0.2
  3
txt
  4

  0
STYLE
  5
214
100
AcDbSymbolTableRecord
100
AcDbTextStyleTableRecord
  2
TEXTSTYLE_1
 70
0
 40
0.0
 41
0.8
 50
0.0
 71
0
 42
0.2
  3
gdt
  4

  0
ENDTAB
  0
TABLE
  2
VIEW
  5
6
100
AcDbSymbolTable
 70
0
  0
ENDTAB
  0
TABLE
  2
UCS
  5
7
100
AcDbSymbolTable
 70
0
  0
ENDTAB
  0
TABLE
  2
APPID
  5
9
100
AcDbSymbolTable
 70
1
  0
APPID
  5
215
100
AcDbSymbolTableRecord
100
AcDbRegAppTableRecord
  2
ACAD
 70
0
  0
ENDTAB
  0
TABLE
  2
BLOCK_RECORD
  5
1
100
AcDbSymbolTable
 70
0
  0
BLOCK_RECORD
  5
216
100
AcDbSymbolTableRecord
100
AcDbBlockTableRecord
  2
*Model_Space
  0
BLOCK_RECORD
  5
217
100
AcDbSymbolTableRecord
100
AcDbBlockTableRecord
  2
*Paper_Space
  0
ENDTAB
  0
TABLE
  2
DIMSTYLE
  5
A
100
AcDbSymbolTable
 70
1
100
AcDbDimStyleTable
 71
0
  0
DIMSTYLE
105
218
100
AcDbSymbolTableRecord
100
AcDbDimStyleTableRecord
  2
STANDARD
 70
0
  3

  4

 40
1.0
 41
0.1875
 42
0.0625
 43
0.38
 44
0.125
 45
0.0
 46
0.0
 47
0.0001
 48
0.0001
140
0.15625
141
0.09
142
0.0
143
25.4
144
1.0
145
0.0
146
1.0
147
0.09
 71
0.0
 72
0.0
 73
1
 74
1
 75
0
 76
0
 77
0
 78
4
 79
1
170
0
171
3
172
0
173
0
174
0
175
0
176
0
177
0
178
0
270
2
179
4
271
4
272
4
273
2
274
2
275
0
280
0
281
0
282
0
283
1
284
4
285
0
286
0
287
3
288
0
340
11
278
46
  0
ENDTAB
  0
ENDSEC
  0
SECTION
  2
BLOCKS
  0
BLOCK
  5
20
100
AcDbEntity
  8
0
100
AcDbBlockBegin
  2
*Model_Space
 70
0
 10
0.0
 20
0.0
 30
0.0
  3
*Model_Space
  1

  0
ENDBLK
  5
21
100
AcDbEntity
  8
0
100
AcDbBlockEnd
  0
BLOCK
  5
1C
100
AcDbEntity
  8
0
100
AcDbBlockBegin
  2
*Paper_Space
 70
0
 10
0.0
 20
0.0
 30
0.0
  3
*Paper_Space
  1

  0
ENDBLK
  5
1D
100
AcDbEntity
  8
0
100
AcDbBlockEnd
  0
ENDSEC
  0
SECTION
  2
ENTITIES
  0
MTEXT
  5
219
100
AcDbEntity
  8
0
100
AcDbMText
 62
7
  6
CONTINUOUS
  7
STANDARD
 71
1
 72
1
 10
15.9560215477
 20
0.9479130325
 30
0.0
 11
1.0
 21
0.0
 31
0.0
 44
0.9
  1
SCALE: 1:1.000
 40
0.3
 41
3.36
  0
LINE
  5
21A
100
AcDbEntity
  8
0
100
AcDbLine
 62
7
  6
CONTINUOUS
 10
0.0
 20
0.0
 11
0.0
 21
17.0
  0
LINE
  5
21B
100
AcDbEntity
  8
0
100
AcDbLine
 62
7
  6
CONTINUOUS
 10
0.0
 20
0.0
 11
22.0
 21
0.0
  0
LINE
  5
21C
100
AcDbEntity
  8
0
100
AcDbLine
 62
7
  6
CONTINUOUS
 10
0.0
 20
17.0
 11
22.0
 21
17.0
  0
LINE
  5
21D
100
AcDbEntity
  8
0
100
AcDbLine
 62
7
  6
CONTINUOUS
 10
22.0
 20
0.0
 11
22.0
 21
17.0
  0
LINE
  5
21E
100
AcDbEntity
  8
0
100
AcDbLine
 62
7
  6
CONTINUOUS
 10
5.1303672762
 20
5.7611198968
 11
5.1303672762
 21
5.6689583408
  0
LINE
  5
21F
100
AcDbEntity
  8
0
100
AcDbLine
 62
7
  6
CONTINUOUS
 10
5.2543973853
 20
5.2713944719
 11
5.1352616245
 21
5.6380566413
  0
LINE
  5
220
100
AcDbEntity
  8
0
100
AcDbLine
 62
7
  6
CONTINUOUS
 10
5.2781737982
 20
5.2541198968
 11
6.9825607542
 21
5.2541198968
  0
LINE
  5
221
100
AcDbEntity
  8
0
100
AcDbLine
 62
7
  6
CONTINUOUS
 10
5.2205547054
 20
5.4314532301
 11
7.040179847
 21
5.4314532301
  0
LINE
  5
222
100
AcDbEntity
  8
0
100
AcDbLine
 62
7
  6
CONTINUOUS
 10
7.1053672762
 20
5.7861198968
 11
5.1553672762
 21
5.7861198968
  0
LINE
  5
223
100
AcDbEntity
  8
0
100
AcDbLine
 62
7
  6
CONTINUOUS
 10
7.1303672762
 20
5.6689583408
 11
7.1303672762
 21
5.7611198968
  0
LINE
  5
224
100
AcDbEntity
  8
0
100
AcDbLine
 62
7
  6
CONTINUOUS
 10
7.0063371671
 20
5.2713944719
 11
7.1254729278
 21
5.6380566413
  0
LINE
  5
225
100
AcDbEntity
  8
0
100
AcDbLine
 62
7
  6
CONTINUOUS
 10
7.0708720839
 20
10.6000477814
 11
5.0708720839
 21
10.6000477814
  0
LINE
  5
226
100
AcDbEntity
  8
0
100
AcDbLine
 62
7
  6
CONTINUOUS
 10
5.0708720839
 20
10.6000477814
 11
5.0708720839
 21
14.6000477814
  0
LINE
  5
227
100
AcDbEntity
  8
0
100
AcDbLine
 62
7
  6
CONTINUOUS
 10
7.0708720839
 20
10.6000477814
 11
7.0708720839
 21
14.6000477814
  0
LINE
  5
228
100
AcDbEntity
  8
0
100
AcDbLine
 62
7
  6
CONTINUOUS
 10
5.0708720839
 20
14.6000477814
 11
7.0708720839
 21
14.6000477814
  0
LINE
  5
229
100
AcDbEntity
  8
0
100
AcDbLine
 62
7
  6
CONTINUOUS
 10
13.5603552569
 20
5.3719580378
 11
13.5603552569
 21
5.7266247044
  0
LINE
  5
22A
100
AcDbEntity
  8
0
100
AcDbLine
 62
7
  6
CONTINUOUS
 10
13.6728176912
 20
5.3375975345
 11
13.6978928226
 21
5.2289852077
  0
LINE
  5
22B
100
AcDbEntity
  8
0
100
AcDbLine
 62
7
  6
CONTINUOUS
 10
13.9228176912
 20
5.2289852077
 11
13.9478928226
 21
5.3375975345
  0
LINE
  5
22C
100
AcDbEntity
  8
0
100
AcDbLine
 62
7
  6
CONTINUOUS
 10
14.1728176912
 20
5.3375975345
 11
14.1978928226
 21
5.2289852077
  0
LINE
  5
22D
100
AcDbEntity
  8
0
100
AcDbLine
 62
7
  6
CONTINUOUS
 10
14.4228176912
 20
5.2289852077
 11
14.4478928226
 21
5.3375975345
  0
LINE
  5
22E
100
AcDbEntity
  8
0
100
AcDbLine
 62
7
  6
CONTINUOUS
 10
14.6728176912
 20
5.3375975345
 11
14.6978928226
 21
5.2289852077
  0
LINE
  5
22F
100
AcDbEntity
  8
0
100
AcDbLine
 62
7
  6
CONTINUOUS
 10
14.9228176912
 20
5.2289852077
 11
14.9478928226
 21
5.3375975345
  0
LINE
  5
230
100
AcDbEntity
  8
0
100
AcDbLine
 62
7
  6
CONTINUOUS
 10
15.1728176912
 20
5.3375975345
 11
15.1978928226
 21
5.2289852077
  0
LINE
  5
231
100
AcDbEntity
  8
0
100
AcDbLine
 62
7
  6
CONTINUOUS
 10
13.7410898955
 20
5.1946247044
 11
13.8796206184
 21
5.1946247044
  0
LINE
  5
232
100
AcDbEntity
  8
0
100
AcDbLine
 62
7
  6
CONTINUOUS
 10
14.2410898955
 20
5.1946247044
 11
14.3796206184
 21
5.1946247044
  0
LINE
  5
233
100
AcDbEntity
  8
0
100
AcDbLine
 62
7
  6
CONTINUOUS
 10
14.7410898955
 20
5.1946247044
 11
14.8796206184
 21
5.1946247044
  0
LINE
  5
234
100
AcDbEntity
  8
0
100
AcDbLine
 62
7
  6
CONTINUOUS
 10
15.2410898955
 20
5.1946247044
 11
15.3796206184
 21
5.1946247044
  0
LINE
  5
235
100
AcDbEntity
  8
0
100
AcDbLine
 62
7
  6
CONTINUOUS
 10
15.7410898955
 20
5.1946247044
 11
15.8796206184
 21
5.1946247044
  0
LINE
  5
236
100
AcDbEntity
  8
0
100
AcDbLine
 62
7
  6
CONTINUOUS
 10
16.2410898955
 20
5.1946247044
 11
16.3796206184
 21
5.1946247044
  0
LINE
  5
237
100
AcDbEntity
  8
0
100
AcDbLine
 62
7
  6
CONTINUOUS
 10
16.7410898955
 20
5.1946247044
 11
16.8796206184
 21
5.1946247044
  0
LINE
  5
238
100
AcDbEntity
  8
0
100
AcDbLine
 62
7
  6
CONTINUOUS
 10
17.2410898955
 20
5.1946247044
 11
17.3796206184
 21
5.1946247044
  0
LINE
  5
239
100
AcDbEntity
  8
0
100
AcDbLine
 62
7
  6
CONTINUOUS
 10
15.4228176912
 20
5.2289852077
 11
15.4478928226
 21
5.3375975345
  0
LINE
  5
23A
100
AcDbEntity
  8
0
100
AcDbLine
 62
7
  6
CONTINUOUS
 10
13.5603552569
 20
5.3719580378
 11
13.6296206184
 21
5.3719580378
  0
LINE
  5
23B
100
AcDbEntity
  8
0
100
AcDbLine
 62
7
  6
CONTINUOUS
 10
13.9910898955
 20
5.3719580378
 11
14.1296206184
 21
5.3719580378
  0
LINE
  5
23C
100
AcDbEntity
  8
0
100
AcDbLine
 62
7
  6
CONTINUOUS
 10
14.4910898955
 20
5.3719580378
 11
14.6296206184
 21
5.3719580378
  0
LINE
  5
23D
100
AcDbEntity
  8
0
100
AcDbLine
 62
7
  6
CONTINUOUS
 10
14.9910898955
 20
5.3719580378
 11
15.1296206184
 21
5.3719580378
  0
LINE
  5
23E
100
AcDbEntity
  8
0
100
AcDbLine
 62
7
  6
CONTINUOUS
 10
15.4910898955
 20
5.3719580378
 11
15.6296206184
 21
5.3719580378
  0
LINE
  5
23F
100
AcDbEntity
  8
0
100
AcDbLine
 62
7
  6
CONTINUOUS
 10
15.9910898955
 20
5.3719580378
 11
16.1296206184
 21
5.3719580378
  0
LINE
  5
240
100
AcDbEntity
  8
0
100
AcDbLine
 62
7
  6
CONTINUOUS
 10
16.4910898955
 20
5.3719580378
 11
16.6296206184
 21
5.3719580378
  0
LINE
  5
241
100
AcDbEntity
  8
0
100
AcDbLine
 62
7
  6
CONTINUOUS
 10
16.9910898955
 20
5.3719580378
 11
17.1296206184
 21
5.3719580378
  0
LINE
  5
242
100
AcDbEntity
  8
0
100
AcDbLine
 62
7
  6
CONTINUOUS
 10
17.4910898955
 20
5.3719580378
 11
17.5603552569
 21
5.3719580378
  0
LINE
  5
243
100
AcDbEntity
  8
0
100
AcDbLine
 62
7
  6
CONTINUOUS
 10
15.6728176912
 20
5.3375975345
 11
15.6978928226
 21
5.2289852077
  0
LINE
  5
244
100
AcDbEntity
  8
0
100
AcDbLine
 62
7
  6
CONTINUOUS
 10
13.5603552569
 20
5.7266247044
 11
17.5603552569
 21
5.7266247044
  0
LINE
  5
245
100
AcDbEntity
  8
0
100
AcDbLine
 62
7
  6
CONTINUOUS
 10
15.9228176912
 20
5.2289852077
 11
15.9478928226
 21
5.3375975345
  0
LINE
  5
246
100
AcDbEntity
  8
0
100
AcDbLine
 62
7
  6
CONTINUOUS
 10
16.1728176912
 20
5.3375975345
 11
16.1978928226
 21
5.2289852077
  0
LINE
  5
247
100
AcDbEntity
  8
0
100
AcDbLine
 62
7
  6
CONTINUOUS
 10
16.4228176912
 20
5.2289852077
 11
16.4478928226
 21
5.3375975345
  0
LINE
  5
248
100
AcDbEntity
  8
0
100
AcDbLine
 62
7
  6
CONTINUOUS
 10
16.6728176912
 20
5.3375975345
 11
16.6978928226
 21
5.2289852077
  0
LINE
  5
249
100
AcDbEntity
  8
0
100
AcDbLine
 62
7
  6
CONTINUOUS
 10
16.9228176912
 20
5.2289852077
 11
16.9478928226
 21
5.3375975345
  0
LINE
  5
24A
100
AcDbEntity
  8
0
100
AcDbLine
 62
7
  6
CONTINUOUS
 10
17.1728176912
 20
5.3375975345
 11
17.1978928226
 21
5.2289852077
  0
LINE
  5
24B
100
AcDbEntity
  8
0
100
AcDbLine
 62
7
  6
CONTINUOUS
 10
17.5603552569
 20
5.3719580378
 11
17.5603552569
 21
5.7266247044
  0
LINE
  5
24C
100
AcDbEntity
  8
0
100
AcDbLine
 62
7
  6
CONTINUOUS
 10
17.4228176912
 20
5.2289852077
 11
17.4478928226
 21
5.3375975345
  0
LINE
  5
24D
100
AcDbEntity
  8
0
100
AcDbLine
 62
7
  6
CONTINUOUS
 10
14.0915190166
 20
10.9623457459
 11
14.2059328415
 21
10.8446570541
  0
LINE
  5
24E
100
AcDbEntity
  8
0
100
AcDbLine
 62
7
  6
CONTINUOUS
 10
14.0494715781
 20
11.0388430922
 11
14.0775847111
 21
10.9815545503
  0
LWPOLYLINE
  5
24F
100
AcDbEntity
  8
0
100
AcDbPolyline
 62
7
  6
CONTINUOUS
 90
5
 70
0
 10
15.9425257579
 20
10.8484858518
 10
15.9519359735
 20
10.850283935
 10
15.9592507627
 20
10.8546923857
 10
15.9642830542
 20
10.8603462323
 10
15.9673615569
 20
10.8659430444
  0
LINE
  5
250
100
AcDbEntity
  8
0
100
AcDbLine
 62
7
  6
CONTINUOUS
 10
14.2331018366
 20
10.8339190059
 11
15.9090875782
 21
10.8339190059
  0
LINE
  5
251
100
AcDbEntity
  8
0
100
AcDbLine
 62
7
  6
CONTINUOUS
 10
15.927327207
 20
10.8484858527
 11
15.9425265044
 21
10.8484858527
  0
LINE
  5
252
100
AcDbEntity
  8
0
100
AcDbLine
 62
7
  6
CONTINUOUS
 10
15.8609409945
 20
11.0543833414
 11
14.0648720562
 21
11.0543833414
  0
LWPOLYLINE
  5
253
100
AcDbEntity
  8
0
100
AcDbPolyline
 62
7
  6
CONTINUOUS
 90
5
 70
0
 10
16.0635589196
 20
11.2401493066
 10
16.0729691352
 20
11.2419473898
 10
16.0802839244
 20
11.2463558405
 10
16.0853162159
 20
11.2520096871
 10
16.0883947186
 20
11.2576064992
  0
LINE
  5
254
100
AcDbEntity
  8
0
100
AcDbLine
 62
7
  6
CONTINUOUS
 10
16.0483603688
 20
11.2401493076
 11
16.0635596661
 21
11.2401493076
  0
LINE
  5
255
100
AcDbEntity
  8
0
100
AcDbLine
 62
7
  6
CONTINUOUS
 10
14.0486125818
 20
11.0462242764
 11
15.0168778754
 21
14.1795319149
  0
LWPOLYLINE
  5
256
100
AcDbEntity
  8
0
100
AcDbPolyline
 62
7
  6
CONTINUOUS
 90
5
 70
0
 10
16.1845920813
 20
11.6318127614
 10
16.1940022969
 20
11.6336108446
 10
16.2013170861
 20
11.6380192953
 10
16.2063493776
 20
11.643673142
 10
16.2094278803
 20
11.649269954
  0
LINE
  5
257
100
AcDbEntity
  8
0
100
AcDbLine
 62
7
  6
CONTINUOUS
 10
16.1693935305
 20
11.6318127624
 11
16.1845928278
 21
11.6318127624
  0
LWPOLYLINE
  5
258
100
AcDbEntity
  8
0
100
AcDbPolyline
 62
7
  6
CONTINUOUS
 90
5
 70
0
 10
16.305625243
 20
12.0234762163
 10
16.3150354586
 20
12.0252742994
 10
16.3223502478
 20
12.0296827501
 10
16.3273825393
 20
12.0353365968
 10
16.330461042
 20
12.0409334088
  0
LINE
  5
259
100
AcDbEntity
  8
0
100
AcDbLine
 62
7
  6
CONTINUOUS
 10
16.2904266922
 20
12.0234762172
 11
16.3056259895
 21
12.0234762172
  0
LWPOLYLINE
  5
25A
100
AcDbEntity
  8
0
100
AcDbPolyline
 62
7
  6
CONTINUOUS
 90
5
 70
0
 10
16.4266584047
 20
12.4151396711
 10
16.4360686203
 20
12.4169377542
 10
16.4433834095
 20
12.421346205
 10
16.448415701
 20
12.4270000516
 10
16.4514942038
 20
12.4325968636
  0
LINE
  5
25B
100
AcDbEntity
  8
0
100
AcDbLine
 62
7
  6
CONTINUOUS
 10
15.9197066991
 20
10.9815545503
 11
15.8915935661
 21
11.0388430922
  0
LINE
  5
25C
100
AcDbEntity
  8
0
100
AcDbLine
 62
7
  6
CONTINUOUS
 10
16.4114598539
 20
12.415139672
 11
16.4266591512
 21
12.415139672
  0
LWPOLYLINE
  5
25D
100
AcDbEntity
  8
0
100
AcDbPolyline
 62
7
  6
CONTINUOUS
 90
5
 70
0
 10
16.5476915664
 20
12.8068031259
 10
16.557101782
 20
12.808601209
 10
16.5644165712
 20
12.8130096598
 10
16.5694488627
 20
12.8186635064
 10
16.5725273655
 20
12.8242603184
  0
LINE
  5
25E
100
AcDbEntity
  8
0
100
AcDbLine
 62
7
  6
CONTINUOUS
 10
16.5324930156
 20
12.8068031268
 11
16.5476923129
 21
12.8068031268
  0
LINE
  5
25F
100
AcDbEntity
  8
0
100
AcDbLine
 62
7
  6
CONTINUOUS
 10
15.9257176361
 20
10.8446570541
 11
15.9246250178
 21
10.9623457459
  0
LWPOLYLINE
  5
260
100
AcDbEntity
  8
0
100
AcDbPolyline
 62
7
  6
CONTINUOUS
 90
5
 70
0
 10
16.6687247281
 20
13.1984665807
 10
16.6781349437
 20
13.2002646638
 10
16.6854497329
 20
13.2046731146
 10
16.6904820244
 20
13.2103269612
 10
16.6935605272
 20
13.2159237732
  0
LINE
  5
261
100
AcDbEntity
  8
0
100
AcDbLine
 62
7
  6
CONTINUOUS
 10
16.0091932337
 20
11.0118285385
 11
16.0146362759
 21
11.0989850679
  0
LINE
  5
262
100
AcDbEntity
  8
0
100
AcDbLine
 62
7
  6
CONTINUOUS
 10
16.1302263954
 20
11.4034919933
 11
16.1356694376
 21
11.4906485227
  0
LINE
  5
263
100
AcDbEntity
  8
0
100
AcDbLine
 62
7
  6
CONTINUOUS
 10
16.0146372823
 20
11.0990064949
 11
16.0151901756
 21
11.1059950488
  0
LINE
  5
264
100
AcDbEntity
  8
0
100
AcDbLine
 62
7
  6
CONTINUOUS
 10
16.135670444
 20
11.4906699497
 11
16.1362233373
 21
11.4976585036
  0
LINE
  5
265
100
AcDbEntity
  8
0
100
AcDbLine
 62
7
  6
CONTINUOUS
 10
16.0087330958
 20
11.0066862693
 11
16.0091962722
 21
11.0118790746
  0
LWPOLYLINE
  5
266
100
AcDbEntity
  8
0
100
AcDbPolyline
 62
7
  6
CONTINUOUS
 90
5
 70
0
 10
16.0151901756
 20
11.1059950488
 10
16.0171311185
 20
11.1220983603
 10
16.0200573421
 20
11.1397161202
 10
16.0236714368
 20
11.1570752718
 10
16.0275909547
 20
11.172581259
  0
LINE
  5
267
100
AcDbEntity
  8
0
100
AcDbLine
 62
7
  6
CONTINUOUS
 10
15.9253417184
 20
10.8420797118
 11
15.9257176361
 21
10.8446570541
  0
LINE
  5
268
100
AcDbEntity
  8
0
100
AcDbLine
 62
7
  6
CONTINUOUS
 10
16.6535261773
 20
13.1984665816
 11
16.6687254746
 21
13.1984665816
  0
LINE
  5
269
100
AcDbEntity
  8
0
100
AcDbLine
 62
7
  6
CONTINUOUS
 10
16.2512595571
 20
11.7951554481
 11
16.2567025993
 21
11.8823119775
  0
LINE
  5
26A
100
AcDbEntity
  8
0
100
AcDbLine
 62
7
  6
CONTINUOUS
 10
16.2567036057
 20
11.8823334045
 11
16.257256499
 21
11.8893219584
  0
LINE
  5
26B
100
AcDbEntity
  8
0
100
AcDbLine
 62
7
  6
CONTINUOUS
 10
16.1297662575
 20
11.3983497241
 11
16.1302294339
 21
11.4035425294
  0
LINE
  5
26C
100
AcDbEntity
  8
0
100
AcDbLine
 62
7
  6
CONTINUOUS
 10
16.2507994192
 20
11.7900131789
 11
16.2512625956
 21
11.7952059842
  0
LWPOLYLINE
  5
26D
100
AcDbEntity
  8
0
100
AcDbPolyline
 62
7
  6
CONTINUOUS
 90
5
 70
0
 10
16.1362233373
 20
11.4976585036
 10
16.1381642802
 20
11.5137618151
 10
16.1410905038
 20
11.5313795751
 10
16.1447045985
 20
11.5487387266
 10
16.1486241165
 20
11.5642447138
  0
LWPOLYLINE
  5
26E
100
AcDbEntity
  8
0
100
AcDbPolyline
 62
7
  6
CONTINUOUS
 90
5
 70
0
 10
16.257256499
 20
11.8893219584
 10
16.2591974419
 20
11.9054252699
 10
16.2621236655
 20
11.9230430299
 10
16.2657377602
 20
11.9404021814
 10
16.2696572782
 20
11.9559081686
  0
LWPOLYLINE
  5
26F
100
AcDbEntity
  8
0
100
AcDbPolyline
 62
7
  6
CONTINUOUS
 90
3
 70
0
 10
16.0049996359
 20
10.9866857692
 10
16.007219476
 20
10.9966968116
 10
16.0087330958
 20
11.0066862693
  0
LWPOLYLINE
  5
270
100
AcDbEntity
  8
0
100
AcDbPolyline
 62
7
  6
CONTINUOUS
 90
3
 70
0
 10
16.1260327976
 20
11.378349224
 10
16.1282526377
 20
11.3883602664
 10
16.1297662575
 20
11.3983497241
  0
LINE
  5
271
100
AcDbEntity
  8
0
100
AcDbLine
 62
7
  6
CONTINUOUS
 10
16.7901535002
 20
13.6405354
 11
16.7926178815
 21
13.6475994716
  0
LINE
  5
272
100
AcDbEntity
  8
0
100
AcDbLine
 62
7
  6
CONTINUOUS
 10
16.6691203385
 20
13.2488719452
 11
16.6715847198
 21
13.2559360168
  0
LINE
  5
273
100
AcDbEntity
  8
0
100
AcDbLine
 62
7
  6
CONTINUOUS
 10
16.8145936889
 20
13.607587228
 11
16.8167121526
 21
13.6130759237
  0
LINE
  5
274
100
AcDbEntity
  8
0
100
AcDbLine
 62
7
  6
CONTINUOUS
 10
16.6935605272
 20
13.2159237732
 11
16.6956789909
 21
13.2214124688
  0
LWPOLYLINE
  5
275
100
AcDbEntity
  8
0
100
AcDbPolyline
 62
7
  6
CONTINUOUS
 90
3
 70
0
 10
16.7926178815
 20
13.6475994716
 10
16.794546986
 20
13.6522471075
 10
16.7953201508
 20
13.6538161406
  0
LWPOLYLINE
  5
276
100
AcDbEntity
  8
0
100
AcDbPolyline
 62
7
  6
CONTINUOUS
 90
3
 70
0
 10
16.6715847198
 20
13.2559360168
 10
16.6735138243
 20
13.2605836527
 10
16.6742869891
 20
13.2621526858
  0
LWPOLYLINE
  5
277
100
AcDbEntity
  8
0
100
AcDbPolyline
 62
7
  6
CONTINUOUS
 90
3
 70
0
 10
16.5505515581
 20
12.8642725619
 10
16.5524806626
 20
12.8689201979
 10
16.5532538274
 20
12.870489231
  0
LWPOLYLINE
  5
278
100
AcDbEntity
  8
0
100
AcDbPolyline
 62
7
  6
CONTINUOUS
 90
5
 70
0
 10
16.7897578898
 20
13.5901300355
 10
16.7991681054
 20
13.5919281187
 10
16.8064828946
 20
13.5963365694
 10
16.8115151861
 20
13.601990416
 10
16.8145936889
 20
13.607587228
  0
LINE
  5
279
100
AcDbEntity
  8
0
100
AcDbLine
 62
7
  6
CONTINUOUS
 10
16.3722927188
 20
12.1868189029
 11
16.377735761
 21
12.2739754323
  0
LINE
  5
27A
100
AcDbEntity
  8
0
100
AcDbLine
 62
7
  6
CONTINUOUS
 10
16.4933258805
 20
12.5784823577
 11
16.4987689227
 21
12.6656388871
  0
LINE
  5
27B
100
AcDbEntity
  8
0
100
AcDbLine
 62
7
  6
CONTINUOUS
 10
16.3777367674
 20
12.2739968593
 11
16.3782896607
 21
12.2809854132
  0
LINE
  5
27C
100
AcDbEntity
  8
0
100
AcDbLine
 62
7
  6
CONTINUOUS
 10
16.4987699291
 20
12.6656603141
 11
16.4993228224
 21
12.672648868
  0
LINE
  5
27D
100
AcDbEntity
  8
0
100
AcDbLine
 62
7
  6
CONTINUOUS
 10
16.3718325809
 20
12.1816766337
 11
16.3722957573
 21
12.186869439
  0
LINE
  5
27E
100
AcDbEntity
  8
0
100
AcDbLine
 62
7
  6
CONTINUOUS
 10
16.4928657426
 20
12.5733400885
 11
16.493328919
 21
12.5785328938
  0
LWPOLYLINE
  5
27F
100
AcDbEntity
  8
0
100
AcDbPolyline
 62
7
  6
CONTINUOUS
 90
5
 70
0
 10
16.3782896607
 20
12.2809854132
 10
16.3802306036
 20
12.2970887247
 10
16.3831568272
 20
12.3147064847
 10
16.3867709219
 20
12.3320656362
 10
16.3906904399
 20
12.3475716234
  0
LWPOLYLINE
  5
280
100
AcDbEntity
  8
0
100
AcDbPolyline
 62
7
  6
CONTINUOUS
 90
5
 70
0
 10
16.4993228224
 20
12.672648868
 10
16.5012637653
 20
12.6887521796
 10
16.5041899889
 20
12.7063699395
 10
16.5078040836
 20
12.723729091
 10
16.5117236016
 20
12.7392350782
  0
LWPOLYLINE
  5
281
100
AcDbEntity
  8
0
100
AcDbPolyline
 62
7
  6
CONTINUOUS
 90
3
 70
0
 10
16.2470659593
 20
11.7700126788
 10
16.2492857994
 20
11.7800237212
 10
16.2507994192
 20
11.7900131789
  0
LWPOLYLINE
  5
282
100
AcDbEntity
  8
0
100
AcDbPolyline
 62
7
  6
CONTINUOUS
 90
3
 70
0
 10
16.368099121
 20
12.1616761337
 10
16.3703189611
 20
12.171687176
 10
16.3718325809
 20
12.1816766337
  0
LWPOLYLINE
  5
283
100
AcDbEntity
  8
0
100
AcDbPolyline
 62
7
  6
CONTINUOUS
 90
3
 70
0
 10
16.4891322827
 20
12.5533395885
 10
16.4913521228
 20
12.5633506309
 10
16.4928657426
 20
12.5733400885
  0
LWPOLYLINE
  5
284
100
AcDbEntity
  8
0
100
AcDbPolyline
 62
7
  6
CONTINUOUS
 90
3
 70
0
 10
16.6101654444
 20
12.9450030433
 10
16.6123852845
 20
12.9550140857
 10
16.6138989043
 20
12.9650035433
  0
LINE
  5
285
100
AcDbEntity
  8
0
100
AcDbLine
 62
7
  6
CONTINUOUS
 10
16.0036427632
 20
10.9818995104
 11
16.0049996359
 21
10.9866857692
  0
LINE
  5
286
100
AcDbEntity
  8
0
100
AcDbLine
 62
7
  6
CONTINUOUS
 10
16.1246759249
 20
11.3735629652
 11
16.1260327976
 21
11.378349224
  0
LINE
  5
287
100
AcDbEntity
  8
0
100
AcDbLine
 62
7
  6
CONTINUOUS
 10
16.2457090866
 20
11.76522642
 11
16.2470659593
 21
11.7700126788
  0
LINE
  5
288
100
AcDbEntity
  8
0
100
AcDbLine
 62
7
  6
CONTINUOUS
 10
16.3667422483
 20
12.1568898748
 11
16.368099121
 21
12.1616761337
  0
LINE
  5
289
100
AcDbEntity
  8
0
100
AcDbLine
 62
7
  6
CONTINUOUS
 10
16.48777541
 20
12.5485533296
 11
16.4891322827
 21
12.5533395885
  0
LINE
  5
28A
100
AcDbEntity
  8
0
100
AcDbLine
 62
7
  6
CONTINUOUS
 10
16.6088085717
 20
12.9402167844
 11
16.6101654444
 21
12.9450030433
  0
LINE
  5
28B
100
AcDbEntity
  8
0
100
AcDbLine
 62
7
  6
CONTINUOUS
 10
16.7298417334
 20
13.3318802393
 11
16.7311986061
 21
13.3366664981
  0
LINE
  5
28C
100
AcDbEntity
  8
0
100
AcDbLine
 62
7
  6
CONTINUOUS
 10
16.8508748951
 20
13.7235436941
 11
16.8522317678
 21
13.7283299529
  0
LINE
  5
28D
100
AcDbEntity
  8
0
100
AcDbLine
 62
7
  6
CONTINUOUS
 10
16.0275909547
 20
11.172581259
 11
16.0296075762
 21
11.1794714978
  0
LINE
  5
28E
100
AcDbEntity
  8
0
100
AcDbLine
 62
7
  6
CONTINUOUS
 10
16.1486241165
 20
11.5642447138
 11
16.1506407379
 21
11.5711349526
  0
LINE
  5
28F
100
AcDbEntity
  8
0
100
AcDbLine
 62
7
  6
CONTINUOUS
 10
16.2696572782
 20
11.9559081686
 11
16.2716738996
 21
11.9627984074
  0
LINE
  5
290
100
AcDbEntity
  8
0
100
AcDbLine
 62
7
  6
CONTINUOUS
 10
16.3906904399
 20
12.3475716234
 11
16.3927070613
 21
12.3544618622
  0
LINE
  5
291
100
AcDbEntity
  8
0
100
AcDbLine
 62
7
  6
CONTINUOUS
 10
16.5117236016
 20
12.7392350782
 11
16.513740223
 21
12.746125317
  0
LINE
  5
292
100
AcDbEntity
  8
0
100
AcDbLine
 62
7
  6
CONTINUOUS
 10
16.6327567633
 20
13.1308985331
 11
16.6347733847
 21
13.1377887718
  0
LINE
  5
293
100
AcDbEntity
  8
0
100
AcDbLine
 62
7
  6
CONTINUOUS
 10
16.753789925
 20
13.5225619879
 11
16.7558065464
 21
13.5294522267
  0
LINE
  5
294
100
AcDbEntity
  8
0
100
AcDbLine
 62
7
  6
CONTINUOUS
 10
16.8748230867
 20
13.9142254427
 11
16.8768397081
 21
13.9211156815
  0
LINE
  5
295
100
AcDbEntity
  8
0
100
AcDbLine
 62
7
  6
CONTINUOUS
 10
15.9261068506
 20
10.8445367777
 11
15.9421138647
 21
10.8963354943
  0
LINE
  5
296
100
AcDbEntity
  8
0
100
AcDbLine
 62
7
  6
CONTINUOUS
 10
16.029613403
 20
11.1794841042
 11
16.0631470264
 21
11.2879989491
  0
LINE
  5
297
100
AcDbEntity
  8
0
100
AcDbLine
 62
7
  6
CONTINUOUS
 10
16.1506465647
 20
11.571147559
 11
16.1841801881
 21
11.6796624039
  0
LINE
  5
298
100
AcDbEntity
  8
0
100
AcDbLine
 62
7
  6
CONTINUOUS
 10
16.2716797264
 20
11.9628110138
 11
16.3052133498
 21
12.0713258588
  0
LINE
  5
299
100
AcDbEntity
  8
0
100
AcDbLine
 62
7
  6
CONTINUOUS
 10
16.3927128881
 20
12.3544744686
 11
16.4262465115
 21
12.4629893136
  0
LINE
  5
29A
100
AcDbEntity
  8
0
100
AcDbLine
 62
7
  6
CONTINUOUS
 10
16.5137460498
 20
12.7461379234
 11
16.5472796732
 21
12.8546527684
  0
LINE
  5
29B
100
AcDbEntity
  8
0
100
AcDbLine
 62
7
  6
CONTINUOUS
 10
16.6347792115
 20
13.1378013782
 11
16.6683128349
 21
13.2463162232
  0
LINE
  5
29C
100
AcDbEntity
  8
0
100
AcDbLine
 62
7
  6
CONTINUOUS
 10
16.7558123732
 20
13.5294648331
 11
16.7893459966
 21
13.637979678
  0
LINE
  5
29D
100
AcDbEntity
  8
0
100
AcDbLine
 62
7
  6
CONTINUOUS
 10
16.8768455349
 20
13.9211282879
 11
16.8936123463
 21
13.9753857094
  0
LINE
  5
29E
100
AcDbEntity
  8
0
100
AcDbLine
 62
7
  6
CONTINUOUS
 10
15.9701202143
 20
10.8734202091
 11
16.0036538371
 21
10.9819350523
  0
LINE
  5
29F
100
AcDbEntity
  8
0
100
AcDbLine
 62
7
  6
CONTINUOUS
 10
16.091153376
 20
11.2650836639
 11
16.1246869988
 21
11.3735985071
  0
LINE
  5
2A0
100
AcDbEntity
  8
0
100
AcDbLine
 62
7
  6
CONTINUOUS
 10
16.2121865377
 20
11.6567471187
 11
16.2457201605
 21
11.765261962
  0
LINE
  5
2A1
100
AcDbEntity
  8
0
100
AcDbLine
 62
7
  6
CONTINUOUS
 10
16.3332196994
 20
12.0484105735
 11
16.3667533222
 21
12.1569254168
  0
LINE
  5
2A2
100
AcDbEntity
  8
0
100
AcDbLine
 62
7
  6
CONTINUOUS
 10
16.4542528611
 20
12.4400740283
 11
16.4877864839
 21
12.5485888716
  0
LINE
  5
2A3
100
AcDbEntity
  8
0
100
AcDbLine
 62
7
  6
CONTINUOUS
 10
16.5752860228
 20
12.8317374831
 11
16.6088196456
 21
12.9402523264
  0
LINE
  5
2A4
100
AcDbEntity
  8
0
100
AcDbLine
 62
7
  6
CONTINUOUS
 10
16.6963191845
 20
13.2234009379
 11
16.7298528073
 21
13.3319157812
  0
LINE
  5
2A5
100
AcDbEntity
  8
0
100
AcDbLine
 62
7
  6
CONTINUOUS
 10
16.8173523462
 20
13.6150643928
 11
16.850885969
 21
13.723579236
  0
LINE
  5
2A6
100
AcDbEntity
  8
0
100
AcDbLine
 62
7
  6
CONTINUOUS
 10
16.850885969
 20
13.723579236
 11
16.8508748971
 21
13.7235436936
  0
LINE
  5
2A7
100
AcDbEntity
  8
0
100
AcDbLine
 62
7
  6
CONTINUOUS
 10
16.7298528073
 20
13.3319157812
 11
16.7298417354
 21
13.3318802388
  0
LINE
  5
2A8
100
AcDbEntity
  8
0
100
AcDbLine
 62
7
  6
CONTINUOUS
 10
16.6088196456
 20
12.9402523264
 11
16.6088085737
 21
12.940216784
  0
LINE
  5
2A9
100
AcDbEntity
  8
0
100
AcDbLine
 62
7
  6
CONTINUOUS
 10
16.4877864839
 20
12.5485888716
 11
16.487775412
 21
12.5485533292
  0
LINE
  5
2AA
100
AcDbEntity
  8
0
100
AcDbLine
 62
7
  6
CONTINUOUS
 10
16.3667533222
 20
12.1569254168
 11
16.3667422503
 21
12.1568898744
  0
LINE
  5
2AB
100
AcDbEntity
  8
0
100
AcDbLine
 62
7
  6
CONTINUOUS
 10
16.2457201605
 20
11.765261962
 11
16.2457090886
 21
11.7652264195
  0
LINE
  5
2AC
100
AcDbEntity
  8
0
100
AcDbLine
 62
7
  6
CONTINUOUS
 10
16.1246869988
 20
11.3735985071
 11
16.1246759269
 21
11.3735629647
  0
LINE
  5
2AD
100
AcDbEntity
  8
0
100
AcDbLine
 62
7
  6
CONTINUOUS
 10
16.0036538371
 20
10.9819350523
 11
16.0036427652
 21
10.9818995099
  0
LINE
  5
2AE
100
AcDbEntity
  8
0
100
AcDbLine
 62
7
  6
CONTINUOUS
 10
16.7893473114
 20
13.6379847126
 11
16.7901535002
 21
13.6405354
  0
LINE
  5
2AF
100
AcDbEntity
  8
0
100
AcDbLine
 62
7
  6
CONTINUOUS
 10
16.6683141496
 20
13.2463212577
 11
16.6691203385
 21
13.2488719452
  0
LINE
  5
2B0
100
AcDbEntity
  8
0
100
AcDbLine
 62
7
  6
CONTINUOUS
 10
16.5472809879
 20
12.8546578029
 11
16.5480871768
 21
12.8572084904
  0
LINE
  5
2B1
100
AcDbEntity
  8
0
100
AcDbLine
 62
7
  6
CONTINUOUS
 10
16.4262478262
 20
12.4629943481
 11
16.4270540151
 21
12.4655450356
  0
LINE
  5
2B2
100
AcDbEntity
  8
0
100
AcDbLine
 62
7
  6
CONTINUOUS
 10
16.3052146645
 20
12.0713308933
 11
16.3060208534
 21
12.0738815808
  0
LINE
  5
2B3
100
AcDbEntity
  8
0
100
AcDbLine
 62
7
  6
CONTINUOUS
 10
16.1841815028
 20
11.6796674385
 11
16.1849876917
 21
11.682218126
  0
LINE
  5
2B4
100
AcDbEntity
  8
0
100
AcDbLine
 62
7
  6
CONTINUOUS
 10
16.0631483411
 20
11.2880039837
 11
16.06395453
 21
11.2905546712
  0
LINE
  5
2B5
100
AcDbEntity
  8
0
100
AcDbLine
 62
7
  6
CONTINUOUS
 10
15.9421151794
 20
10.8963405289
 11
15.9429213683
 21
10.8988912163
  0
LINE
  5
2B6
100
AcDbEntity
  8
0
100
AcDbLine
 62
7
  6
CONTINUOUS
 10
16.8167121526
 20
13.6130759237
 11
16.8173587918
 21
13.6150853618
  0
LINE
  5
2B7
100
AcDbEntity
  8
0
100
AcDbLine
 62
7
  6
CONTINUOUS
 10
16.6956789909
 20
13.2214124688
 11
16.6963256301
 21
13.223421907
  0
LINE
  5
2B8
100
AcDbEntity
  8
0
100
AcDbLine
 62
7
  6
CONTINUOUS
 10
16.5746458292
 20
12.829749014
 11
16.5752924684
 21
12.8317584522
  0
LINE
  5
2B9
100
AcDbEntity
  8
0
100
AcDbLine
 62
7
  6
CONTINUOUS
 10
16.4536126675
 20
12.4380855592
 11
16.4542593067
 21
12.4400949974
  0
LINE
  5
2BA
100
AcDbEntity
  8
0
100
AcDbLine
 62
7
  6
CONTINUOUS
 10
16.3325795058
 20
12.0464221044
 11
16.333226145
 21
12.0484315426
  0
LINE
  5
2BB
100
AcDbEntity
  8
0
100
AcDbLine
 62
7
  6
CONTINUOUS
 10
16.2115463441
 20
11.6547586496
 11
16.2121929833
 21
11.6567680878
  0
LINE
  5
2BC
100
AcDbEntity
  8
0
100
AcDbLine
 62
7
  6
CONTINUOUS
 10
16.0905131824
 20
11.2630951948
 11
16.0911598216
 21
11.2651046329
  0
LINE
  5
2BD
100
AcDbEntity
  8
0
100
AcDbLine
 62
7
  6
CONTINUOUS
 10
15.9694800207
 20
10.87143174
 11
15.9701266599
 21
10.8734411781
  0
LINE
  5
2BE
100
AcDbEntity
  8
0
100
AcDbLine
 62
7
  6
CONTINUOUS
 10
16.5480871768
 20
12.8572084904
 11
16.5505515581
 21
12.8642725619
  0
LINE
  5
2BF
100
AcDbEntity
  8
0
100
AcDbLine
 62
7
  6
CONTINUOUS
 10
16.4270540151
 20
12.4655450356
 11
16.4295183964
 21
12.4726091071
  0
LINE
  5
2C0
100
AcDbEntity
  8
0
100
AcDbLine
 62
7
  6
CONTINUOUS
 10
16.3060208534
 20
12.0738815808
 11
16.3084852347
 21
12.0809456523
  0
LINE
  5
2C1
100
AcDbEntity
  8
0
100
AcDbLine
 62
7
  6
CONTINUOUS
 10
16.1849876917
 20
11.682218126
 11
16.187452073
 21
11.6892821975
  0
LINE
  5
2C2
100
AcDbEntity
  8
0
100
AcDbLine
 62
7
  6
CONTINUOUS
 10
16.06395453
 20
11.2905546712
 11
16.0664189113
 21
11.2976187427
  0
LINE
  5
2C3
100
AcDbEntity
  8
0
100
AcDbLine
 62
7
  6
CONTINUOUS
 10
15.9429213683
 20
10.8988912163
 11
15.9453857496
 21
10.9059552879
  0
LINE
  5
2C4
100
AcDbEntity
  8
0
100
AcDbLine
 62
7
  6
CONTINUOUS
 10
16.5725273655
 20
12.8242603184
 11
16.5746458292
 21
12.829749014
  0
LINE
  5
2C5
100
AcDbEntity
  8
0
100
AcDbLine
 62
7
  6
CONTINUOUS
 10
16.4514942038
 20
12.4325968636
 11
16.4536126675
 21
12.4380855592
  0
LINE
  5
2C6
100
AcDbEntity
  8
0
100
AcDbLine
 62
7
  6
CONTINUOUS
 10
16.330461042
 20
12.0409334088
 11
16.3325795058
 21
12.0464221044
  0
LINE
  5
2C7
100
AcDbEntity
  8
0
100
AcDbLine
 62
7
  6
CONTINUOUS
 10
16.2094278803
 20
11.649269954
 11
16.2115463441
 21
11.6547586496
  0
LINE
  5
2C8
100
AcDbEntity
  8
0
100
AcDbLine
 62
7
  6
CONTINUOUS
 10
16.0883947186
 20
11.2576064992
 11
16.0905131824
 21
11.2630951948
  0
LWPOLYLINE
  5
2C9
100
AcDbEntity
  8
0
100
AcDbPolyline
 62
7
  6
CONTINUOUS
 90
3
 70
0
 10
16.4295183964
 20
12.4726091071
 10
16.4314475009
 20
12.4772567431
 10
16.4322206657
 20
12.4788257762
  0
LWPOLYLINE
  5
2CA
100
AcDbEntity
  8
0
100
AcDbPolyline
 62
7
  6
CONTINUOUS
 90
3
 70
0
 10
16.3084852347
 20
12.0809456523
 10
16.3104143392
 20
12.0855932883
 10
16.311187504
 20
12.0871623213
  0
LWPOLYLINE
  5
2CB
100
AcDbEntity
  8
0
100
AcDbPolyline
 62
7
  6
CONTINUOUS
 90
3
 70
0
 10
16.187452073
 20
11.6892821975
 10
16.1893811775
 20
11.6939298335
 10
16.1901543423
 20
11.6954988665
  0
LWPOLYLINE
  5
2CC
100
AcDbEntity
  8
0
100
AcDbPolyline
 62
7
  6
CONTINUOUS
 90
3
 70
0
 10
16.0664189113
 20
11.2976187427
 10
16.0683480158
 20
11.3022663787
 10
16.0691211806
 20
11.3038354117
  0
LINE
  5
2CD
100
AcDbEntity
  8
0
100
AcDbLine
 62
7
  6
CONTINUOUS
 10
16.6143590422
 20
12.9701458125
 11
16.6198020844
 21
13.057302342
  0
LINE
  5
2CE
100
AcDbEntity
  8
0
100
AcDbLine
 62
7
  6
CONTINUOUS
 10
16.6198030908
 20
13.0573237689
 11
16.6203559841
 21
13.0643123228
  0
LINE
  5
2CF
100
AcDbEntity
  8
0
100
AcDbLine
 62
7
  6
CONTINUOUS
 10
16.7408362525
 20
13.4489872238
 11
16.7413891458
 21
13.4559757776
  0
LINE
  5
2D0
100
AcDbEntity
  8
0
100
AcDbLine
 62
7
  6
CONTINUOUS
 10
16.6138989043
 20
12.9650035433
 11
16.6143620807
 21
12.9701963486
  0
LINE
  5
2D1
100
AcDbEntity
  8
0
100
AcDbLine
 62
7
  6
CONTINUOUS
 10
16.734932066
 20
13.3566669981
 11
16.7353952424
 21
13.3618598034
  0
LWPOLYLINE
  5
2D2
100
AcDbEntity
  8
0
100
AcDbPolyline
 62
7
  6
CONTINUOUS
 90
5
 70
0
 10
16.6203559841
 20
13.0643123228
 10
16.622296927
 20
13.0804156344
 10
16.6252231506
 20
13.0980333943
 10
16.6288372453
 20
13.1153925458
 10
16.6327567633
 20
13.1308985331
  0
LWPOLYLINE
  5
2D3
100
AcDbEntity
  8
0
100
AcDbPolyline
 62
7
  6
CONTINUOUS
 90
5
 70
0
 10
16.7413891458
 20
13.4559757776
 10
16.7433300887
 20
13.4720790892
 10
16.7462563123
 20
13.4896968491
 10
16.749870407
 20
13.5070560006
 10
16.753789925
 20
13.5225619879
  0
LWPOLYLINE
  5
2D4
100
AcDbEntity
  8
0
100
AcDbPolyline
 62
7
  6
CONTINUOUS
 90
3
 70
0
 10
16.7311986061
 20
13.3366664981
 10
16.7334184462
 20
13.3466775405
 10
16.734932066
 20
13.3566669981
  0
LWPOLYLINE
  5
2D5
100
AcDbEntity
  8
0
100
AcDbPolyline
 62
7
  6
CONTINUOUS
 90
3
 70
0
 10
16.8522317678
 20
13.7283299529
 10
16.8544516079
 20
13.7383409953
 10
16.8559652277
 20
13.748330453
  0
LINE
  5
2D6
100
AcDbEntity
  8
0
100
AcDbLine
 62
7
  6
CONTINUOUS
 10
15.9673615569
 20
10.8659430444
 11
15.9694800207
 21
10.87143174
  0
LWPOLYLINE
  5
2D7
100
AcDbEntity
  8
0
100
AcDbPolyline
 62
7
  6
CONTINUOUS
 90
3
 70
0
 10
15.9453857496
 20
10.9059552879
 10
15.9473148541
 20
10.9106029238
 10
15.9480880189
 20
10.9121719569
  0
LINE
  5
2D8
100
AcDbEntity
  8
0
100
AcDbLine
 62
7
  6
CONTINUOUS
 10
16.774559339
 20
13.5901300364
 11
16.7897586363
 21
13.5901300364
  0
LINE
  5
2D9
100
AcDbEntity
  8
0
100
AcDbLine
 62
7
  6
CONTINUOUS
 10
16.7353922039
 20
13.3618092673
 11
16.7408352461
 21
13.4489657968
  0
LINE
  5
2DA
100
AcDbEntity
  8
0
100
AcDbLine
 62
7
  6
CONTINUOUS
 10
16.8564253656
 20
13.7534727222
 11
16.8618684078
 21
13.8406292516
  0
LINE
  5
2DB
100
AcDbEntity
  8
0
100
AcDbLine
 62
7
  6
CONTINUOUS
 10
16.8618694142
 20
13.8406506786
 11
16.8624223075
 21
13.8476392325
  0
LINE
  5
2DC
100
AcDbEntity
  8
0
100
AcDbLine
 62
7
  6
CONTINUOUS
 10
16.8559652277
 20
13.748330453
 11
16.8564284041
 21
13.7535232582
  0
LWPOLYLINE
  5
2DD
100
AcDbEntity
  8
0
100
AcDbPolyline
 62
7
  6
CONTINUOUS
 90
5
 70
0
 10
16.8624223075
 20
13.8476392325
 10
16.8643632504
 20
13.863742544
 10
16.867289474
 20
13.8813603039
 10
16.8709035687
 20
13.8987194555
 10
16.8748230867
 20
13.9142254427
  0
LINE
  5
2DE
100
AcDbEntity
  8
0
100
AcDbLine
 62
7
  6
CONTINUOUS
 10
16.8939829297
 20
13.9779646926
 11
16.893607012
 21
13.9753873503
  0
LINE
  5
2DF
100
AcDbEntity
  8
0
100
AcDbLine
 62
7
  6
CONTINUOUS
 10
16.8939829297
 20
13.9779646926
 11
16.8928903115
 21
14.0956533844
  0
LINE
  5
2E0
100
AcDbEntity
  8
0
100
AcDbLine
 62
7
  6
CONTINUOUS
 10
16.8292062882
 20
14.1876909799
 11
15.0331373499
 21
14.1876909799
  0
LINE
  5
2E1
100
AcDbEntity
  8
0
100
AcDbLine
 62
7
  6
CONTINUOUS
 10
16.8879719928
 20
14.1148621888
 11
16.8598588597
 21
14.1721507307
  0
ARC
  5
2E2
100
AcDbEntity
  8
0
100
AcDbCircle
 62
7
  6
CONTINUOUS
 10
5.2205547054
 20
5.4564532301
 40
0.025
100
AcDbArc
 50
198.0
 51
270.0
  0
ARC
  5
2E3
100
AcDbEntity
  8
0
100
AcDbCircle
 62
7
  6
CONTINUOUS
 10
5.2781737945
 20
5.2791199081
 40
0.025
100
AcDbArc
 50
198.0000273349
 51
270.0000084469
  0
ARC
  5
2E4
100
AcDbEntity
  8
0
100
AcDbCircle
 62
7
  6
CONTINUOUS
 10
5.2303672762
 20
5.6689583408
 40
0.1
100
AcDbArc
 50
180.0
 51
198.0
  0
ARC
  5
2E5
100
AcDbEntity
  8
0
100
AcDbCircle
 62
7
  6
CONTINUOUS
 10
5.1553672762
 20
5.7611198968
 40
0.025
100
AcDbArc
 50
90.0
 51
180.0
  0
ARC
  5
2E6
100
AcDbEntity
  8
0
100
AcDbCircle
 62
7
  6
CONTINUOUS
 10
6.9825607542
 20
5.2791198968
 40
0.025
100
AcDbArc
 50
270.0
 51
342.0
  0
ARC
  5
2E7
100
AcDbEntity
  8
0
100
AcDbCircle
 62
7
  6
CONTINUOUS
 10
7.040179847
 20
5.4564532301
 40
0.025
100
AcDbArc
 50
270.0
 51
342.0
  0
ARC
  5
2E8
100
AcDbEntity
  8
0
100
AcDbCircle
 62
7
  6
CONTINUOUS
 10
7.0303672762
 20
5.6689583408
 40
0.1
100
AcDbArc
 50
342.0
 51
360.0
  0
ARC
  5
2E9
100
AcDbEntity
  8
0
100
AcDbCircle
 62
7
  6
CONTINUOUS
 10
7.1053672762
 20
5.7611198968
 40
0.025
100
AcDbArc
 50
0.0
 51
90.0
  0
ARC
  5
2EA
100
AcDbEntity
  8
0
100
AcDbCircle
 62
7
  6
CONTINUOUS
 10
13.7410898955
 20
5.2389580378
 40
0.0443333333
100
AcDbArc
 50
193.0
 51
270.0
  0
ARC
  5
2EB
100
AcDbEntity
  8
0
100
AcDbCircle
 62
7
  6
CONTINUOUS
 10
13.8796206184
 20
5.2389580378
 40
0.0443333333
100
AcDbArc
 50
270.0
 51
347.0
  0
ARC
  5
2EC
100
AcDbEntity
  8
0
100
AcDbCircle
 62
7
  6
CONTINUOUS
 10
14.2410898955
 20
5.2389580378
 40
0.0443333333
100
AcDbArc
 50
193.0
 51
270.0
  0
ARC
  5
2ED
100
AcDbEntity
  8
0
100
AcDbCircle
 62
7
  6
CONTINUOUS
 10
14.3796206184
 20
5.2389580378
 40
0.0443333333
100
AcDbArc
 50
270.0
 51
347.0
  0
ARC
  5
2EE
100
AcDbEntity
  8
0
100
AcDbCircle
 62
7
  6
CONTINUOUS
 10
14.7410898955
 20
5.2389580378
 40
0.0443333333
100
AcDbArc
 50
193.0
 51
270.0
  0
ARC
  5
2EF
100
AcDbEntity
  8
0
100
AcDbCircle
 62
7
  6
CONTINUOUS
 10
14.8796206184
 20
5.2389580378
 40
0.0443333333
100
AcDbArc
 50
270.0
 51
347.0
  0
ARC
  5
2F0
100
AcDbEntity
  8
0
100
AcDbCircle
 62
7
  6
CONTINUOUS
 10
15.2410898955
 20
5.2389580378
 40
0.0443333333
100
AcDbArc
 50
193.0
 51
270.0
  0
ARC
  5
2F1
100
AcDbEntity
  8
0
100
AcDbCircle
 62
7
  6
CONTINUOUS
 10
15.3796206184
 20
5.2389580378
 40
0.0443333333
100
AcDbArc
 50
270.0
 51
347.0
  0
ARC
  5
2F2
100
AcDbEntity
  8
0
100
AcDbCircle
 62
7
  6
CONTINUOUS
 10
13.6296206184
 20
5.3276247044
 40
0.0443333333
100
AcDbArc
 50
13.0
 51
90.0
  0
ARC
  5
2F3
100
AcDbEntity
  8
0
100
AcDbCircle
 62
7
  6
CONTINUOUS
 10
13.9910898955
 20
5.3276247044
 40
0.0443333333
100
AcDbArc
 50
90.0
 51
167.0
  0
ARC
  5
2F4
100
AcDbEntity
  8
0
100
AcDbCircle
 62
7
  6
CONTINUOUS
 10
14.1296206184
 20
5.3276247044
 40
0.0443333333
100
AcDbArc
 50
13.0
 51
90.0
  0
ARC
  5
2F5
100
AcDbEntity
  8
0
100
AcDbCircle
 62
7
  6
CONTINUOUS
 10
14.4910898955
 20
5.3276247044
 40
0.0443333333
100
AcDbArc
 50
90.0
 51
167.0
  0
ARC
  5
2F6
100
AcDbEntity
  8
0
100
AcDbCircle
 62
7
  6
CONTINUOUS
 10
14.6296206184
 20
5.3276247044
 40
0.0443333333
100
AcDbArc
 50
13.0
 51
90.0
  0
ARC
  5
2F7
100
AcDbEntity
  8
0
100
AcDbCircle
 62
7
  6
CONTINUOUS
 10
14.9910898955
 20
5.3276247044
 40
0.0443333333
100
AcDbArc
 50
90.0
 51
167.0
  0
ARC
  5
2F8
100
AcDbEntity
  8
0
100
AcDbCircle
 62
7
  6
CONTINUOUS
 10
15.1296206184
 20
5.3276247044
 40
0.0443333333
100
AcDbArc
 50
13.0
 51
90.0
  0
ARC
  5
2F9
100
AcDbEntity
  8
0
100
AcDbCircle
 62
7
  6
CONTINUOUS
 10
15.4910898955
 20
5.3276247044
 40
0.0443333333
100
AcDbArc
 50
90.0
 51
167.0
  0
ARC
  5
2FA
100
AcDbEntity
  8
0
100
AcDbCircle
 62
7
  6
CONTINUOUS
 10
17.3796206184
 20
5.2389580378
 40
0.0443333333
100
AcDbArc
 50
270.0
 51
347.0
  0
ARC
  5
2FB
100
AcDbEntity
  8
0
100
AcDbCircle
 62
7
  6
CONTINUOUS
 10
17.2410898955
 20
5.2389580378
 40
0.0443333333
100
AcDbArc
 50
193.0
 51
270.0
  0
ARC
  5
2FC
100
AcDbEntity
  8
0
100
AcDbCircle
 62
7
  6
CONTINUOUS
 10
16.8796206184
 20
5.2389580378
 40
0.0443333333
100
AcDbArc
 50
270.0
 51
347.0
  0
ARC
  5
2FD
100
AcDbEntity
  8
0
100
AcDbCircle
 62
7
  6
CONTINUOUS
 10
16.7410898955
 20
5.2389580378
 40
0.0443333333
100
AcDbArc
 50
193.0
 51
270.0
  0
ARC
  5
2FE
100
AcDbEntity
  8
0
100
AcDbCircle
 62
7
  6
CONTINUOUS
 10
16.3796206184
 20
5.2389580378
 40
0.0443333333
100
AcDbArc
 50
270.0
 51
347.0
  0
ARC
  5
2FF
100
AcDbEntity
  8
0
100
AcDbCircle
 62
7
  6
CONTINUOUS
 10
16.2410898955
 20
5.2389580378
 40
0.0443333333
100
AcDbArc
 50
193.0
 51
270.0
  0
ARC
  5
300
100
AcDbEntity
  8
0
100
AcDbCircle
 62
7
  6
CONTINUOUS
 10
15.8796206184
 20
5.2389580378
 40
0.0443333333
100
AcDbArc
 50
270.0
 51
347.0
  0
ARC
  5
301
100
AcDbEntity
  8
0
100
AcDbCircle
 62
7
  6
CONTINUOUS
 10
15.7410898955
 20
5.2389580378
 40
0.0443333333
100
AcDbArc
 50
193.0
 51
270.0
  0
ARC
  5
302
100
AcDbEntity
  8
0
100
AcDbCircle
 62
7
  6
CONTINUOUS
 10
17.4910898955
 20
5.3276247044
 40
0.0443333333
100
AcDbArc
 50
90.0
 51
167.0
  0
ARC
  5
303
100
AcDbEntity
  8
0
100
AcDbCircle
 62
7
  6
CONTINUOUS
 10
17.1296206184
 20
5.3276247044
 40
0.0443333333
100
AcDbArc
 50
13.0
 51
90.0
  0
ARC
  5
304
100
AcDbEntity
  8
0
100
AcDbCircle
 62
7
  6
CONTINUOUS
 10
16.9910898955
 20
5.3276247044
 40
0.0443333333
100
AcDbArc
 50
90.0
 51
167.0
  0
ARC
  5
305
100
AcDbEntity
  8
0
100
AcDbCircle
 62
7
  6
CONTINUOUS
 10
16.6296206184
 20
5.3276247044
 40
0.0443333333
100
AcDbArc
 50
13.0
 51
90.0
  0
ARC
  5
306
100
AcDbEntity
  8
0
100
AcDbCircle
 62
7
  6
CONTINUOUS
 10
16.4910898955
 20
5.3276247044
 40
0.0443333333
100
AcDbArc
 50
90.0
 51
167.0
  0
ARC
  5
307
100
AcDbEntity
  8
0
100
AcDbCircle
 62
7
  6
CONTINUOUS
 10
16.1296206184
 20
5.3276247044
 40
0.0443333333
100
AcDbArc
 50
13.0
 51
90.0
  0
ARC
  5
308
100
AcDbEntity
  8
0
100
AcDbCircle
 62
7
  6
CONTINUOUS
 10
15.9910898955
 20
5.3276247044
 40
0.0443333333
100
AcDbArc
 50
90.0
 51
167.0
  0
ARC
  5
309
100
AcDbEntity
  8
0
100
AcDbCircle
 62
7
  6
CONTINUOUS
 10
15.6296206184
 20
5.3276247044
 40
0.0443333333
100
AcDbArc
 50
13.0
 51
90.0
  0
SPLINE
  5
30A
100
AcDbEntity
  8
0
100
AcDbSpline
 62
7
  6
CONTINUOUS
 70
0
 71
3
 72
15
 73
11
 74
0
 42
0.0000001
 43
0.0000001
 44
0.0000000001
 40
0.0
 40
0.0
 40
0.0
 40
0.0
 40
0.1295690205
 40
0.2645764547
 40
0.401266107
 40
0.5362716228
 40
0.6662155479
 40
0.7881003129
 40
0.8998138471
 40
1.0
 40
1.0
 40
1.0
 40
1.0
 10
16.8292062882
 20
14.1876909799
 30
0.0
 10
16.8307545527
 20
14.1876909799
 30
0.0
 10
16.833918513
 20
14.187475742
 30
0.0
 10
16.8386410314
 20
14.1865918616
 30
0.0
 10
16.8432973312
 20
14.1851644059
 30
0.0
 10
16.8477091841
 20
14.1832490843
 30
0.0
 10
16.851715367
 20
14.1809204116
 30
0.0
 10
16.855167452
 20
14.1782590885
 30
0.0
 10
16.8579332937
 20
14.1753630303
 30
0.0
 10
16.8593314602
 20
14.1732254578
 30
0.0
 10
16.8598588597
 20
14.1721507307
 30
0.0
  0
SPLINE
  5
30B
100
AcDbEntity
  8
0
100
AcDbSpline
 62
7
  6
CONTINUOUS
 70
0
 71
3
 72
15
 73
11
 74
0
 42
0.0000001
 43
0.0000001
 44
0.0000000001
 40
0.0
 40
0.0
 40
0.0
 40
0.0
 40
0.0996456553
 40
0.2028716515
 40
0.3125939417
 40
0.4308562692
 40
0.5588136596
 40
0.6968300512
 40
0.8443979446
 40
1.0
 40
1.0
 40
1.0
 40
1.0
 10
15.0168778536
 20
14.1795319248
 30
0.0
 10
15.0170679688
 20
14.1801471633
 30
0.0
 10
15.0176066124
 20
14.1813581021
 30
0.0
 10
15.0188376024
 20
14.1829790424
 30
0.0
 10
15.0204609833
 20
14.1843942107
 30
0.0
 10
15.0224451355
 20
14.185578274
 30
0.0
 10
15.0247526712
 20
14.1865169073
 30
0.0
 10
15.0273442911
 20
14.1871956245
 30
0.0
 10
15.0301711765
 20
14.1876032925
 30
0.0
 10
15.0321317986
 20
14.1876909799
 30
0.0
 10
15.0331373499
 20
14.1876909799
 30
0.0
  0
SPLINE
  5
30C
100
AcDbEntity
  8
0
100
AcDbSpline
 62
7
  6
CONTINUOUS
 70
0
 71
3
 72
11
 73
7
 74
0
 42
0.0000001
 43
0.0000001
 44
0.0000000001
 40
0.0
 40
0.0
 40
0.0
 40
0.0
 40
0.2336932114
 40
0.4747271055
 40
0.7289543087
 40
1.0
 40
1.0
 40
1.0
 40
1.0
 10
14.0486125599
 20
11.0462242863
 30
0.0
 10
14.0484377055
 20
11.0456584337
 30
0.0
 10
14.0482073956
 20
11.0444662876
 30
0.0
 10
14.0482496984
 20
11.0426070105
 30
0.0
 10
14.0486675007
 20
11.040699832
 30
0.0
 10
14.0491689624
 20
11.0394597581
 30
0.0
 10
14.0494715781
 20
11.0388430922
 30
0.0
  0
SPLINE
  5
30D
100
AcDbEntity
  8
0
100
AcDbSpline
 62
7
  6
CONTINUOUS
 70
0
 71
3
 72
10
 73
6
 74
0
 42
0.0000001
 43
0.0000001
 44
0.0000000001
 40
0.0
 40
0.0
 40
0.0
 40
0.0
 40
0.519883475
 40
0.7641608548
 40
1.0
 40
1.0
 40
1.0
 40
1.0
 10
16.8879719928
 20
14.1148621888
 30
0.0
 10
16.8894966166
 20
14.111755332
 30
0.0
 10
16.8913396101
 20
14.1069617255
 30
0.0
 10
16.8926364045
 20
14.1004207317
 30
0.0
 10
16.8928757368
 20
14.0972232622
 30
0.0
 10
16.8928903115
 20
14.0956533844
 30
0.0
  0
SPLINE
  5
30E
100
AcDbEntity
  8
0
100
AcDbSpline
 62
7
  6
CONTINUOUS
 70
0
 71
3
 72
15
 73
11
 74
0
 42
0.0000001
 43
0.0000001
 44
0.0000000001
 40
0.0
 40
0.0
 40
0.0
 40
0.0
 40
0.1555720619
 40
0.3031135861
 40
0.4411076504
 40
0.5690449826
 40
0.6872780813
 40
0.7969642589
 40
0.9002175707
 40
1.0
 40
1.0
 40
1.0
 40
1.0
 10
15.9090875782
 20
10.8339190059
 30
0.0
 10
15.9100929351
 20
10.8339190059
 30
0.0
 10
15.9120531906
 20
10.8340066202
 30
0.0
 10
15.9148795928
 20
10.8344140842
 30
0.0
 10
15.9174707721
 20
10.8350927547
 30
0.0
 10
15.9197778525
 20
10.8360312168
 30
0.0
 10
15.9217619174
 20
10.8372142103
 30
0.0
 10
15.9233861291
 20
10.8386280714
 30
0.0
 10
15.9246176084
 20
10.8402499203
 30
0.0
 10
15.9251554882
 20
10.8414623482
 30
0.0
 10
15.9253457399
 20
10.8420784693
 30
0.0
  0
SPLINE
  5
30F
100
AcDbEntity
  8
0
100
AcDbSpline
 62
7
  6
CONTINUOUS
 70
0
 71
3
 72
15
 73
11
 74
0
 42
0.0000001
 43
0.0000001
 44
0.0000000001
 40
0.0
 40
0.0
 40
0.0
 40
0.0
 40
0.1121025724
 40
0.231770208
 40
0.3571199904
 40
0.4862728051
 40
0.6172606851
 40
0.7480189689
 40
0.8764060286
 40
1.0
 40
1.0
 40
1.0
 40
1.0
 10
14.2059328415
 20
10.8446570541
 30
0.0
 10
14.2067118593
 20
10.8438557384
 30
0.0
 10
14.2084374587
 20
10.842308798
 30
0.0
 10
14.211343506
 20
10.8402413135
 30
0.0
 10
14.2145944288
 20
10.8383996195
 30
0.0
 10
14.2181061631
 20
10.8368254643
 30
0.0
 10
14.2217968308
 20
10.8355583082
 30
0.0
 10
14.2255782673
 20
10.8346257774
 30
0.0
 10
14.2293563284
 20
10.8340560033
 30
0.0
 10
14.2318697005
 20
10.8339190059
 30
0.0
 10
14.2331018366
 20
10.8339190059
 30
0.0
  0
SPLINE
  5
310
100
AcDbEntity
  8
0
100
AcDbSpline
 62
7
  6
CONTINUOUS
 70
0
 71
3
 72
9
 73
5
 74
0
 42
0.0000001
 43
0.0000001
 44
0.0000000001
 40
0.0
 40
0.0
 40
0.0
 40
0.0
 40
0.4779587963
 40
1.0
 40
1.0
 40
1.0
 40
1.0
 10
14.0775847111
 20
10.9815545503
 30
0.0
 10
14.0792554066
 20
10.9781500308
 30
0.0
 10
14.0834499584
 20
10.9713614941
 30
0.0
 10
14.0886317025
 20
10.9653157036
 30
0.0
 10
14.0915190166
 20
10.9623457459
 30
0.0
  0
SPLINE
  5
311
100
AcDbEntity
  8
0
100
AcDbSpline
 62
7
  6
CONTINUOUS
 70
0
 71
3
 72
15
 73
11
 74
0
 42
0.0000001
 43
0.0000001
 44
0.0000000001
 40
0.0
 40
0.0
 40
0.0
 40
0.0
 40
0.1556020554
 40
0.3031699488
 40
0.4411863404
 40
0.5691437308
 40
0.6874060583
 40
0.7971283485
 40
0.9003543447
 40
1.0
 40
1.0
 40
1.0
 40
1.0
 10
14.0648720562
 20
11.0543833414
 30
0.0
 10
14.063866505
 20
11.0543833414
 30
0.0
 10
14.0619058828
 20
11.054295654
 30
0.0
 10
14.0590789975
 20
11.053887986
 30
0.0
 10
14.0564873775
 20
11.0532092687
 30
0.0
 10
14.0541798419
 20
11.0522706355
 30
0.0
 10
14.0521956896
 20
11.0510865722
 30
0.0
 10
14.0505723087
 20
11.0496714038
 30
0.0
 10
14.0493413187
 20
11.0480504636
 30
0.0
 10
14.0488026752
 20
11.0468395248
 30
0.0
 10
14.0486125599
 20
11.0462242863
 30
0.0
  0
SPLINE
  5
312
100
AcDbEntity
  8
0
100
AcDbSpline
 62
7
  6
CONTINUOUS
 70
0
 71
3
 72
10
 73
6
 74
0
 42
0.0000001
 43
0.0000001
 44
0.0000000001
 40
0.0
 40
0.0
 40
0.0
 40
0.0
 40
0.2358391452
 40
0.480116525
 40
1.0
 40
1.0
 40
1.0
 40
1.0
 10
15.9246250178
 20
10.9623457459
 30
0.0
 10
15.9246104431
 20
10.9639156237
 30
0.0
 10
15.9243711109
 20
10.9671130932
 30
0.0
 10
15.9230743165
 20
10.973654087
 30
0.0
 10
15.921231323
 20
10.9784476935
 30
0.0
 10
15.9197066991
 20
10.9815545503
 30
0.0
  0
SPLINE
  5
313
100
AcDbEntity
  8
0
100
AcDbSpline
 62
7
  6
CONTINUOUS
 70
0
 71
3
 72
15
 73
11
 74
0
 42
0.0000001
 43
0.0000001
 44
0.0000000001
 40
0.0
 40
0.0
 40
0.0
 40
0.0
 40
0.1001861529
 40
0.2118996871
 40
0.3337844521
 40
0.4637283772
 40
0.598733893
 40
0.7354235453
 40
0.8704309795
 40
1.0
 40
1.0
 40
1.0
 40
1.0
 10
15.8915935661
 20
11.0388430922
 30
0.0
 10
15.8910661666
 20
11.0399178193
 30
0.0
 10
15.8896680001
 20
11.0420553918
 30
0.0
 10
15.8869021584
 20
11.04495145
 30
0.0
 10
15.8834500734
 20
11.0476127731
 30
0.0
 10
15.8794438904
 20
11.0499414458
 30
0.0
 10
15.8750320376
 20
11.0518567674
 30
0.0
 10
15.8703757378
 20
11.053284223
 30
0.0
 10
15.8656532193
 20
11.0541681035
 30
0.0
 10
15.862489259
 20
11.0543833414
 30
0.0
 10
15.8609409945
 20
11.0543833414
 30
0.0
  0
ENDSEC
  0
SECTION
  2
OBJECTS
  0
DICTIONARY
  5
C
100
AcDbDictionary
280
0
281
1
  3
ACAD_GROUP
350
D
  3
ACAD_MLINESTYLE
350
17
  3
ACAD_LAYOUT
350
1A
  3
ACAD_PLOTSETTINGS
350
19
  3
ACAD_PLOTSTYLENAME
350
E
  0
DICTIONARY
  5
D
102
{ACAD_REACTORS
330
C
102
}
100
AcDbDictionary
280
0
281
1
  0
ACDBDICTIONARYWDFLT
  5
E
102
{ACAD_REACTORS
330
C
102
}
100
AcDbDictionary
281
1
  3
Normal
350
F
100
AcDbDictionaryWithDefault
340
F
  0
DICTIONARY
  5
17
102
{ACAD_REACTORS
330
C
102
}
100
AcDbDictionary
280
0
281
1
  3
Standard
350
18
  0
DICTIONARY
  5
19
102
{ACAD_REACTORS
330
C
102
}
100
AcDbDictionary
281
1
  0
DICTIONARY
  5
1A
102
{ACAD_REACTORS
330
C
102
}
100
AcDbDictionary
281
1
  3
Model
350
314
  3
Layout1
350
315
  0
ACDBPLACEHOLDER
  5
F
102
{ACAD_REACTORS
330
E
102
}
  0
MLINESTYLE
  5
18
102
{ACAD_REACTORS
330
17
102
}
100
AcDbMlineStyle
  2
STANDARD
 70
0
  3

 62
256
 51
90.0
 52
90.0
 71
2
 49
0.5
 62
256
  6
BYLAYER
 49
-0.5
 62
256
  6
BYLAYER
  0
LAYOUT
  5
314
102
{ACAD_REACTORS
330
1A
102
}
100
AcDbPlotSettings
  1

  2
none_device
  4
ANSI_C_(22.00_x_17.00_Inches)
  6

 40
0.0
 41
0.0
 42
0.0
 43
0.0
 44
558.8
 45
431.8
 46
0.0
 47
0.0
 48
0.0
 49
0.0
140
0.0
141
0.0
142
1.0
143
1.0
 70
1024
 72
0
 73
0
 74
0
  7

 75
0
147
1.0
148
0.0
149
0.0
100
AcDbLayout
  1
Model
 70
0
 71
0
 10
0.0
 20
0.0
 11
22.0
 21
17.0
 12
0.0
 22
0.0
 32
0.0
 14
0.0
 24
0.0
 34
0.0
 15
0.0
 25
0.0
 35
0.0
146
0.0
 13
0.0
 23
0.0
 33
0.0
 16
1.0
 26
0.0
 36
0.0
 17
0.0
 27
1.0
 37
0.0
 76
0
330
216
345
0
346
0
  0
LAYOUT
  5
315
102
{ACAD_REACTORS
330
1A
102
}
100
AcDbPlotSettings
  1

  2
none_device
  4
ANSI_C_(22.00_x_17.00_Inches)
  6

 40
0.0
 41
0.0
 42
0.0
 43
0.0
 44
558.8
 45
431.8
 46
0.0
 47
0.0
 48
0.0
 49
0.0
140
0.0
141
0.0
142
1.0
143
1.0
 70
0
 72
0
 73
0
 74
0
  7

 75
0
147
1.0
148
0.0
149
0.0
100
AcDbLayout
  1
Layout1
 70
0
 71
1
 10
0.0
 20
0.0
 11
22.0
 21
17.0
 12
0.0
 22
0.0
 32
0.0
 14
0.0
 24
0.0
 34
0.0
 15
0.0
 25
0.0
 35
0.0
146
0.0
 13
0.0
 23
0.0
 33
0.0
 16
1.0
 26
0.0
 36
0.0
 17
0.0
 27
1.0
 37
0.0
 76
0
330
217
345
0
346
0
  0
ENDSEC
  0
EOF