999
DXF file: _cgs_temp_output.dxf
999
Pro/ENGINEER 2015110 by Parametric Technology Corporation
  0
SECTION
  2
HEADER
  9
$ACADVER
  1
AC1021
  9
$DWGCODEPAGE
  3
ANSI_1252
  9
$EXTMAX
 10
22.0
 20
17.0
 30
0.0
  9
$EXTMIN
 10
0.0
 20
0.0
 30
0.0
  9
$LIMMIN
 10
0.0
 20
0.0
  9
$LIMMAX
 10
22.0
 20
17.0
  9
$VIEWCTR
 10
11.0
 20
8.5
  9
$VIEWSIZE
 40
17.0
  9
$CLAYER
  8
0
  9
$LTSCALE
 40
1.21
  9
$CELTYPE
  6
BYLAYER
  9
$DIMSCALE
 40
1.0
  9
$DIMASZ
 40
0.1875
  9
$DIMEXO
 40
0.0625
  9
$DIMDLI
 40
0.836
  9
$DIMEXE
 40
0.125
  9
$DIMCEN
 40
0.198
  9
$DIMLFAC
 40
1.0
  9
$DIMBLK
  1
_CLOSED
  9
$DIMALT
 70
0
  9
$DIMALTF
 40
25.4
  9
$DIMTXT
 40
0.15625
  9
$DIMTOL
 70
0
  9
$DIMLIM
 70
0
  9
$DIMTFAC
 40
1.0
  9
$DIMGAP
 40
0.09
  9
$DIMDSEP
 70
46
  9
$AUNITS
 70
0
  9
$PDMODE
 70
3
  9
$PDSIZE
 40
0.3125
  9
$HANDSEED
  5
296
  9
$TILEMODE
 70
1
  9
$MEASUREMENT
 70
0
  9
$INSUNITS
 70
1
  0
ENDSEC
  0
SECTION
  2
CLASSES
  0
CLASS
  1
ACDBDICTIONARYWDFLT
  2
AcDbDictionaryWithDefault
  3
AutoCAD 2000
 90
0
 91
1
280
0
281
0
  0
CLASS
  1
ACDBPLACEHOLDER
  2
AcDbPlaceHolder
  3
AutoCAD 2000
 90
0
 91
1
280
0
281
0
  0
CLASS
  1
LAYOUT
  2
AcDbLayout
  3
AutoCAD 2000
 90
0
 91
0
280
0
281
0
  0
ENDSEC
  0
SECTION
  2
TABLES
  0
TABLE
  2
VPORT
  5
8
100
AcDbSymbolTable
 70
2
  0
VPORT
  5
1F4
100
AcDbSymbolTableRecord
100
AcDbViewportTableRecord
  2
*ACTIVE
 70
0
 10
0.0
 20
0.0
 11
1.0
 21
1.0
 12
11.0
 22
8.5
 13
0.0
 23
0.0
 14
1.0
 24
1.0
 15
0.0
 25
0.0
 16
0.0
 26
0.0
 36
1.0
 17
0.0
 27
0.0
 37
0.0
 40
17.0
 41
1.2941176471
 42
50.0
 43
0.0
 44
0.0
 50
0.0
 51
0.0
 71
0
 72
100
 73
1
 74
1
 75
0
 76
0
 77
0
 78
0
  0
ENDTAB
  0
TABLE
  2
LTYPE
  5
5
100
AcDbSymbolTable
 70
6
  0
LTYPE
  5
14
100
AcDbSymbolTableRecord
100
AcDbLinetypeTableRecord
  2
BYBLOCK
 70
0
  3

 72
65
 73
0
 40
0.0
  0
LTYPE
  5
15
100
AcDbSymbolTableRecord
100
AcDbLinetypeTableRecord
  2
BYLAYER
 70
0
  3

 72
65
 73
0
 40
0.0
  0
LTYPE
  5
16
100
AcDbSymbolTableRecord
100
AcDbLinetypeTableRecord
  2
CONTINUOUS
 70
64
  3
Solid line
 72
65
 73
0
 40
0.0
  0
LTYPE
  5
1F5
100
AcDbSymbolTableRecord
100
AcDbLinetypeTableRecord
  2
CENTER
 70
64
  3
____ _ ____ _ ____ _ ____ _ ____ _ ____ _ ____
 72
65
 73
4
 40
0.6
 49
0.375
 74
0
 49
-0.075
 74
0
 49
0.075
 74
0
 49
-0.075
 74
0
  0
LTYPE
  5
1F6
100
AcDbSymbolTableRecord
100
AcDbLinetypeTableRecord
  2
HIDDEN
 70
64
  3
- - - - - - - - - - - - - - - - - - - -
 72
65
 73
2
 40
0.2
 49
0.1
 74
0
 49
-0.1
 74
0
  0
LTYPE
  5
1F7
100
AcDbSymbolTableRecord
100
AcDbLinetypeTableRecord
  2
PHANTOM
 70
64
  3
_____ _ _ _____ _ _ _____ _ _ _____
 72
65
 73
6
 40
0.8
 49
0.45
 74
0
 49
-0.05
 74
0
 49
0.1
 74
0
 49
-0.05
 74
0
 49
0.1
 74
0
 49
-0.05
 74
0
  0
LTYPE
  5
1F8
100
AcDbSymbolTableRecord
100
AcDbLinetypeTableRecord
  2
DOT
 70
64
  3
. . . . . . . . . . . . . . . . . . . .
 72
65
 73
2
 40
0.2
 49
0.1
 74
0
 49
-0.1
 74
0
  0
LTYPE
  5
1F9
100
AcDbSymbolTableRecord
100
AcDbLinetypeTableRecord
  2
DASHED
 70
64
  3
- - - - - - - - - - - - - - - - - - - -
 72
65
 73
2
 40
0.2
 49
0.1
 74
0
 49
-0.1
 74
0
  0
ENDTAB
  0
TABLE
  2
LAYER
  5
2
100
AcDbSymbolTable
 70
36
  0
LAYER
  5
10
100
AcDbSymbolTableRecord
100
AcDbLayerTableRecord
  2
0
 70
0
 62
7
  6
CONTINUOUS
370
-3
390
F
  0
LAYER
  5
1FA
100
AcDbSymbolTableRecord
100
AcDbLayerTableRecord
  2
DEFAULT_1
 70
0
 62
7
  6
CENTER
370
-3
390
F
  0
LAYER
  5
1FB
100
AcDbSymbolTableRecord
100
AcDbLayerTableRecord
  2
DEFAULT_2
 70
0
 62
8
  6
HIDDEN
370
-3
390
F
  0
LAYER
  5
1FC
100
AcDbSymbolTableRecord
100
AcDbLayerTableRecord
  2
DEFAULT_3
 70
0
 62
7
  6
PHANTOM
370
-3
390
F
  0
LAYER
  5
1FD
100
AcDbSymbolTableRecord
100
AcDbLayerTableRecord
  2
01_ALL_DTM_PLN
 70
0
 62
7
  6
CONTINUOUS
370
-3
390
F
  0
LAYER
  5
1FE
100
AcDbSymbolTableRecord
100
AcDbLayerTableRecord
  2
01__ASM_ALL_DTM_PLN
 70
0
 62
7
  6
CONTINUOUS
370
-3
390
F
  0
LAYER
  5
1FF
100
AcDbSymbolTableRecord
100
AcDbLayerTableRecord
  2
01__ASM_DEF_DTM_PLN
 70
0
 62
7
  6
CONTINUOUS
370
-3
390
F
  0
LAYER
  5
200
100
AcDbSymbolTableRecord
100
AcDbLayerTableRecord
  2
01___PRT_ALL_DTM_PLN
 70
0
 62
7
  6
CONTINUOUS
370
-3
390
F
  0
LAYER
  5
201
100
AcDbSymbolTableRecord
100
AcDbLayerTableRecord
  2
01___PRT_DEF_DTM_PLN
 70
0
 62
7
  6
CONTINUOUS
370
-3
390
F
  0
LAYER
  5
202
100
AcDbSymbolTableRecord
100
AcDbLayerTableRecord
  2
02_ALL_AXES
 70
0
 62
7
  6
CONTINUOUS
370
-3
390
F
  0
LAYER
  5
203
100
AcDbSymbolTableRecord
100
AcDbLayerTableRecord
  2
02__ASM_ALL_AXES
 70
0
 62
7
  6
CONTINUOUS
370
-3
390
F
  0
LAYER
  5
204
100
AcDbSymbolTableRecord
100
AcDbLayerTableRecord
  2
02___PRT_ALL_AXES
 70
0
 62
7
  6
CONTINUOUS
370
-3
390
F
  0
LAYER
  5
205
100
AcDbSymbolTableRecord
100
AcDbLayerTableRecord
  2
03_ALL_CURVES
 70
0
 62
7
  6
CONTINUOUS
370
-3
390
F
  0
LAYER
  5
206
100
AcDbSymbolTableRecord
100
AcDbLayerTableRecord
  2
03__ASM_ALL_CURVES
 70
0
 62
7
  6
CONTINUOUS
370
-3
390
F
  0
LAYER
  5
207
100
AcDbSymbolTableRecord
100
AcDbLayerTableRecord
  2
03___PRT_ALL_CURVES
 70
0
 62
7
  6
CONTINUOUS
370
-3
390
F
  0
LAYER
  5
208
100
AcDbSymbolTableRecord
100
AcDbLayerTableRecord
  2
04_ALL_DTM_PNT
 70
0
 62
7
  6
CONTINUOUS
370
-3
390
F
  0
LAYER
  5
209
100
AcDbSymbolTableRecord
100
AcDbLayerTableRecord
  2
04__ASM_ALL_DTM_PNT
 70
0
 62
7
  6
CONTINUOUS
370
-3
390
F
  0
LAYER
  5
20A
100
AcDbSymbolTableRecord
100
AcDbLayerTableRecord
  2
04___PRT_ALL_DTM_PNT
 70
0
 62
7
  6
CONTINUOUS
370
-3
390
F
  0
LAYER
  5
20B
100
AcDbSymbolTableRecord
100
AcDbLayerTableRecord
  2
05_ALL_DTM_CSYS
 70
0
 62
7
  6
CONTINUOUS
370
-3
390
F
  0
LAYER
  5
20C
100
AcDbSymbolTableRecord
100
AcDbLayerTableRecord
  2
05__ASM_ALL_DTM_CSYS
 70
0
 62
7
  6
CONTINUOUS
370
-3
390
F
  0
LAYER
  5
20D
100
AcDbSymbolTableRecord
100
AcDbLayerTableRecord
  2
05__ASM_DEF_DTM_CSYS
 70
0
 62
7
  6
CONTINUOUS
370
-3
390
F
  0
LAYER
  5
20E
100
AcDbSymbolTableRecord
100
AcDbLayerTableRecord
  2
05___PRT_ALL_DTM_CSYS
 70
0
 62
7
  6
CONTINUOUS
370
-3
390
F
  0
LAYER
  5
20F
100
AcDbSymbolTableRecord
100
AcDbLayerTableRecord
  2
05___PRT_DEF_DTM_CSYS
 70
0
 62
7
  6
CONTINUOUS
370
-3
390
F
  0
LAYER
  5
210
100
AcDbSymbolTableRecord
100
AcDbLayerTableRecord
  2
06_ALL_SURFS
 70
0
 62
7
  6
CONTINUOUS
370
-3
390
F
  0
LAYER
  5
211
100
AcDbSymbolTableRecord
100
AcDbLayerTableRecord
  2
06__ASM_ALL_SURFS
 70
0
 62
7
  6
CONTINUOUS
370
-3
390
F
  0
LAYER
  5
212
100
AcDbSymbolTableRecord
100
AcDbLayerTableRecord
  2
06___PRT_ALL_SURFS
 70
0
 62
7
  6
CONTINUOUS
370
-3
390
F
  0
LAYER
  5
213
100
AcDbSymbolTableRecord
100
AcDbLayerTableRecord
  2
07__ASM_ALL_SKELETONS
 70
0
 62
7
  6
CONTINUOUS
370
-3
390
F
  0
ENDTAB
  0
TABLE
  2
STYLE
  5
3
100
AcDbSymbolTable
 70
1
  0
STYLE
  5
11
100
AcDbSymbolTableRecord
100
AcDbTextStyleTableRecord
  2
STANDARD
 70
0
 40
0.0
 41
0.8
 50
0.0
 71
0
 42
0.2
  3
txt
  4

  0
STYLE
  5
214
100
AcDbSymbolTableRecord
100
AcDbTextStyleTableRecord
  2
TEXTSTYLE_1
 70
0
 40
0.0
 41
0.8
 50
0.0
 71
0
 42
0.2
  3
gdt
  4

  0
ENDTAB
  0
TABLE
  2
VIEW
  5
6
100
AcDbSymbolTable
 70
0
  0
ENDTAB
  0
TABLE
  2
UCS
  5
7
100
AcDbSymbolTable
 70
0
  0
ENDTAB
  0
TABLE
  2
APPID
  5
9
100
AcDbSymbolTable
 70
1
  0
APPID
  5
215
100
AcDbSymbolTableRecord
100
AcDbRegAppTableRecord
  2
ACAD
 70
0
  0
ENDTAB
  0
TABLE
  2
BLOCK_RECORD
  5
1
100
AcDbSymbolTable
 70
0
  0
BLOCK_RECORD
  5
216
100
AcDbSymbolTableRecord
100
AcDbBlockTableRecord
  2
*Model_Space
  0
BLOCK_RECORD
  5
217
100
AcDbSymbolTableRecord
100
AcDbBlockTableRecord
  2
*Paper_Space
  0
ENDTAB
  0
TABLE
  2
DIMSTYLE
  5
A
100
AcDbSymbolTable
 70
1
100
AcDbDimStyleTable
 71
0
  0
DIMSTYLE
105
218
100
AcDbSymbolTableRecord
100
AcDbDimStyleTableRecord
  2
STANDARD
 70
0
  3

  4

 40
1.0
 41
0.1875
 42
0.0625
 43
0.38
 44
0.125
 45
0.0
 46
0.0
 47
0.0001
 48
0.0001
140
0.15625
141
0.09
142
0.0
143
25.4
144
1.0
145
0.0
146
1.0
147
0.09
 71
0.0
 72
0.0
 73
1
 74
1
 75
0
 76
0
 77
0
 78
4
170
0
171
2
172
0
173
0
174
0
175
0
176
0
177
0
178
0
270
2
271
4
272
4
273
2
274
2
275
0
280
0
281
0
282
0
283
1
284
4
285
0
286
0
287
3
288
0
340
11
278
46
  0
ENDTAB
  0
ENDSEC
  0
SECTION
  2
BLOCKS
  0
BLOCK
  5
20
100
AcDbEntity
  8
0
100
AcDbBlockBegin
  2
*Model_Space
 70
0
 10
0.0
 20
0.0
 30
0.0
  3
*Model_Space
  1

  0
ENDBLK
  5
21
100
AcDbEntity
  8
0
100
AcDbBlockEnd
  0
BLOCK
  5
1C
100
AcDbEntity
  8
0
100
AcDbBlockBegin
  2
*Paper_Space
 70
0
 10
0.0
 20
0.0
 30
0.0
  3
*Paper_Space
  1

  0
ENDBLK
  5
1D
100
AcDbEntity
  8
0
100
AcDbBlockEnd
  0
ENDSEC
  0
SECTION
  2
ENTITIES
  0
MTEXT
  5
219
100
AcDbEntity
  8
0
100
AcDbMText
 62
7
  6
CONTINUOUS
  7
STANDARD
 71
1
 72
1
 10
15.9560215477
 20
0.9479130325
 30
0.0
 11
1.0
 21
0.0
 31
0.0
 44
0.9
  1
SCALE: 1:1.000
 40
0.3
 41
3.36
  0
LINE
  5
21A
100
AcDbEntity
  8
0
100
AcDbLine
 62
7
  6
CONTINUOUS
 10
0.0
 20
0.0
 11
0.0
 21
17.0
  0
LINE
  5
21B
100
AcDbEntity
  8
0
100
AcDbLine
 62
7
  6
CONTINUOUS
 10
0.0
 20
0.0
 11
22.0
 21
0.0
  0
LINE
  5
21C
100
AcDbEntity
  8
0
100
AcDbLine
 62
7
  6
CONTINUOUS
 10
0.0
 20
17.0
 11
22.0
 21
17.0
  0
LINE
  5
21D
100
AcDbEntity
  8
0
100
AcDbLine
 62
7
  6
CONTINUOUS
 10
22.0
 20
0.0
 11
22.0
 21
17.0
  0
LINE
  5
21E
100
AcDbEntity
  8
0
100
AcDbLine
 62
7
  6
CONTINUOUS
 10
4.6503672762
 20
5.7701198968
 11
4.6503672762
 21
5.6034532301
  0
LINE
  5
21F
100
AcDbEntity
  8
0
100
AcDbLine
 62
7
  6
CONTINUOUS
 10
4.6503672762
 20
5.6034532301
 11
4.7353452581
 21
5.2972262682
  0
LINE
  5
220
100
AcDbEntity
  8
0
100
AcDbLine
 62
7
  6
CONTINUOUS
 10
4.9353892943
 20
5.2972262682
 11
5.0203672762
 21
5.6034532301
  0
LINE
  5
221
100
AcDbEntity
  8
0
100
AcDbLine
 62
7
  6
CONTINUOUS
 10
5.0203672762
 20
5.6034532301
 11
5.1053452581
 21
5.2972262682
  0
LINE
  5
222
100
AcDbEntity
  8
0
100
AcDbLine
 62
7
  6
CONTINUOUS
 10
5.3053892943
 20
5.2972262682
 11
5.3903672762
 21
5.6034532301
  0
LINE
  5
223
100
AcDbEntity
  8
0
100
AcDbLine
 62
7
  6
CONTINUOUS
 10
5.3903672762
 20
5.6034532301
 11
5.4753452581
 21
5.2972262682
  0
LINE
  5
224
100
AcDbEntity
  8
0
100
AcDbLine
 62
7
  6
CONTINUOUS
 10
5.6753892943
 20
5.2972262682
 11
5.7603672762
 21
5.6034532301
  0
LINE
  5
225
100
AcDbEntity
  8
0
100
AcDbLine
 62
7
  6
CONTINUOUS
 10
5.7603672762
 20
5.6034532301
 11
5.8453452581
 21
5.2972262682
  0
LINE
  5
226
100
AcDbEntity
  8
0
100
AcDbLine
 62
7
  6
CONTINUOUS
 10
4.7709979735
 20
5.2701198968
 11
4.8997365789
 21
5.2701198968
  0
LINE
  5
227
100
AcDbEntity
  8
0
100
AcDbLine
 62
7
  6
CONTINUOUS
 10
5.1409979735
 20
5.2701198968
 11
5.2697365789
 21
5.2701198968
  0
LINE
  5
228
100
AcDbEntity
  8
0
100
AcDbLine
 62
7
  6
CONTINUOUS
 10
5.5109979735
 20
5.2701198968
 11
5.6397365789
 21
5.2701198968
  0
LINE
  5
229
100
AcDbEntity
  8
0
100
AcDbLine
 62
7
  6
CONTINUOUS
 10
5.8809979735
 20
5.2701198968
 11
6.0097365789
 21
5.2701198968
  0
LINE
  5
22A
100
AcDbEntity
  8
0
100
AcDbLine
 62
7
  6
CONTINUOUS
 10
6.2509979735
 20
5.2701198968
 11
6.3797365789
 21
5.2701198968
  0
LINE
  5
22B
100
AcDbEntity
  8
0
100
AcDbLine
 62
7
  6
CONTINUOUS
 10
6.6209979735
 20
5.2701198968
 11
6.7497365789
 21
5.2701198968
  0
LINE
  5
22C
100
AcDbEntity
  8
0
100
AcDbLine
 62
7
  6
CONTINUOUS
 10
6.9909979735
 20
5.2701198968
 11
7.1197365789
 21
5.2701198968
  0
LINE
  5
22D
100
AcDbEntity
  8
0
100
AcDbLine
 62
7
  6
CONTINUOUS
 10
7.3609979735
 20
5.2701198968
 11
7.4897365789
 21
5.2701198968
  0
LINE
  5
22E
100
AcDbEntity
  8
0
100
AcDbLine
 62
7
  6
CONTINUOUS
 10
6.0453892943
 20
5.2972262682
 11
6.1303672762
 21
5.6034532301
  0
LINE
  5
22F
100
AcDbEntity
  8
0
100
AcDbLine
 62
7
  6
CONTINUOUS
 10
6.1303672762
 20
5.6034532301
 11
6.2153452581
 21
5.2972262682
  0
LINE
  5
230
100
AcDbEntity
  8
0
100
AcDbLine
 62
7
  6
CONTINUOUS
 10
7.6103672762
 20
5.7701198968
 11
4.6503672762
 21
5.7701198968
  0
LINE
  5
231
100
AcDbEntity
  8
0
100
AcDbLine
 62
7
  6
CONTINUOUS
 10
6.4153892943
 20
5.2972262682
 11
6.5003672762
 21
5.6034532301
  0
LINE
  5
232
100
AcDbEntity
  8
0
100
AcDbLine
 62
7
  6
CONTINUOUS
 10
6.5003672762
 20
5.6034532301
 11
6.5853452581
 21
5.2972262682
  0
LINE
  5
233
100
AcDbEntity
  8
0
100
AcDbLine
 62
7
  6
CONTINUOUS
 10
6.7853892943
 20
5.2972262682
 11
6.8703672762
 21
5.6034532301
  0
LINE
  5
234
100
AcDbEntity
  8
0
100
AcDbLine
 62
7
  6
CONTINUOUS
 10
6.8703672762
 20
5.6034532301
 11
6.9553452581
 21
5.2972262682
  0
LINE
  5
235
100
AcDbEntity
  8
0
100
AcDbLine
 62
7
  6
CONTINUOUS
 10
7.1553892943
 20
5.2972262682
 11
7.2403672762
 21
5.6034532301
  0
LINE
  5
236
100
AcDbEntity
  8
0
100
AcDbLine
 62
7
  6
CONTINUOUS
 10
7.2403672762
 20
5.6034532301
 11
7.3253452581
 21
5.2972262682
  0
LINE
  5
237
100
AcDbEntity
  8
0
100
AcDbLine
 62
7
  6
CONTINUOUS
 10
7.6103672762
 20
5.6034532301
 11
7.6103672762
 21
5.7701198968
  0
LINE
  5
238
100
AcDbEntity
  8
0
100
AcDbLine
 62
7
  6
CONTINUOUS
 10
7.5253892943
 20
5.2972262682
 11
7.6103672762
 21
5.6034532301
  0
LINE
  5
239
100
AcDbEntity
  8
0
100
AcDbLine
 62
7
  6
CONTINUOUS
 10
7.5508720839
 20
10.6000477814
 11
4.5908720839
 21
10.6000477814
  0
LINE
  5
23A
100
AcDbEntity
  8
0
100
AcDbLine
 62
7
  6
CONTINUOUS
 10
4.5908720839
 20
14.6000477814
 11
4.5908720839
 21
10.6000477814
  0
LINE
  5
23B
100
AcDbEntity
  8
0
100
AcDbLine
 62
7
  6
CONTINUOUS
 10
7.5508720839
 20
14.6000477814
 11
7.5508720839
 21
10.6000477814
  0
LINE
  5
23C
100
AcDbEntity
  8
0
100
AcDbLine
 62
7
  6
CONTINUOUS
 10
4.5908720839
 20
14.6000477814
 11
7.5508720839
 21
14.6000477814
  0
LINE
  5
23D
100
AcDbEntity
  8
0
100
AcDbLine
 62
7
  6
CONTINUOUS
 10
13.5603552569
 20
5.2106247044
 11
13.5603552569
 21
5.7106247044
  0
LINE
  5
23E
100
AcDbEntity
  8
0
100
AcDbLine
 62
7
  6
CONTINUOUS
 10
13.5603552569
 20
5.2106247044
 11
17.5603552569
 21
5.2106247044
  0
LINE
  5
23F
100
AcDbEntity
  8
0
100
AcDbLine
 62
7
  6
CONTINUOUS
 10
17.5603552569
 20
5.5439580378
 11
13.5603552569
 21
5.5439580378
  0
LINE
  5
240
100
AcDbEntity
  8
0
100
AcDbLine
 62
7
  6
CONTINUOUS
 10
17.5603552569
 20
5.7106247044
 11
13.5603552569
 21
5.7106247044
  0
LINE
  5
241
100
AcDbEntity
  8
0
100
AcDbLine
 62
7
  6
CONTINUOUS
 10
17.5603552569
 20
5.2106247044
 11
17.5603552569
 21
5.7106247044
  0
LINE
  5
242
100
AcDbEntity
  8
0
100
AcDbLine
 62
7
  6
CONTINUOUS
 10
13.6416586363
 20
10.9959520043
 11
13.8133405849
 21
10.8055982723
  0
LINE
  5
243
100
AcDbEntity
  8
0
100
AcDbLine
 62
7
  6
CONTINUOUS
 10
13.5908183252
 20
11.0995536657
 11
13.6416586363
 21
10.9959520043
  0
LINE
  5
244
100
AcDbEntity
  8
0
100
AcDbLine
 62
7
  6
CONTINUOUS
 10
13.9824512041
 20
10.9959520043
 11
14.1541331526
 21
10.8055982723
  0
LINE
  5
245
100
AcDbEntity
  8
0
100
AcDbLine
 62
7
  6
CONTINUOUS
 10
14.3232437719
 20
10.9959520043
 11
14.4949257204
 21
10.8055982723
  0
LINE
  5
246
100
AcDbEntity
  8
0
100
AcDbLine
 62
7
  6
CONTINUOUS
 10
13.8544474885
 20
10.7887486816
 11
13.9730235963
 21
10.7887486816
  0
LINE
  5
247
100
AcDbEntity
  8
0
100
AcDbLine
 62
7
  6
CONTINUOUS
 10
14.1952400563
 20
10.7887486816
 11
14.3138161641
 21
10.7887486816
  0
LINE
  5
248
100
AcDbEntity
  8
0
100
AcDbLine
 62
7
  6
CONTINUOUS
 10
14.536032624
 20
10.7887486816
 11
14.6546087319
 21
10.7887486816
  0
LINE
  5
249
100
AcDbEntity
  8
0
100
AcDbLine
 62
7
  6
CONTINUOUS
 10
14.8768251918
 20
10.7887486816
 11
14.9954012997
 21
10.7887486816
  0
LINE
  5
24A
100
AcDbEntity
  8
0
100
AcDbLine
 62
7
  6
CONTINUOUS
 10
15.2176177596
 20
10.7887486816
 11
15.3361938675
 21
10.7887486816
  0
LINE
  5
24B
100
AcDbEntity
  8
0
100
AcDbLine
 62
7
  6
CONTINUOUS
 10
15.5584103274
 20
10.7887486816
 11
15.6769864352
 21
10.7887486816
  0
LINE
  5
24C
100
AcDbEntity
  8
0
100
AcDbLine
 62
7
  6
CONTINUOUS
 10
15.8992028952
 20
10.7887486816
 11
16.017779003
 21
10.7887486816
  0
LINE
  5
24D
100
AcDbEntity
  8
0
100
AcDbLine
 62
7
  6
CONTINUOUS
 10
16.239995463
 20
10.7887486816
 11
16.3585715708
 21
10.7887486816
  0
LINE
  5
24E
100
AcDbEntity
  8
0
100
AcDbLine
 62
7
  6
CONTINUOUS
 10
13.9975933437
 20
10.8055982723
 11
13.9824512041
 21
10.9959520043
  0
LINE
  5
24F
100
AcDbEntity
  8
0
100
AcDbLine
 62
7
  6
CONTINUOUS
 10
14.6640363396
 20
10.9959520043
 11
14.8357182882
 21
10.8055982723
  0
LINE
  5
250
100
AcDbEntity
  8
0
100
AcDbLine
 62
7
  6
CONTINUOUS
 10
14.5590836188
 20
14.2328613042
 11
13.5908183252
 21
11.0995536657
  0
LINE
  5
251
100
AcDbEntity
  8
0
100
AcDbLine
 62
7
  6
CONTINUOUS
 10
16.3171588674
 20
11.0995536657
 11
13.5908183252
 21
11.0995536657
  0
LINE
  5
252
100
AcDbEntity
  8
0
100
AcDbLine
 62
7
  6
CONTINUOUS
 10
15.0048289074
 20
10.9959520043
 11
15.176510856
 21
10.8055982723
  0
LINE
  5
253
100
AcDbEntity
  8
0
100
AcDbLine
 62
7
  6
CONTINUOUS
 10
14.3383859114
 20
10.8055982723
 11
14.3232437719
 21
10.9959520043
  0
LINE
  5
254
100
AcDbEntity
  8
0
100
AcDbLine
 62
7
  6
CONTINUOUS
 10
13.9970851272
 20
10.8008248648
 11
13.9975933437
 21
10.8055982723
  0
LINE
  5
255
100
AcDbEntity
  8
0
100
AcDbLine
 62
7
  6
CONTINUOUS
 10
15.3456214752
 20
10.9959520043
 11
15.5173034238
 21
10.8055982723
  0
LINE
  5
256
100
AcDbEntity
  8
0
100
AcDbLine
 62
7
  6
CONTINUOUS
 10
14.6791784792
 20
10.8055982723
 11
14.6640363396
 21
10.9959520043
  0
LINE
  5
257
100
AcDbEntity
  8
0
100
AcDbLine
 62
7
  6
CONTINUOUS
 10
14.337877695
 20
10.8008248648
 11
14.3383859114
 21
10.8055982723
  0
LINE
  5
258
100
AcDbEntity
  8
0
100
AcDbLine
 62
7
  6
CONTINUOUS
 10
13.9984784285
 20
10.8053247604
 11
14.0382635866
 21
10.9340695793
  0
LINE
  5
259
100
AcDbEntity
  8
0
100
AcDbLine
 62
7
  6
CONTINUOUS
 10
15.686414043
 20
10.9959520043
 11
15.8580959915
 21
10.8055982723
  0
LINE
  5
25A
100
AcDbEntity
  8
0
100
AcDbLine
 62
7
  6
CONTINUOUS
 10
15.019971047
 20
10.8055982723
 11
15.0048289074
 21
10.9959520043
  0
LINE
  5
25B
100
AcDbEntity
  8
0
100
AcDbLine
 62
7
  6
CONTINUOUS
 10
14.6786702628
 20
10.8008248648
 11
14.6791784792
 21
10.8055982723
  0
LINE
  5
25C
100
AcDbEntity
  8
0
100
AcDbLine
 62
7
  6
CONTINUOUS
 10
14.3392709963
 20
10.8053247604
 11
14.3790561544
 21
10.9340695793
  0
LINE
  5
25D
100
AcDbEntity
  8
0
100
AcDbLine
 62
7
  6
CONTINUOUS
 10
16.0272066108
 20
10.9959520043
 11
16.1988885593
 21
10.8055982723
  0
LINE
  5
25E
100
AcDbEntity
  8
0
100
AcDbLine
 62
7
  6
CONTINUOUS
 10
15.3607636148
 20
10.8055982723
 11
15.3456214752
 21
10.9959520043
  0
LINE
  5
25F
100
AcDbEntity
  8
0
100
AcDbLine
 62
7
  6
CONTINUOUS
 10
15.0194628306
 20
10.8008248648
 11
15.019971047
 21
10.8055982723
  0
LINE
  5
260
100
AcDbEntity
  8
0
100
AcDbLine
 62
7
  6
CONTINUOUS
 10
14.680063564
 20
10.8053247604
 11
14.7198487222
 21
10.9340695793
  0
LINE
  5
261
100
AcDbEntity
  8
0
100
AcDbLine
 62
7
  6
CONTINUOUS
 10
15.7015561826
 20
10.8055982723
 11
15.686414043
 21
10.9959520043
  0
LINE
  5
262
100
AcDbEntity
  8
0
100
AcDbLine
 62
7
  6
CONTINUOUS
 10
15.3602553983
 20
10.8008248648
 11
15.3607636148
 21
10.8055982723
  0
LINE
  5
263
100
AcDbEntity
  8
0
100
AcDbLine
 62
7
  6
CONTINUOUS
 10
15.0208561318
 20
10.8053247604
 11
15.06064129
 21
10.9340695793
  0
LINE
  5
264
100
AcDbEntity
  8
0
100
AcDbLine
 62
7
  6
CONTINUOUS
 10
16.3679991786
 20
10.9959520043
 11
16.3171588674
 21
11.0995536657
  0
LINE
  5
265
100
AcDbEntity
  8
0
100
AcDbLine
 62
7
  6
CONTINUOUS
 10
16.0423487503
 20
10.8055982723
 11
16.0272066108
 21
10.9959520043
  0
LINE
  5
266
100
AcDbEntity
  8
0
100
AcDbLine
 62
7
  6
CONTINUOUS
 10
15.7010479661
 20
10.8008248648
 11
15.7015561826
 21
10.8055982723
  0
LINE
  5
267
100
AcDbEntity
  8
0
100
AcDbLine
 62
7
  6
CONTINUOUS
 10
15.3616486996
 20
10.8053247604
 11
15.4014338577
 21
10.9340695793
  0
LINE
  5
268
100
AcDbEntity
  8
0
100
AcDbLine
 62
7
  6
CONTINUOUS
 10
16.3831413181
 20
10.8055982723
 11
16.3679991786
 21
10.9959520043
  0
LINE
  5
269
100
AcDbEntity
  8
0
100
AcDbLine
 62
7
  6
CONTINUOUS
 10
16.0418405339
 20
10.8008248648
 11
16.0423487503
 21
10.8055982723
  0
LINE
  5
26A
100
AcDbEntity
  8
0
100
AcDbLine
 62
7
  6
CONTINUOUS
 10
15.7024412674
 20
10.8053247604
 11
15.7422264255
 21
10.9340695793
  0
LINE
  5
26B
100
AcDbEntity
  8
0
100
AcDbLine
 62
7
  6
CONTINUOUS
 10
16.3826331017
 20
10.8008248648
 11
16.3831413181
 21
10.8055982723
  0
LINE
  5
26C
100
AcDbEntity
  8
0
100
AcDbLine
 62
7
  6
CONTINUOUS
 10
16.0432338352
 20
10.8053247604
 11
16.0830189933
 21
10.9340695793
  0
LINE
  5
26D
100
AcDbEntity
  8
0
100
AcDbLine
 62
7
  6
CONTINUOUS
 10
17.2854241611
 20
14.2328613042
 11
16.3171588674
 21
11.0995536657
  0
LINE
  5
26E
100
AcDbEntity
  8
0
100
AcDbLine
 62
7
  6
CONTINUOUS
 10
17.3362644722
 20
14.1292596429
 11
16.3679991786
 21
10.9959520043
  0
LINE
  5
26F
100
AcDbEntity
  8
0
100
AcDbLine
 62
7
  6
CONTINUOUS
 10
16.3840264029
 20
10.8053247604
 11
17.3509008866
 21
13.9341317362
  0
LINE
  5
270
100
AcDbEntity
  8
0
100
AcDbLine
 62
7
  6
CONTINUOUS
 10
17.3514066117
 20
13.9389059108
 11
17.3508983953
 21
13.9341325033
  0
LINE
  5
271
100
AcDbEntity
  8
0
100
AcDbLine
 62
7
  6
CONTINUOUS
 10
14.5590836188
 20
14.2328613042
 11
17.2854241611
 21
14.2328613042
  0
LINE
  5
272
100
AcDbEntity
  8
0
100
AcDbLine
 62
7
  6
CONTINUOUS
 10
17.3514066117
 20
13.9389059108
 11
17.3362644722
 21
14.1292596429
  0
LINE
  5
273
100
AcDbEntity
  8
0
100
AcDbLine
 62
7
  6
CONTINUOUS
 10
17.3362644722
 20
14.1292596429
 11
17.2854241611
 21
14.2328613042
  0
ARC
  5
274
100
AcDbEntity
  8
0
100
AcDbCircle
 62
7
  6
CONTINUOUS
 10
4.7709979735
 20
5.3071198968
 40
0.037
100
AcDbArc
 50
195.5093345227
 51
270.0
  0
ARC
  5
275
100
AcDbEntity
  8
0
100
AcDbCircle
 62
7
  6
CONTINUOUS
 10
4.8997365789
 20
5.3071198968
 40
0.037
100
AcDbArc
 50
270.0
 51
344.4906654773
  0
ARC
  5
276
100
AcDbEntity
  8
0
100
AcDbCircle
 62
7
  6
CONTINUOUS
 10
5.1409979735
 20
5.3071198968
 40
0.037
100
AcDbArc
 50
195.5093345227
 51
270.0
  0
ARC
  5
277
100
AcDbEntity
  8
0
100
AcDbCircle
 62
7
  6
CONTINUOUS
 10
5.2697365789
 20
5.3071198968
 40
0.037
100
AcDbArc
 50
270.0
 51
344.4906654773
  0
ARC
  5
278
100
AcDbEntity
  8
0
100
AcDbCircle
 62
7
  6
CONTINUOUS
 10
5.5109979735
 20
5.3071198968
 40
0.037
100
AcDbArc
 50
195.5093345227
 51
270.0
  0
ARC
  5
279
100
AcDbEntity
  8
0
100
AcDbCircle
 62
7
  6
CONTINUOUS
 10
5.6397365789
 20
5.3071198968
 40
0.037
100
AcDbArc
 50
270.0
 51
344.4906654773
  0
ARC
  5
27A
100
AcDbEntity
  8
0
100
AcDbCircle
 62
7
  6
CONTINUOUS
 10
5.8809979735
 20
5.3071198968
 40
0.037
100
AcDbArc
 50
195.5093345227
 51
270.0
  0
ARC
  5
27B
100
AcDbEntity
  8
0
100
AcDbCircle
 62
7
  6
CONTINUOUS
 10
6.0097365789
 20
5.3071198968
 40
0.037
100
AcDbArc
 50
270.0
 51
344.4906654773
  0
ARC
  5
27C
100
AcDbEntity
  8
0
100
AcDbCircle
 62
7
  6
CONTINUOUS
 10
6.2509979735
 20
5.3071198968
 40
0.037
100
AcDbArc
 50
195.5093345227
 51
270.0
  0
ARC
  5
27D
100
AcDbEntity
  8
0
100
AcDbCircle
 62
7
  6
CONTINUOUS
 10
6.3797365789
 20
5.3071198968
 40
0.037
100
AcDbArc
 50
270.0
 51
344.4906654773
  0
ARC
  5
27E
100
AcDbEntity
  8
0
100
AcDbCircle
 62
7
  6
CONTINUOUS
 10
6.6209979735
 20
5.3071198968
 40
0.037
100
AcDbArc
 50
195.5093345227
 51
270.0
  0
ARC
  5
27F
100
AcDbEntity
  8
0
100
AcDbCircle
 62
7
  6
CONTINUOUS
 10
6.7497365789
 20
5.3071198968
 40
0.037
100
AcDbArc
 50
270.0
 51
344.4906654773
  0
ARC
  5
280
100
AcDbEntity
  8
0
100
AcDbCircle
 62
7
  6
CONTINUOUS
 10
6.9909979735
 20
5.3071198968
 40
0.037
100
AcDbArc
 50
195.5093345227
 51
270.0
  0
ARC
  5
281
100
AcDbEntity
  8
0
100
AcDbCircle
 62
7
  6
CONTINUOUS
 10
7.1197365789
 20
5.3071198968
 40
0.037
100
AcDbArc
 50
270.0
 51
344.4906654773
  0
ARC
  5
282
100
AcDbEntity
  8
0
100
AcDbCircle
 62
7
  6
CONTINUOUS
 10
7.3609979735
 20
5.3071198968
 40
0.037
100
AcDbArc
 50
195.5093345227
 51
270.0
  0
ARC
  5
283
100
AcDbEntity
  8
0
100
AcDbCircle
 62
7
  6
CONTINUOUS
 10
7.4897365789
 20
5.3071198968
 40
0.037
100
AcDbArc
 50
270.0
 51
344.4906654773
  0
SPLINE
  5
284
100
AcDbEntity
  8
0
100
AcDbSpline
 62
7
  6
CONTINUOUS
 70
0
 71
3
 72
15
 73
11
 74
0
 42
0.0000001
 43
0.0000001
 44
0.0000000001
 40
0.0
 40
0.0
 40
0.0
 40
0.0
 40
0.1555439497
 40
0.3030901399
 40
0.4411120134
 40
0.5690613068
 40
0.6873030784
 40
0.7969802288
 40
0.9002200761
 40
1.0
 40
1.0
 40
1.0
 40
1.0
 10
16.3585715708
 20
10.7887486816
 30
0.0
 10
16.3600592298
 20
10.7887486816
 30
0.0
 10
16.3629601881
 20
10.7888784443
 30
0.0
 10
16.3671432545
 20
10.7894816035
 30
0.0
 10
16.3709787869
 20
10.7904856012
 30
0.0
 10
16.3743934685
 20
10.7918752128
 30
0.0
 10
16.3773302355
 20
10.7936257026
 30
0.0
 10
16.3797334983
 20
10.79571871
 30
0.0
 10
16.381556149
 20
10.7981185249
 30
0.0
 10
16.3823527021
 20
10.7999126688
 30
0.0
 10
16.3826337926
 20
10.8008246515
 30
0.0
  0
SPLINE
  5
285
100
AcDbEntity
  8
0
100
AcDbSpline
 62
7
  6
CONTINUOUS
 70
0
 71
3
 72
15
 73
11
 74
0
 42
0.0000001
 43
0.0000001
 44
0.0000000001
 40
0.0
 40
0.0
 40
0.0
 40
0.0
 40
0.1105306369
 40
0.2292431143
 40
0.3542338532
 40
0.4835317261
 40
0.6150389693
 40
0.746540218
 40
0.8757309184
 40
1.0
 40
1.0
 40
1.0
 40
1.0
 10
16.1988885593
 20
10.8055982723
 30
0.0
 10
16.2000131072
 20
10.8043514209
 30
0.0
 10
16.2025398846
 20
10.8019376015
 30
0.0
 10
16.2068561482
 20
10.7987064518
 30
0.0
 10
16.2117425613
 20
10.795817429
 30
0.0
 10
16.2170636354
 20
10.7933401955
 30
0.0
 10
16.2226869755
 20
10.7913414262
 30
0.0
 10
16.2284687644
 20
10.7898675885
 30
0.0
 10
16.2342552981
 20
10.7889661407
 30
0.0
 10
16.2381077023
 20
10.7887486816
 30
0.0
 10
16.239995463
 20
10.7887486816
 30
0.0
  0
SPLINE
  5
286
100
AcDbEntity
  8
0
100
AcDbSpline
 62
7
  6
CONTINUOUS
 70
0
 71
3
 72
15
 73
11
 74
0
 42
0.0000001
 43
0.0000001
 44
0.0000000001
 40
0.0
 40
0.0
 40
0.0
 40
0.0
 40
0.1555439497
 40
0.3030901399
 40
0.4411120134
 40
0.5690613068
 40
0.6873030784
 40
0.7969802288
 40
0.9002200761
 40
1.0
 40
1.0
 40
1.0
 40
1.0
 10
16.017779003
 20
10.7887486816
 30
0.0
 10
16.019266662
 20
10.7887486816
 30
0.0
 10
16.0221676203
 20
10.7888784443
 30
0.0
 10
16.0263506867
 20
10.7894816035
 30
0.0
 10
16.0301862192
 20
10.7904856012
 30
0.0
 10
16.0336009007
 20
10.7918752128
 30
0.0
 10
16.0365376677
 20
10.7936257026
 30
0.0
 10
16.0389409305
 20
10.79571871
 30
0.0
 10
16.0407635812
 20
10.7981185249
 30
0.0
 10
16.0415601343
 20
10.7999126688
 30
0.0
 10
16.0418412248
 20
10.8008246515
 30
0.0
  0
SPLINE
  5
287
100
AcDbEntity
  8
0
100
AcDbSpline
 62
7
  6
CONTINUOUS
 70
0
 71
3
 72
15
 73
11
 74
0
 42
0.0000001
 43
0.0000001
 44
0.0000000001
 40
0.0
 40
0.0
 40
0.0
 40
0.0
 40
0.1105306369
 40
0.2292431143
 40
0.3542338532
 40
0.4835317261
 40
0.6150389693
 40
0.746540218
 40
0.8757309184
 40
1.0
 40
1.0
 40
1.0
 40
1.0
 10
15.8580959915
 20
10.8055982723
 30
0.0
 10
15.8592205394
 20
10.8043514209
 30
0.0
 10
15.8617473168
 20
10.8019376015
 30
0.0
 10
15.8660635805
 20
10.7987064518
 30
0.0
 10
15.8709499935
 20
10.795817429
 30
0.0
 10
15.8762710676
 20
10.7933401955
 30
0.0
 10
15.8818944077
 20
10.7913414262
 30
0.0
 10
15.8876761966
 20
10.7898675885
 30
0.0
 10
15.8934627303
 20
10.7889661407
 30
0.0
 10
15.8973151345
 20
10.7887486816
 30
0.0
 10
15.8992028952
 20
10.7887486816
 30
0.0
  0
SPLINE
  5
288
100
AcDbEntity
  8
0
100
AcDbSpline
 62
7
  6
CONTINUOUS
 70
0
 71
3
 72
15
 73
11
 74
0
 42
0.0000001
 43
0.0000001
 44
0.0000000001
 40
0.0
 40
0.0
 40
0.0
 40
0.0
 40
0.1555439497
 40
0.3030901399
 40
0.4411120134
 40
0.5690613068
 40
0.6873030784
 40
0.7969802288
 40
0.9002200761
 40
1.0
 40
1.0
 40
1.0
 40
1.0
 10
15.6769864352
 20
10.7887486816
 30
0.0
 10
15.6784740943
 20
10.7887486816
 30
0.0
 10
15.6813750526
 20
10.7888784443
 30
0.0
 10
15.6855581189
 20
10.7894816035
 30
0.0
 10
15.6893936514
 20
10.7904856012
 30
0.0
 10
15.6928083329
 20
10.7918752128
 30
0.0
 10
15.6957451
 20
10.7936257026
 30
0.0
 10
15.6981483627
 20
10.79571871
 30
0.0
 10
15.6999710134
 20
10.7981185249
 30
0.0
 10
15.7007675665
 20
10.7999126688
 30
0.0
 10
15.701048657
 20
10.8008246515
 30
0.0
  0
SPLINE
  5
289
100
AcDbEntity
  8
0
100
AcDbSpline
 62
7
  6
CONTINUOUS
 70
0
 71
3
 72
15
 73
11
 74
0
 42
0.0000001
 43
0.0000001
 44
0.0000000001
 40
0.0
 40
0.0
 40
0.0
 40
0.0
 40
0.1105306369
 40
0.2292431143
 40
0.3542338532
 40
0.4835317261
 40
0.6150389693
 40
0.746540218
 40
0.8757309184
 40
1.0
 40
1.0
 40
1.0
 40
1.0
 10
15.5173034238
 20
10.8055982723
 30
0.0
 10
15.5184279716
 20
10.8043514209
 30
0.0
 10
15.520954749
 20
10.8019376015
 30
0.0
 10
15.5252710127
 20
10.7987064518
 30
0.0
 10
15.5301574257
 20
10.795817429
 30
0.0
 10
15.5354784999
 20
10.7933401955
 30
0.0
 10
15.5411018399
 20
10.7913414262
 30
0.0
 10
15.5468836288
 20
10.7898675885
 30
0.0
 10
15.5526701625
 20
10.7889661407
 30
0.0
 10
15.5565225667
 20
10.7887486816
 30
0.0
 10
15.5584103274
 20
10.7887486816
 30
0.0
  0
SPLINE
  5
28A
100
AcDbEntity
  8
0
100
AcDbSpline
 62
7
  6
CONTINUOUS
 70
0
 71
3
 72
15
 73
11
 74
0
 42
0.0000001
 43
0.0000001
 44
0.0000000001
 40
0.0
 40
0.0
 40
0.0
 40
0.0
 40
0.1555439497
 40
0.3030901399
 40
0.4411120134
 40
0.5690613068
 40
0.6873030784
 40
0.7969802288
 40
0.9002200761
 40
1.0
 40
1.0
 40
1.0
 40
1.0
 10
15.3361938675
 20
10.7887486816
 30
0.0
 10
15.3376815265
 20
10.7887486816
 30
0.0
 10
15.3405824848
 20
10.7888784443
 30
0.0
 10
15.3447655512
 20
10.7894816035
 30
0.0
 10
15.3486010836
 20
10.7904856012
 30
0.0
 10
15.3520157652
 20
10.7918752128
 30
0.0
 10
15.3549525322
 20
10.7936257026
 30
0.0
 10
15.3573557949
 20
10.79571871
 30
0.0
 10
15.3591784457
 20
10.7981185249
 30
0.0
 10
15.3599749987
 20
10.7999126688
 30
0.0
 10
15.3602560892
 20
10.8008246515
 30
0.0
  0
SPLINE
  5
28B
100
AcDbEntity
  8
0
100
AcDbSpline
 62
7
  6
CONTINUOUS
 70
0
 71
3
 72
15
 73
11
 74
0
 42
0.0000001
 43
0.0000001
 44
0.0000000001
 40
0.0
 40
0.0
 40
0.0
 40
0.0
 40
0.1105306369
 40
0.2292431143
 40
0.3542338532
 40
0.4835317261
 40
0.6150389693
 40
0.746540218
 40
0.8757309184
 40
1.0
 40
1.0
 40
1.0
 40
1.0
 10
15.176510856
 20
10.8055982723
 30
0.0
 10
15.1776354039
 20
10.8043514209
 30
0.0
 10
15.1801621812
 20
10.8019376015
 30
0.0
 10
15.1844784449
 20
10.7987064518
 30
0.0
 10
15.1893648579
 20
10.795817429
 30
0.0
 10
15.1946859321
 20
10.7933401955
 30
0.0
 10
15.2003092722
 20
10.7913414262
 30
0.0
 10
15.206091061
 20
10.7898675885
 30
0.0
 10
15.2118775947
 20
10.7889661407
 30
0.0
 10
15.2157299989
 20
10.7887486816
 30
0.0
 10
15.2176177596
 20
10.7887486816
 30
0.0
  0
SPLINE
  5
28C
100
AcDbEntity
  8
0
100
AcDbSpline
 62
7
  6
CONTINUOUS
 70
0
 71
3
 72
15
 73
11
 74
0
 42
0.0000001
 43
0.0000001
 44
0.0000000001
 40
0.0
 40
0.0
 40
0.0
 40
0.0
 40
0.1555439497
 40
0.3030901399
 40
0.4411120134
 40
0.5690613068
 40
0.6873030784
 40
0.7969802288
 40
0.9002200761
 40
1.0
 40
1.0
 40
1.0
 40
1.0
 10
14.9954012997
 20
10.7887486816
 30
0.0
 10
14.9968889587
 20
10.7887486816
 30
0.0
 10
14.999789917
 20
10.7888784443
 30
0.0
 10
15.0039729834
 20
10.7894816035
 30
0.0
 10
15.0078085158
 20
10.7904856012
 30
0.0
 10
15.0112231974
 20
10.7918752128
 30
0.0
 10
15.0141599644
 20
10.7936257026
 30
0.0
 10
15.0165632271
 20
10.79571871
 30
0.0
 10
15.0183858779
 20
10.7981185249
 30
0.0
 10
15.019182431
 20
10.7999126688
 30
0.0
 10
15.0194635214
 20
10.8008246515
 30
0.0
  0
SPLINE
  5
28D
100
AcDbEntity
  8
0
100
AcDbSpline
 62
7
  6
CONTINUOUS
 70
0
 71
3
 72
15
 73
11
 74
0
 42
0.0000001
 43
0.0000001
 44
0.0000000001
 40
0.0
 40
0.0
 40
0.0
 40
0.0
 40
0.1105306369
 40
0.2292431143
 40
0.3542338532
 40
0.4835317261
 40
0.6150389693
 40
0.746540218
 40
0.8757309184
 40
1.0
 40
1.0
 40
1.0
 40
1.0
 10
14.8357182882
 20
10.8055982723
 30
0.0
 10
14.8368428361
 20
10.8043514209
 30
0.0
 10
14.8393696135
 20
10.8019376015
 30
0.0
 10
14.8436858771
 20
10.7987064518
 30
0.0
 10
14.8485722901
 20
10.795817429
 30
0.0
 10
14.8538933643
 20
10.7933401955
 30
0.0
 10
14.8595167044
 20
10.7913414262
 30
0.0
 10
14.8652984932
 20
10.7898675885
 30
0.0
 10
14.871085027
 20
10.7889661407
 30
0.0
 10
14.8749374311
 20
10.7887486816
 30
0.0
 10
14.8768251918
 20
10.7887486816
 30
0.0
  0
SPLINE
  5
28E
100
AcDbEntity
  8
0
100
AcDbSpline
 62
7
  6
CONTINUOUS
 70
0
 71
3
 72
15
 73
11
 74
0
 42
0.0000001
 43
0.0000001
 44
0.0000000001
 40
0.0
 40
0.0
 40
0.0
 40
0.0
 40
0.1555439497
 40
0.3030901399
 40
0.4411120134
 40
0.5690613068
 40
0.6873030784
 40
0.7969802288
 40
0.9002200761
 40
1.0
 40
1.0
 40
1.0
 40
1.0
 10
14.6546087319
 20
10.7887486816
 30
0.0
 10
14.6560963909
 20
10.7887486816
 30
0.0
 10
14.6589973492
 20
10.7888784443
 30
0.0
 10
14.6631804156
 20
10.7894816035
 30
0.0
 10
14.667015948
 20
10.7904856012
 30
0.0
 10
14.6704306296
 20
10.7918752128
 30
0.0
 10
14.6733673966
 20
10.7936257026
 30
0.0
 10
14.6757706594
 20
10.79571871
 30
0.0
 10
14.6775933101
 20
10.7981185249
 30
0.0
 10
14.6783898632
 20
10.7999126688
 30
0.0
 10
14.6786709537
 20
10.8008246515
 30
0.0
  0
SPLINE
  5
28F
100
AcDbEntity
  8
0
100
AcDbSpline
 62
7
  6
CONTINUOUS
 70
0
 71
3
 72
15
 73
11
 74
0
 42
0.0000001
 43
0.0000001
 44
0.0000000001
 40
0.0
 40
0.0
 40
0.0
 40
0.0
 40
0.1105306369
 40
0.2292431143
 40
0.3542338532
 40
0.4835317261
 40
0.6150389693
 40
0.746540218
 40
0.8757309184
 40
1.0
 40
1.0
 40
1.0
 40
1.0
 10
14.4949257204
 20
10.8055982723
 30
0.0
 10
14.4960502683
 20
10.8043514209
 30
0.0
 10
14.4985770457
 20
10.8019376015
 30
0.0
 10
14.5028933093
 20
10.7987064518
 30
0.0
 10
14.5077797224
 20
10.795817429
 30
0.0
 10
14.5131007965
 20
10.7933401955
 30
0.0
 10
14.5187241366
 20
10.7913414262
 30
0.0
 10
14.5245059254
 20
10.7898675885
 30
0.0
 10
14.5302924592
 20
10.7889661407
 30
0.0
 10
14.5341448634
 20
10.7887486816
 30
0.0
 10
14.536032624
 20
10.7887486816
 30
0.0
  0
SPLINE
  5
290
100
AcDbEntity
  8
0
100
AcDbSpline
 62
7
  6
CONTINUOUS
 70
0
 71
3
 72
15
 73
11
 74
0
 42
0.0000001
 43
0.0000001
 44
0.0000000001
 40
0.0
 40
0.0
 40
0.0
 40
0.0
 40
0.1555439497
 40
0.3030901399
 40
0.4411120134
 40
0.5690613068
 40
0.6873030784
 40
0.7969802288
 40
0.9002200761
 40
1.0
 40
1.0
 40
1.0
 40
1.0
 10
14.3138161641
 20
10.7887486816
 30
0.0
 10
14.3153038231
 20
10.7887486816
 30
0.0
 10
14.3182047814
 20
10.7888784443
 30
0.0
 10
14.3223878478
 20
10.7894816035
 30
0.0
 10
14.3262233803
 20
10.7904856012
 30
0.0
 10
14.3296380618
 20
10.7918752128
 30
0.0
 10
14.3325748288
 20
10.7936257026
 30
0.0
 10
14.3349780916
 20
10.79571871
 30
0.0
 10
14.3368007423
 20
10.7981185249
 30
0.0
 10
14.3375972954
 20
10.7999126688
 30
0.0
 10
14.3378783859
 20
10.8008246515
 30
0.0
  0
SPLINE
  5
291
100
AcDbEntity
  8
0
100
AcDbSpline
 62
7
  6
CONTINUOUS
 70
0
 71
3
 72
15
 73
11
 74
0
 42
0.0000001
 43
0.0000001
 44
0.0000000001
 40
0.0
 40
0.0
 40
0.0
 40
0.0
 40
0.1105306369
 40
0.2292431143
 40
0.3542338532
 40
0.4835317261
 40
0.6150389693
 40
0.746540218
 40
0.8757309184
 40
1.0
 40
1.0
 40
1.0
 40
1.0
 10
14.1541331526
 20
10.8055982723
 30
0.0
 10
14.1552577005
 20
10.8043514209
 30
0.0
 10
14.1577844779
 20
10.8019376015
 30
0.0
 10
14.1621007415
 20
10.7987064518
 30
0.0
 10
14.1669871546
 20
10.795817429
 30
0.0
 10
14.1723082287
 20
10.7933401955
 30
0.0
 10
14.1779315688
 20
10.7913414262
 30
0.0
 10
14.1837133577
 20
10.7898675885
 30
0.0
 10
14.1894998914
 20
10.7889661407
 30
0.0
 10
14.1933522956
 20
10.7887486816
 30
0.0
 10
14.1952400563
 20
10.7887486816
 30
0.0
  0
SPLINE
  5
292
100
AcDbEntity
  8
0
100
AcDbSpline
 62
7
  6
CONTINUOUS
 70
0
 71
3
 72
15
 73
11
 74
0
 42
0.0000001
 43
0.0000001
 44
0.0000000001
 40
0.0
 40
0.0
 40
0.0
 40
0.0
 40
0.1555439497
 40
0.3030901399
 40
0.4411120134
 40
0.5690613068
 40
0.6873030784
 40
0.7969802288
 40
0.9002200761
 40
1.0
 40
1.0
 40
1.0
 40
1.0
 10
13.9730235963
 20
10.7887486816
 30
0.0
 10
13.9745112554
 20
10.7887486816
 30
0.0
 10
13.9774122137
 20
10.7888784443
 30
0.0
 10
13.98159528
 20
10.7894816035
 30
0.0
 10
13.9854308125
 20
10.7904856012
 30
0.0
 10
13.988845494
 20
10.7918752128
 30
0.0
 10
13.9917822611
 20
10.7936257026
 30
0.0
 10
13.9941855238
 20
10.79571871
 30
0.0
 10
13.9960081745
 20
10.7981185249
 30
0.0
 10
13.9968047276
 20
10.7999126688
 30
0.0
 10
13.9970858181
 20
10.8008246515
 30
0.0
  0
SPLINE
  5
293
100
AcDbEntity
  8
0
100
AcDbSpline
 62
7
  6
CONTINUOUS
 70
0
 71
3
 72
15
 73
11
 74
0
 42
0.0000001
 43
0.0000001
 44
0.0000000001
 40
0.0
 40
0.0
 40
0.0
 40
0.0
 40
0.1105306369
 40
0.2292431143
 40
0.3542338532
 40
0.4835317261
 40
0.6150389693
 40
0.746540218
 40
0.8757309184
 40
1.0
 40
1.0
 40
1.0
 40
1.0
 10
13.8133405849
 20
10.8055982723
 30
0.0
 10
13.8144651327
 20
10.8043514209
 30
0.0
 10
13.8169919101
 20
10.8019376015
 30
0.0
 10
13.8213081738
 20
10.7987064518
 30
0.0
 10
13.8261945868
 20
10.795817429
 30
0.0
 10
13.831515661
 20
10.7933401955
 30
0.0
 10
13.837139001
 20
10.7913414262
 30
0.0
 10
13.8429207899
 20
10.7898675885
 30
0.0
 10
13.8487073236
 20
10.7889661407
 30
0.0
 10
13.8525597278
 20
10.7887486816
 30
0.0
 10
13.8544474885
 20
10.7887486816
 30
0.0
  0
ENDSEC
  0
SECTION
  2
OBJECTS
  0
DICTIONARY
  5
C
100
AcDbDictionary
280
0
281
1
  3
ACAD_GROUP
350
D
  3
ACAD_MLINESTYLE
350
17
  3
ACAD_LAYOUT
350
1A
  3
ACAD_PLOTSETTINGS
350
19
  3
ACAD_PLOTSTYLENAME
350
E
  0
DICTIONARY
  5
D
102
{ACAD_REACTORS
330
C
102
}
100
AcDbDictionary
280
0
281
1
  0
ACDBDICTIONARYWDFLT
  5
E
102
{ACAD_REACTORS
330
C
102
}
100
AcDbDictionary
281
1
  3
Normal
350
F
100
AcDbDictionaryWithDefault
340
F
  0
DICTIONARY
  5
17
102
{ACAD_REACTORS
330
C
102
}
100
AcDbDictionary
280
0
281
1
  3
Standard
350
18
  0
DICTIONARY
  5
19
102
{ACAD_REACTORS
330
C
102
}
100
AcDbDictionary
281
1
  0
DICTIONARY
  5
1A
102
{ACAD_REACTORS
330
C
102
}
100
AcDbDictionary
281
1
  3
Model
350
294
  3
Layout1
350
295
  0
ACDBPLACEHOLDER
  5
F
102
{ACAD_REACTORS
330
E
102
}
  0
MLINESTYLE
  5
18
102
{ACAD_REACTORS
330
17
102
}
100
AcDbMlineStyle
  2
STANDARD
 70
0
  3

 62
256
 51
90.0
 52
90.0
 71
2
 49
0.5
 62
256
  6
BYLAYER
 49
-0.5
 62
256
  6
BYLAYER
  0
LAYOUT
  5
294
102
{ACAD_REACTORS
330
1A
102
}
100
AcDbPlotSettings
  1

  2
none_device
  4
ANSI_C_(22.00_x_17.00_Inches)
  6

 40
0.0
 41
0.0
 42
0.0
 43
0.0
 44
558.8
 45
431.8
 46
0.0
 47
0.0
 48
0.0
 49
0.0
140
0.0
141
0.0
142
1.0
143
1.0
 70
1024
 72
0
 73
0
 74
0
  7

 75
0
147
1.0
148
0.0
149
0.0
100
AcDbLayout
  1
Model
 70
0
 71
0
 10
0.0
 20
0.0
 11
22.0
 21
17.0
 12
0.0
 22
0.0
 32
0.0
 14
0.0
 24
0.0
 34
0.0
 15
0.0
 25
0.0
 35
0.0
146
0.0
 13
0.0
 23
0.0
 33
0.0
 16
1.0
 26
0.0
 36
0.0
 17
0.0
 27
1.0
 37
0.0
 76
0
330
216
345
0
346
0
  0
LAYOUT
  5
295
102
{ACAD_REACTORS
330
1A
102
}
100
AcDbPlotSettings
  1

  2
none_device
  4
ANSI_C_(22.00_x_17.00_Inches)
  6

 40
0.0
 41
0.0
 42
0.0
 43
0.0
 44
558.8
 45
431.8
 46
0.0
 47
0.0
 48
0.0
 49
0.0
140
0.0
141
0.0
142
1.0
143
1.0
 70
0
 72
0
 73
0
 74
0
  7

 75
0
147
1.0
148
0.0
149
0.0
100
AcDbLayout
  1
Layout1
 70
0
 71
1
 10
0.0
 20
0.0
 11
22.0
 21
17.0
 12
0.0
 22
0.0
 32
0.0
 14
0.0
 24
0.0
 34
0.0
 15
0.0
 25
0.0
 35
0.0
146
0.0
 13
0.0
 23
0.0
 33
0.0
 16
1.0
 26
0.0
 36
0.0
 17
0.0
 27
1.0
 37
0.0
 76
0
330
217
345
0
346
0
  0
ENDSEC
  0
EOF