999
DXF file: _cgs_temp_output.dxf
999
Pro/ENGINEER 2016360 by Parametric Technology Corporation
  0
SECTION
  2
HEADER
  9
$ACADVER
  1
AC1021
  9
$DWGCODEPAGE
  3
ANSI_1252
  9
$EXTMAX
 10
22.0
 20
17.0
 30
0.0
  9
$EXTMIN
 10
0.0
 20
0.0
 30
0.0
  9
$LIMMIN
 10
0.0
 20
0.0
  9
$LIMMAX
 10
22.0
 20
17.0
  9
$VIEWCTR
 10
11.0
 20
8.5
  9
$VIEWSIZE
 40
17.0
  9
$CLAYER
  8
0
  9
$LTSCALE
 40
1.21
  9
$CELTYPE
  6
BYLAYER
  9
$DIMSCALE
 40
1.0
  9
$DIMASZ
 40
0.1875
  9
$DIMEXO
 40
0.0625
  9
$DIMDLI
 40
0.836
  9
$DIMEXE
 40
0.125
  9
$DIMCEN
 40
0.198
  9
$DIMLFAC
 40
1.0
  9
$DIMBLK
  1
_CLOSED
  9
$DIMALT
 70
0
  9
$DIMALTF
 40
25.4
  9
$DIMTXT
 40
0.15625
  9
$DIMTOL
 70
0
  9
$DIMLIM
 70
0
  9
$DIMTFAC
 40
1.0
  9
$DIMGAP
 40
0.09
  9
$DIMDSEP
 70
46
  9
$AUNITS
 70
0
  9
$PDMODE
 70
3
  9
$PDSIZE
 40
0.3125
  9
$HANDSEED
  5
316
  9
$TILEMODE
 70
1
  9
$MEASUREMENT
 70
0
  9
$INSUNITS
 70
1
  0
ENDSEC
  0
SECTION
  2
CLASSES
  0
CLASS
  1
ACDBDICTIONARYWDFLT
  2
AcDbDictionaryWithDefault
  3
AutoCAD 2000
 90
0
 91
1
280
0
281
0
  0
CLASS
  1
ACDBPLACEHOLDER
  2
AcDbPlaceHolder
  3
AutoCAD 2000
 90
0
 91
1
280
0
281
0
  0
CLASS
  1
LAYOUT
  2
AcDbLayout
  3
AutoCAD 2000
 90
0
 91
0
280
0
281
0
  0
ENDSEC
  0
SECTION
  2
TABLES
  0
TABLE
  2
VPORT
  5
8
100
AcDbSymbolTable
 70
2
  0
VPORT
  5
1F4
100
AcDbSymbolTableRecord
100
AcDbViewportTableRecord
  2
*ACTIVE
 70
0
 10
0.0
 20
0.0
 11
1.0
 21
1.0
 12
11.0
 22
8.5
 13
0.0
 23
0.0
 14
1.0
 24
1.0
 15
0.0
 25
0.0
 16
0.0
 26
0.0
 36
1.0
 17
0.0
 27
0.0
 37
0.0
 40
17.0
 41
1.2941176471
 42
50.0
 43
0.0
 44
0.0
 50
0.0
 51
0.0
 71
0
 72
100
 73
1
 74
1
 75
0
 76
0
 77
0
 78
0
  0
ENDTAB
  0
TABLE
  2
LTYPE
  5
5
100
AcDbSymbolTable
 70
6
  0
LTYPE
  5
14
100
AcDbSymbolTableRecord
100
AcDbLinetypeTableRecord
  2
BYBLOCK
 70
0
  3

 72
65
 73
0
 40
0.0
  0
LTYPE
  5
15
100
AcDbSymbolTableRecord
100
AcDbLinetypeTableRecord
  2
BYLAYER
 70
0
  3

 72
65
 73
0
 40
0.0
  0
LTYPE
  5
16
100
AcDbSymbolTableRecord
100
AcDbLinetypeTableRecord
  2
CONTINUOUS
 70
64
  3
Solid line
 72
65
 73
0
 40
0.0
  0
LTYPE
  5
1F5
100
AcDbSymbolTableRecord
100
AcDbLinetypeTableRecord
  2
CENTER
 70
64
  3
____ _ ____ _ ____ _ ____ _ ____ _ ____ _ ____
 72
65
 73
4
 40
0.6
 49
0.375
 74
0
 49
-0.075
 74
0
 49
0.075
 74
0
 49
-0.075
 74
0
  0
LTYPE
  5
1F6
100
AcDbSymbolTableRecord
100
AcDbLinetypeTableRecord
  2
HIDDEN
 70
64
  3
- - - - - - - - - - - - - - - - - - - -
 72
65
 73
2
 40
0.2
 49
0.1
 74
0
 49
-0.1
 74
0
  0
LTYPE
  5
1F7
100
AcDbSymbolTableRecord
100
AcDbLinetypeTableRecord
  2
PHANTOM
 70
64
  3
_____ _ _ _____ _ _ _____ _ _ _____
 72
65
 73
6
 40
0.8
 49
0.45
 74
0
 49
-0.05
 74
0
 49
0.1
 74
0
 49
-0.05
 74
0
 49
0.1
 74
0
 49
-0.05
 74
0
  0
LTYPE
  5
1F8
100
AcDbSymbolTableRecord
100
AcDbLinetypeTableRecord
  2
DOT
 70
64
  3
. . . . . . . . . . . . . . . . . . . .
 72
65
 73
2
 40
0.2
 49
0.1
 74
0
 49
-0.1
 74
0
  0
LTYPE
  5
1F9
100
AcDbSymbolTableRecord
100
AcDbLinetypeTableRecord
  2
DASHED
 70
64
  3
- - - - - - - - - - - - - - - - - - - -
 72
65
 73
2
 40
0.2
 49
0.1
 74
0
 49
-0.1
 74
0
  0
ENDTAB
  0
TABLE
  2
LAYER
  5
2
100
AcDbSymbolTable
 70
36
  0
LAYER
  5
10
100
AcDbSymbolTableRecord
100
AcDbLayerTableRecord
  2
0
 70
0
 62
7
  6
CONTINUOUS
370
-3
390
F
  0
LAYER
  5
1FA
100
AcDbSymbolTableRecord
100
AcDbLayerTableRecord
  2
DEFAULT_1
 70
0
 62
7
  6
CENTER
370
-3
390
F
  0
LAYER
  5
1FB
100
AcDbSymbolTableRecord
100
AcDbLayerTableRecord
  2
DEFAULT_2
 70
0
 62
8
  6
HIDDEN
370
-3
390
F
  0
LAYER
  5
1FC
100
AcDbSymbolTableRecord
100
AcDbLayerTableRecord
  2
DEFAULT_3
 70
0
 62
7
  6
PHANTOM
370
-3
390
F
  0
LAYER
  5
1FD
100
AcDbSymbolTableRecord
100
AcDbLayerTableRecord
  2
01_ALL_DTM_PLN
 70
0
 62
7
  6
CONTINUOUS
370
-3
390
F
  0
LAYER
  5
1FE
100
AcDbSymbolTableRecord
100
AcDbLayerTableRecord
  2
01__ASM_ALL_DTM_PLN
 70
0
 62
7
  6
CONTINUOUS
370
-3
390
F
  0
LAYER
  5
1FF
100
AcDbSymbolTableRecord
100
AcDbLayerTableRecord
  2
01__ASM_DEF_DTM_PLN
 70
0
 62
7
  6
CONTINUOUS
370
-3
390
F
  0
LAYER
  5
200
100
AcDbSymbolTableRecord
100
AcDbLayerTableRecord
  2
01___PRT_ALL_DTM_PLN
 70
0
 62
7
  6
CONTINUOUS
370
-3
390
F
  0
LAYER
  5
201
100
AcDbSymbolTableRecord
100
AcDbLayerTableRecord
  2
01___PRT_DEF_DTM_PLN
 70
0
 62
7
  6
CONTINUOUS
370
-3
390
F
  0
LAYER
  5
202
100
AcDbSymbolTableRecord
100
AcDbLayerTableRecord
  2
02_ALL_AXES
 70
0
 62
7
  6
CONTINUOUS
370
-3
390
F
  0
LAYER
  5
203
100
AcDbSymbolTableRecord
100
AcDbLayerTableRecord
  2
02__ASM_ALL_AXES
 70
0
 62
7
  6
CONTINUOUS
370
-3
390
F
  0
LAYER
  5
204
100
AcDbSymbolTableRecord
100
AcDbLayerTableRecord
  2
02___PRT_ALL_AXES
 70
0
 62
7
  6
CONTINUOUS
370
-3
390
F
  0
LAYER
  5
205
100
AcDbSymbolTableRecord
100
AcDbLayerTableRecord
  2
03_ALL_CURVES
 70
0
 62
7
  6
CONTINUOUS
370
-3
390
F
  0
LAYER
  5
206
100
AcDbSymbolTableRecord
100
AcDbLayerTableRecord
  2
03__ASM_ALL_CURVES
 70
0
 62
7
  6
CONTINUOUS
370
-3
390
F
  0
LAYER
  5
207
100
AcDbSymbolTableRecord
100
AcDbLayerTableRecord
  2
03___PRT_ALL_CURVES
 70
0
 62
7
  6
CONTINUOUS
370
-3
390
F
  0
LAYER
  5
208
100
AcDbSymbolTableRecord
100
AcDbLayerTableRecord
  2
04_ALL_DTM_PNT
 70
0
 62
7
  6
CONTINUOUS
370
-3
390
F
  0
LAYER
  5
209
100
AcDbSymbolTableRecord
100
AcDbLayerTableRecord
  2
04__ASM_ALL_DTM_PNT
 70
0
 62
7
  6
CONTINUOUS
370
-3
390
F
  0
LAYER
  5
20A
100
AcDbSymbolTableRecord
100
AcDbLayerTableRecord
  2
04___PRT_ALL_DTM_PNT
 70
0
 62
7
  6
CONTINUOUS
370
-3
390
F
  0
LAYER
  5
20B
100
AcDbSymbolTableRecord
100
AcDbLayerTableRecord
  2
05_ALL_DTM_CSYS
 70
0
 62
7
  6
CONTINUOUS
370
-3
390
F
  0
LAYER
  5
20C
100
AcDbSymbolTableRecord
100
AcDbLayerTableRecord
  2
05__ASM_ALL_DTM_CSYS
 70
0
 62
7
  6
CONTINUOUS
370
-3
390
F
  0
LAYER
  5
20D
100
AcDbSymbolTableRecord
100
AcDbLayerTableRecord
  2
05__ASM_DEF_DTM_CSYS
 70
0
 62
7
  6
CONTINUOUS
370
-3
390
F
  0
LAYER
  5
20E
100
AcDbSymbolTableRecord
100
AcDbLayerTableRecord
  2
05___PRT_ALL_DTM_CSYS
 70
0
 62
7
  6
CONTINUOUS
370
-3
390
F
  0
LAYER
  5
20F
100
AcDbSymbolTableRecord
100
AcDbLayerTableRecord
  2
05___PRT_DEF_DTM_CSYS
 70
0
 62
7
  6
CONTINUOUS
370
-3
390
F
  0
LAYER
  5
210
100
AcDbSymbolTableRecord
100
AcDbLayerTableRecord
  2
06_ALL_SURFS
 70
0
 62
7
  6
CONTINUOUS
370
-3
390
F
  0
LAYER
  5
211
100
AcDbSymbolTableRecord
100
AcDbLayerTableRecord
  2
06__ASM_ALL_SURFS
 70
0
 62
7
  6
CONTINUOUS
370
-3
390
F
  0
LAYER
  5
212
100
AcDbSymbolTableRecord
100
AcDbLayerTableRecord
  2
06___PRT_ALL_SURFS
 70
0
 62
7
  6
CONTINUOUS
370
-3
390
F
  0
LAYER
  5
213
100
AcDbSymbolTableRecord
100
AcDbLayerTableRecord
  2
07__ASM_ALL_SKELETONS
 70
0
 62
7
  6
CONTINUOUS
370
-3
390
F
  0
ENDTAB
  0
TABLE
  2
STYLE
  5
3
100
AcDbSymbolTable
 70
1
  0
STYLE
  5
11
100
AcDbSymbolTableRecord
100
AcDbTextStyleTableRecord
  2
STANDARD
 70
0
 40
0.0
 41
0.8
 50
0.0
 71
0
 42
0.2
  3
txt
  4

  0
STYLE
  5
214
100
AcDbSymbolTableRecord
100
AcDbTextStyleTableRecord
  2
TEXTSTYLE_1
 70
0
 40
0.0
 41
0.8
 50
0.0
 71
0
 42
0.2
  3
gdt
  4

  0
ENDTAB
  0
TABLE
  2
VIEW
  5
6
100
AcDbSymbolTable
 70
0
  0
ENDTAB
  0
TABLE
  2
UCS
  5
7
100
AcDbSymbolTable
 70
0
  0
ENDTAB
  0
TABLE
  2
APPID
  5
9
100
AcDbSymbolTable
 70
1
  0
APPID
  5
215
100
AcDbSymbolTableRecord
100
AcDbRegAppTableRecord
  2
ACAD
 70
0
  0
ENDTAB
  0
TABLE
  2
BLOCK_RECORD
  5
1
100
AcDbSymbolTable
 70
0
  0
BLOCK_RECORD
  5
216
100
AcDbSymbolTableRecord
100
AcDbBlockTableRecord
  2
*Model_Space
  0
BLOCK_RECORD
  5
217
100
AcDbSymbolTableRecord
100
AcDbBlockTableRecord
  2
*Paper_Space
  0
ENDTAB
  0
TABLE
  2
DIMSTYLE
  5
A
100
AcDbSymbolTable
 70
1
100
AcDbDimStyleTable
 71
0
  0
DIMSTYLE
105
218
100
AcDbSymbolTableRecord
100
AcDbDimStyleTableRecord
  2
STANDARD
 70
0
  3

  4

 40
1.0
 41
0.1875
 42
0.0625
 43
0.38
 44
0.125
 45
0.0
 46
0.0
 47
0.0001
 48
0.0001
140
0.15625
141
0.09
142
0.0
143
25.4
144
1.0
145
0.0
146
1.0
147
0.09
 71
0.0
 72
0.0
 73
1
 74
1
 75
0
 76
0
 77
0
 78
4
 79
1
170
0
171
3
172
0
173
0
174
0
175
0
176
0
177
0
178
0
270
2
179
4
271
4
272
4
273
2
274
2
275
0
280
0
281
0
282
0
283
1
284
4
285
0
286
0
287
3
288
0
340
11
278
46
  0
ENDTAB
  0
ENDSEC
  0
SECTION
  2
BLOCKS
  0
BLOCK
  5
20
100
AcDbEntity
  8
0
100
AcDbBlockBegin
  2
*Model_Space
 70
0
 10
0.0
 20
0.0
 30
0.0
  3
*Model_Space
  1

  0
ENDBLK
  5
21
100
AcDbEntity
  8
0
100
AcDbBlockEnd
  0
BLOCK
  5
1C
100
AcDbEntity
  8
0
100
AcDbBlockBegin
  2
*Paper_Space
 70
0
 10
0.0
 20
0.0
 30
0.0
  3
*Paper_Space
  1

  0
ENDBLK
  5
1D
100
AcDbEntity
  8
0
100
AcDbBlockEnd
  0
ENDSEC
  0
SECTION
  2
ENTITIES
  0
MTEXT
  5
219
100
AcDbEntity
  8
0
100
AcDbMText
 62
7
  6
CONTINUOUS
  7
STANDARD
 71
1
 72
1
 10
15.9560215477
 20
0.9479130325
 30
0.0
 11
1.0
 21
0.0
 31
0.0
 44
0.9
  1
SCALE: 1:1.000
 40
0.3
 41
3.36
  0
LINE
  5
21A
100
AcDbEntity
  8
0
100
AcDbLine
 62
7
  6
CONTINUOUS
 10
0.0
 20
0.0
 11
0.0
 21
17.0
  0
LINE
  5
21B
100
AcDbEntity
  8
0
100
AcDbLine
 62
7
  6
CONTINUOUS
 10
0.0
 20
0.0
 11
22.0
 21
0.0
  0
LINE
  5
21C
100
AcDbEntity
  8
0
100
AcDbLine
 62
7
  6
CONTINUOUS
 10
0.0
 20
17.0
 11
22.0
 21
17.0
  0
LINE
  5
21D
100
AcDbEntity
  8
0
100
AcDbLine
 62
7
  6
CONTINUOUS
 10
22.0
 20
0.0
 11
22.0
 21
17.0
  0
LINE
  5
21E
100
AcDbEntity
  8
0
100
AcDbLine
 62
7
  6
CONTINUOUS
 10
5.0678672762
 20
5.7656198968
 11
5.0678672762
 21
5.6676483528
  0
LINE
  5
21F
100
AcDbEntity
  8
0
100
AcDbLine
 62
7
  6
CONTINUOUS
 10
5.1643068608
 20
5.2685718494
 11
5.0708377035
 21
5.6434561633
  0
LINE
  5
220
100
AcDbEntity
  8
0
100
AcDbLine
 62
7
  6
CONTINUOUS
 10
5.188564254
 20
5.2496198968
 11
7.0721702984
 21
5.2496198968
  0
LINE
  5
221
100
AcDbEntity
  8
0
100
AcDbLine
 62
7
  6
CONTINUOUS
 10
5.1436021041
 20
5.4299532301
 11
7.1171324482
 21
5.4299532301
  0
LINE
  5
222
100
AcDbEntity
  8
0
100
AcDbLine
 62
7
  6
CONTINUOUS
 10
7.1678672762
 20
5.7906198968
 11
5.0928672762
 21
5.7906198968
  0
LINE
  5
223
100
AcDbEntity
  8
0
100
AcDbLine
 62
7
  6
CONTINUOUS
 10
7.1928672762
 20
5.6676483528
 11
7.1928672762
 21
5.7656198968
  0
LINE
  5
224
100
AcDbEntity
  8
0
100
AcDbLine
 62
7
  6
CONTINUOUS
 10
7.0964276915
 20
5.2685718494
 11
7.1898968488
 21
5.6434561633
  0
LINE
  5
225
100
AcDbEntity
  8
0
100
AcDbLine
 62
7
  6
CONTINUOUS
 10
7.1333720839
 20
10.6000477814
 11
5.0083720839
 21
10.6000477814
  0
LINE
  5
226
100
AcDbEntity
  8
0
100
AcDbLine
 62
7
  6
CONTINUOUS
 10
5.0083720839
 20
10.6000477814
 11
5.0083720839
 21
14.6000477814
  0
LINE
  5
227
100
AcDbEntity
  8
0
100
AcDbLine
 62
7
  6
CONTINUOUS
 10
7.1333720839
 20
10.6000477814
 11
7.1333720839
 21
14.6000477814
  0
LINE
  5
228
100
AcDbEntity
  8
0
100
AcDbLine
 62
7
  6
CONTINUOUS
 10
5.0083720839
 20
14.6000477814
 11
7.1333720839
 21
14.6000477814
  0
LINE
  5
229
100
AcDbEntity
  8
0
100
AcDbLine
 62
7
  6
CONTINUOUS
 10
13.5603552569
 20
5.3704580378
 11
13.5603552569
 21
5.7311247044
  0
LINE
  5
22A
100
AcDbEntity
  8
0
100
AcDbLine
 62
7
  6
CONTINUOUS
 10
13.6726055895
 20
5.3355162478
 11
13.6981049243
 21
5.2250664944
  0
LINE
  5
22B
100
AcDbEntity
  8
0
100
AcDbLine
 62
7
  6
CONTINUOUS
 10
13.9226055895
 20
5.2250664944
 11
13.9481049243
 21
5.3355162478
  0
LINE
  5
22C
100
AcDbEntity
  8
0
100
AcDbLine
 62
7
  6
CONTINUOUS
 10
14.1726055895
 20
5.3355162478
 11
14.1981049243
 21
5.2250664944
  0
LINE
  5
22D
100
AcDbEntity
  8
0
100
AcDbLine
 62
7
  6
CONTINUOUS
 10
14.4226055895
 20
5.2250664944
 11
14.4481049243
 21
5.3355162478
  0
LINE
  5
22E
100
AcDbEntity
  8
0
100
AcDbLine
 62
7
  6
CONTINUOUS
 10
14.6726055895
 20
5.3355162478
 11
14.6981049243
 21
5.2250664944
  0
LINE
  5
22F
100
AcDbEntity
  8
0
100
AcDbLine
 62
7
  6
CONTINUOUS
 10
14.9226055895
 20
5.2250664944
 11
14.9481049243
 21
5.3355162478
  0
LINE
  5
230
100
AcDbEntity
  8
0
100
AcDbLine
 62
7
  6
CONTINUOUS
 10
15.1726055895
 20
5.3355162478
 11
15.1981049243
 21
5.2250664944
  0
LINE
  5
231
100
AcDbEntity
  8
0
100
AcDbLine
 62
7
  6
CONTINUOUS
 10
13.7420327747
 20
5.1901247044
 11
13.8786777391
 21
5.1901247044
  0
LINE
  5
232
100
AcDbEntity
  8
0
100
AcDbLine
 62
7
  6
CONTINUOUS
 10
14.2420327747
 20
5.1901247044
 11
14.3786777391
 21
5.1901247044
  0
LINE
  5
233
100
AcDbEntity
  8
0
100
AcDbLine
 62
7
  6
CONTINUOUS
 10
14.7420327747
 20
5.1901247044
 11
14.8786777391
 21
5.1901247044
  0
LINE
  5
234
100
AcDbEntity
  8
0
100
AcDbLine
 62
7
  6
CONTINUOUS
 10
15.2420327747
 20
5.1901247044
 11
15.3786777391
 21
5.1901247044
  0
LINE
  5
235
100
AcDbEntity
  8
0
100
AcDbLine
 62
7
  6
CONTINUOUS
 10
15.7420327747
 20
5.1901247044
 11
15.8786777391
 21
5.1901247044
  0
LINE
  5
236
100
AcDbEntity
  8
0
100
AcDbLine
 62
7
  6
CONTINUOUS
 10
16.2420327747
 20
5.1901247044
 11
16.3786777391
 21
5.1901247044
  0
LINE
  5
237
100
AcDbEntity
  8
0
100
AcDbLine
 62
7
  6
CONTINUOUS
 10
16.7420327747
 20
5.1901247044
 11
16.8786777391
 21
5.1901247044
  0
LINE
  5
238
100
AcDbEntity
  8
0
100
AcDbLine
 62
7
  6
CONTINUOUS
 10
17.2420327747
 20
5.1901247044
 11
17.3786777391
 21
5.1901247044
  0
LINE
  5
239
100
AcDbEntity
  8
0
100
AcDbLine
 62
7
  6
CONTINUOUS
 10
15.4226055895
 20
5.2250664944
 11
15.4481049243
 21
5.3355162478
  0
LINE
  5
23A
100
AcDbEntity
  8
0
100
AcDbLine
 62
7
  6
CONTINUOUS
 10
13.5603552569
 20
5.3704580378
 11
13.6286777391
 21
5.3704580378
  0
LINE
  5
23B
100
AcDbEntity
  8
0
100
AcDbLine
 62
7
  6
CONTINUOUS
 10
13.9920327747
 20
5.3704580378
 11
14.1286777391
 21
5.3704580378
  0
LINE
  5
23C
100
AcDbEntity
  8
0
100
AcDbLine
 62
7
  6
CONTINUOUS
 10
14.4920327747
 20
5.3704580378
 11
14.6286777391
 21
5.3704580378
  0
LINE
  5
23D
100
AcDbEntity
  8
0
100
AcDbLine
 62
7
  6
CONTINUOUS
 10
14.9920327747
 20
5.3704580378
 11
15.1286777391
 21
5.3704580378
  0
LINE
  5
23E
100
AcDbEntity
  8
0
100
AcDbLine
 62
7
  6
CONTINUOUS
 10
15.4920327747
 20
5.3704580378
 11
15.6286777391
 21
5.3704580378
  0
LINE
  5
23F
100
AcDbEntity
  8
0
100
AcDbLine
 62
7
  6
CONTINUOUS
 10
15.9920327747
 20
5.3704580378
 11
16.1286777391
 21
5.3704580378
  0
LINE
  5
240
100
AcDbEntity
  8
0
100
AcDbLine
 62
7
  6
CONTINUOUS
 10
16.4920327747
 20
5.3704580378
 11
16.6286777391
 21
5.3704580378
  0
LINE
  5
241
100
AcDbEntity
  8
0
100
AcDbLine
 62
7
  6
CONTINUOUS
 10
16.9920327747
 20
5.3704580378
 11
17.1286777391
 21
5.3704580378
  0
LINE
  5
242
100
AcDbEntity
  8
0
100
AcDbLine
 62
7
  6
CONTINUOUS
 10
17.4920327747
 20
5.3704580378
 11
17.5603552569
 21
5.3704580378
  0
LINE
  5
243
100
AcDbEntity
  8
0
100
AcDbLine
 62
7
  6
CONTINUOUS
 10
15.6726055895
 20
5.3355162478
 11
15.6981049243
 21
5.2250664944
  0
LINE
  5
244
100
AcDbEntity
  8
0
100
AcDbLine
 62
7
  6
CONTINUOUS
 10
13.5603552569
 20
5.7311247044
 11
17.5603552569
 21
5.7311247044
  0
LINE
  5
245
100
AcDbEntity
  8
0
100
AcDbLine
 62
7
  6
CONTINUOUS
 10
15.9226055895
 20
5.2250664944
 11
15.9481049243
 21
5.3355162478
  0
LINE
  5
246
100
AcDbEntity
  8
0
100
AcDbLine
 62
7
  6
CONTINUOUS
 10
16.1726055895
 20
5.3355162478
 11
16.1981049243
 21
5.2250664944
  0
LINE
  5
247
100
AcDbEntity
  8
0
100
AcDbLine
 62
7
  6
CONTINUOUS
 10
16.4226055895
 20
5.2250664944
 11
16.4481049243
 21
5.3355162478
  0
LINE
  5
248
100
AcDbEntity
  8
0
100
AcDbLine
 62
7
  6
CONTINUOUS
 10
16.6726055895
 20
5.3355162478
 11
16.6981049243
 21
5.2250664944
  0
LINE
  5
249
100
AcDbEntity
  8
0
100
AcDbLine
 62
7
  6
CONTINUOUS
 10
16.9226055895
 20
5.2250664944
 11
16.9481049243
 21
5.3355162478
  0
LINE
  5
24A
100
AcDbEntity
  8
0
100
AcDbLine
 62
7
  6
CONTINUOUS
 10
17.1726055895
 20
5.3355162478
 11
17.1981049243
 21
5.2250664944
  0
LINE
  5
24B
100
AcDbEntity
  8
0
100
AcDbLine
 62
7
  6
CONTINUOUS
 10
17.5603552569
 20
5.3704580378
 11
17.5603552569
 21
5.7311247044
  0
LINE
  5
24C
100
AcDbEntity
  8
0
100
AcDbLine
 62
7
  6
CONTINUOUS
 10
17.4226055895
 20
5.2250664944
 11
17.4481049243
 21
5.3355162478
  0
LINE
  5
24D
100
AcDbEntity
  8
0
100
AcDbLine
 62
7
  6
CONTINUOUS
 10
14.0243696067
 20
10.9647697276
 11
14.1283937135
 21
10.8438348987
  0
LINE
  5
24E
100
AcDbEntity
  8
0
100
AcDbLine
 62
7
  6
CONTINUOUS
 10
13.9843686086
 20
11.0407079221
 11
14.0142540313
 21
10.9798078338
  0
LWPOLYLINE
  5
24F
100
AcDbEntity
  8
0
100
AcDbPolyline
 62
7
  6
CONTINUOUS
 90
5
 70
0
 10
16.0198284773
 20
10.8452110106
 10
16.0274598106
 20
10.8463595223
 10
16.0352754365
 20
10.8502758886
 10
16.0412316881
 20
10.8561450434
 10
16.0450915388
 20
10.8625732841
  0
LINE
  5
250
100
AcDbEntity
  8
0
100
AcDbLine
 62
7
  6
CONTINUOUS
 10
14.1565173911
 20
10.832054176
 11
15.9742592115
 21
10.832054176
  0
LINE
  5
251
100
AcDbEntity
  8
0
100
AcDbLine
 62
7
  6
CONTINUOUS
 10
15.9920631051
 20
10.8452109831
 11
16.0198265719
 21
10.8452109831
  0
LWPOLYLINE
  5
252
100
AcDbEntity
  8
0
100
AcDbPolyline
 62
7
  6
CONTINUOUS
 90
5
 70
0
 10
16.140861639
 20
11.2368744654
 10
16.1484929723
 20
11.2380229771
 10
16.1563085982
 20
11.2419393434
 10
16.1622648498
 20
11.2478084982
 10
16.1661247005
 20
11.2542367389
  0
LINE
  5
253
100
AcDbEntity
  8
0
100
AcDbLine
 62
7
  6
CONTINUOUS
 10
15.9109706494
 20
11.0562481713
 11
13.9997690868
 21
11.0562481713
  0
LINE
  5
254
100
AcDbEntity
  8
0
100
AcDbLine
 62
7
  6
CONTINUOUS
 10
16.1130962668
 20
11.2368744379
 11
16.1408597336
 21
11.2368744379
  0
LINE
  5
255
100
AcDbEntity
  8
0
100
AcDbLine
 62
7
  6
CONTINUOUS
 10
13.9835096124
 20
11.0480891063
 11
14.951774906
 21
14.1813967449
  0
LWPOLYLINE
  5
256
100
AcDbEntity
  8
0
100
AcDbPolyline
 62
7
  6
CONTINUOUS
 90
5
 70
0
 10
16.2618948007
 20
11.6285379203
 10
16.269526134
 20
11.6296864319
 10
16.2773417599
 20
11.6336027982
 10
16.2832980115
 20
11.639471953
 10
16.2871578622
 20
11.6459001938
  0
LINE
  5
257
100
AcDbEntity
  8
0
100
AcDbLine
 62
7
  6
CONTINUOUS
 10
16.2341294285
 20
11.6285378927
 11
16.2618928953
 21
11.6285378927
  0
LWPOLYLINE
  5
258
100
AcDbEntity
  8
0
100
AcDbPolyline
 62
7
  6
CONTINUOUS
 90
5
 70
0
 10
16.3829279624
 20
12.0202013751
 10
16.3905592958
 20
12.0213498867
 10
16.3983749216
 20
12.025266253
 10
16.4043311732
 20
12.0311354078
 10
16.4081910239
 20
12.0375636486
  0
LINE
  5
259
100
AcDbEntity
  8
0
100
AcDbLine
 62
7
  6
CONTINUOUS
 10
16.3551625902
 20
12.0202013475
 11
16.382926057
 21
12.0202013475
  0
LWPOLYLINE
  5
25A
100
AcDbEntity
  8
0
100
AcDbPolyline
 62
7
  6
CONTINUOUS
 90
5
 70
0
 10
16.5039611241
 20
12.4118648299
 10
16.5115924575
 20
12.4130133416
 10
16.5194080833
 20
12.4169297078
 10
16.5253643349
 20
12.4227988626
 10
16.5292241856
 20
12.4292271034
  0
LINE
  5
25B
100
AcDbEntity
  8
0
100
AcDbLine
 62
7
  6
CONTINUOUS
 10
15.9715086435
 20
10.9798078338
 11
15.9416232209
 21
11.0407079221
  0
LINE
  5
25C
100
AcDbEntity
  8
0
100
AcDbLine
 62
7
  6
CONTINUOUS
 10
16.4761957519
 20
12.4118648023
 11
16.5039592187
 21
12.4118648023
  0
LWPOLYLINE
  5
25D
100
AcDbEntity
  8
0
100
AcDbPolyline
 62
7
  6
CONTINUOUS
 90
5
 70
0
 10
16.6249942858
 20
12.8035282847
 10
16.6326256192
 20
12.8046767964
 10
16.640441245
 20
12.8085931626
 10
16.6463974966
 20
12.8144623175
 10
16.6502573473
 20
12.8208905582
  0
LINE
  5
25E
100
AcDbEntity
  8
0
100
AcDbLine
 62
7
  6
CONTINUOUS
 10
16.5972289136
 20
12.8035282571
 11
16.6249923804
 21
12.8035282571
  0
LINE
  5
25F
100
AcDbEntity
  8
0
100
AcDbLine
 62
7
  6
CONTINUOUS
 10
15.9908206112
 20
10.8438348987
 11
15.9761523294
 21
10.9647697276
  0
LINE
  5
260
100
AcDbEntity
  8
0
100
AcDbLine
 62
7
  6
CONTINUOUS
 10
16.0858405902
 20
11.0104599624
 11
16.0836856985
 21
11.0990909446
  0
LINE
  5
261
100
AcDbEntity
  8
0
100
AcDbLine
 62
7
  6
CONTINUOUS
 10
16.0836846019
 20
11.0991156236
 11
16.0836664323
 21
11.1055315035
  0
LWPOLYLINE
  5
262
100
AcDbEntity
  8
0
100
AcDbPolyline
 62
7
  6
CONTINUOUS
 90
5
 70
0
 10
16.7460274475
 20
13.1951917395
 10
16.7536587809
 20
13.1963402512
 10
16.7614744067
 20
13.2002566174
 10
16.7674306583
 20
13.2061257723
 10
16.771290509
 20
13.212554013
  0
LINE
  5
263
100
AcDbEntity
  8
0
100
AcDbLine
 62
7
  6
CONTINUOUS
 10
16.2068737519
 20
11.4021234172
 11
16.2047188602
 21
11.4907543995
  0
LINE
  5
264
100
AcDbEntity
  8
0
100
AcDbLine
 62
7
  6
CONTINUOUS
 10
16.2047177636
 20
11.4907790784
 11
16.204699594
 21
11.4971949584
  0
LINE
  5
265
100
AcDbEntity
  8
0
100
AcDbLine
 62
7
  6
CONTINUOUS
 10
16.085776324
 20
11.0048250106
 11
16.0858390077
 21
11.0105183399
  0
LINE
  5
266
100
AcDbEntity
  8
0
100
AcDbLine
 62
7
  6
CONTINUOUS
 10
16.2068094857
 20
11.3964884654
 11
16.2068721694
 21
11.4021817947
  0
LWPOLYLINE
  5
267
100
AcDbEntity
  8
0
100
AcDbPolyline
 62
7
  6
CONTINUOUS
 90
5
 70
0
 10
16.0836664323
 20
11.1055315035
 10
16.0844737959
 20
11.1210447323
 10
16.0864657042
 20
11.1385683577
 10
16.0894747612
 20
11.1561271789
 10
16.0931007142
 20
11.1717076497
  0
LINE
  5
268
100
AcDbEntity
  8
0
100
AcDbLine
 62
7
  6
CONTINUOUS
 10
15.9905160687
 20
10.8402140461
 11
15.9908206112
 21
10.8438348987
  0
LINE
  5
269
100
AcDbEntity
  8
0
100
AcDbLine
 62
7
  6
CONTINUOUS
 10
16.859453488
 20
13.6488677588
 11
16.8601599039
 21
13.6501379543
  0
LINE
  5
26A
100
AcDbEntity
  8
0
100
AcDbLine
 62
7
  6
CONTINUOUS
 10
16.7384203263
 20
13.2572043039
 11
16.7391267422
 21
13.2584744995
  0
LINE
  5
26B
100
AcDbEntity
  8
0
100
AcDbLine
 62
7
  6
CONTINUOUS
 10
16.7182620753
 20
13.195191712
 11
16.7460255421
 21
13.195191712
  0
LINE
  5
26C
100
AcDbEntity
  8
0
100
AcDbLine
 62
7
  6
CONTINUOUS
 10
16.3279069136
 20
11.793786872
 11
16.3257520219
 21
11.8824178543
  0
LINE
  5
26D
100
AcDbEntity
  8
0
100
AcDbLine
 62
7
  6
CONTINUOUS
 10
16.3257509253
 20
11.8824425332
 11
16.3257327557
 21
11.8888584132
  0
LINE
  5
26E
100
AcDbEntity
  8
0
100
AcDbLine
 62
7
  6
CONTINUOUS
 10
16.3278426474
 20
11.7881519203
 11
16.3279053311
 21
11.7938452495
  0
LWPOLYLINE
  5
26F
100
AcDbEntity
  8
0
100
AcDbPolyline
 62
7
  6
CONTINUOUS
 90
5
 70
0
 10
16.204699594
 20
11.4971949584
 10
16.2055069576
 20
11.5127081871
 10
16.2074988659
 20
11.5302318125
 10
16.2105079229
 20
11.5477906337
 10
16.2141338759
 20
11.5633711045
  0
LWPOLYLINE
  5
270
100
AcDbEntity
  8
0
100
AcDbPolyline
 62
7
  6
CONTINUOUS
 90
5
 70
0
 10
16.3257327557
 20
11.8888584132
 10
16.3265401193
 20
11.9043716419
 10
16.3285320277
 20
11.9218952673
 10
16.3315410846
 20
11.9394540885
 10
16.3351670376
 20
11.9550345594
  0
LWPOLYLINE
  5
271
100
AcDbEntity
  8
0
100
AcDbPolyline
 62
7
  6
CONTINUOUS
 90
3
 70
0
 10
16.082622508
 20
10.9827625345
 10
16.08472778
 20
10.9938001327
 10
16.085776324
 20
11.0048250106
  0
LINE
  5
272
100
AcDbEntity
  8
0
100
AcDbLine
 62
7
  6
CONTINUOUS
 10
16.8923236707
 20
13.6042174678
 11
16.8947983475
 21
13.6104352665
  0
LINE
  5
273
100
AcDbEntity
  8
0
100
AcDbLine
 62
7
  6
CONTINUOUS
 10
16.6173871646
 20
12.8655408491
 11
16.6180935805
 21
12.8668110447
  0
LINE
  5
274
100
AcDbEntity
  8
0
100
AcDbLine
 62
7
  6
CONTINUOUS
 10
16.4963540029
 20
12.4738773943
 11
16.4970604188
 21
12.4751475898
  0
LWPOLYLINE
  5
275
100
AcDbEntity
  8
0
100
AcDbPolyline
 62
7
  6
CONTINUOUS
 90
5
 70
0
 10
16.8670606092
 20
13.5868551943
 10
16.8746919426
 20
13.588003706
 10
16.8825075684
 20
13.5919200723
 10
16.88846382
 20
13.5977892271
 10
16.8923236707
 20
13.6042174678
  0
LINE
  5
276
100
AcDbEntity
  8
0
100
AcDbLine
 62
7
  6
CONTINUOUS
 10
16.4489400753
 20
12.1854503268
 11
16.4467851836
 21
12.2740813091
  0
LINE
  5
277
100
AcDbEntity
  8
0
100
AcDbLine
 62
7
  6
CONTINUOUS
 10
16.4467840871
 20
12.2741059881
 11
16.4467659174
 21
12.280521868
  0
LINE
  5
278
100
AcDbEntity
  8
0
100
AcDbLine
 62
7
  6
CONTINUOUS
 10
16.4488758091
 20
12.1798153751
 11
16.4489384928
 21
12.1855087044
  0
LWPOLYLINE
  5
279
100
AcDbEntity
  8
0
100
AcDbPolyline
 62
7
  6
CONTINUOUS
 90
5
 70
0
 10
16.4467659174
 20
12.280521868
 10
16.447573281
 20
12.2960350968
 10
16.4495651894
 20
12.3135587221
 10
16.4525742463
 20
12.3311175433
 10
16.4562001993
 20
12.3466980142
  0
LWPOLYLINE
  5
27A
100
AcDbEntity
  8
0
100
AcDbPolyline
 62
7
  6
CONTINUOUS
 90
3
 70
0
 10
16.2036556697
 20
11.3744259893
 10
16.2057609417
 20
11.3854635875
 10
16.2068094857
 20
11.3964884654
  0
LWPOLYLINE
  5
27B
100
AcDbEntity
  8
0
100
AcDbPolyline
 62
7
  6
CONTINUOUS
 90
3
 70
0
 10
16.3246888314
 20
11.7660894441
 10
16.3267941034
 20
11.7771270423
 10
16.3278426474
 20
11.7881519203
  0
LWPOLYLINE
  5
27C
100
AcDbEntity
  8
0
100
AcDbPolyline
 62
7
  6
CONTINUOUS
 90
3
 70
0
 10
16.4457219931
 20
12.1577528989
 10
16.4478272651
 20
12.1687904972
 10
16.4488758091
 20
12.1798153751
  0
LINE
  5
27D
100
AcDbEntity
  8
0
100
AcDbLine
 62
7
  6
CONTINUOUS
 10
16.081156628
 20
10.9774234101
 11
16.082622508
 21
10.9827625345
  0
LINE
  5
27E
100
AcDbEntity
  8
0
100
AcDbLine
 62
7
  6
CONTINUOUS
 10
16.2021897897
 20
11.3690868649
 11
16.2036556697
 21
11.3744259893
  0
LINE
  5
27F
100
AcDbEntity
  8
0
100
AcDbLine
 62
7
  6
CONTINUOUS
 10
16.3232229514
 20
11.7607503197
 11
16.3246888314
 21
11.7660894441
  0
LINE
  5
280
100
AcDbEntity
  8
0
100
AcDbLine
 62
7
  6
CONTINUOUS
 10
16.4442561131
 20
12.1524137745
 11
16.4457219931
 21
12.1577528989
  0
LINE
  5
281
100
AcDbEntity
  8
0
100
AcDbLine
 62
7
  6
CONTINUOUS
 10
16.5652892748
 20
12.5440772294
 11
16.5667551548
 21
12.5494163537
  0
LINE
  5
282
100
AcDbEntity
  8
0
100
AcDbLine
 62
7
  6
CONTINUOUS
 10
16.6863224365
 20
12.9357406842
 11
16.6877883165
 21
12.9410798086
  0
LINE
  5
283
100
AcDbEntity
  8
0
100
AcDbLine
 62
7
  6
CONTINUOUS
 10
16.0931007142
 20
11.1717076497
 11
16.0950076234
 21
11.1783440846
  0
LINE
  5
284
100
AcDbEntity
  8
0
100
AcDbLine
 62
7
  6
CONTINUOUS
 10
16.2141338759
 20
11.5633711045
 11
16.2160407851
 21
11.5700075394
  0
LINE
  5
285
100
AcDbEntity
  8
0
100
AcDbLine
 62
7
  6
CONTINUOUS
 10
16.3351670376
 20
11.9550345594
 11
16.3370739468
 21
11.9616709942
  0
LINE
  5
286
100
AcDbEntity
  8
0
100
AcDbLine
 62
7
  6
CONTINUOUS
 10
16.4562001993
 20
12.3466980142
 11
16.4581071085
 21
12.353334449
  0
LINE
  5
287
100
AcDbEntity
  8
0
100
AcDbLine
 62
7
  6
CONTINUOUS
 10
16.577233361
 20
12.738361469
 11
16.5791402702
 21
12.7449979039
  0
LINE
  5
288
100
AcDbEntity
  8
0
100
AcDbLine
 62
7
  6
CONTINUOUS
 10
16.6982665227
 20
13.1300249238
 11
16.7001734319
 21
13.1366613587
  0
LINE
  5
289
100
AcDbEntity
  8
0
100
AcDbLine
 62
7
  6
CONTINUOUS
 10
16.8192996844
 20
13.5216883786
 11
16.8212065937
 21
13.5283248135
  0
LINE
  5
28A
100
AcDbEntity
  8
0
100
AcDbLine
 62
7
  6
CONTINUOUS
 10
16.9403328461
 20
13.9133518334
 11
16.9422397554
 21
13.9199882683
  0
LINE
  5
28B
100
AcDbEntity
  8
0
100
AcDbLine
 62
7
  6
CONTINUOUS
 10
15.9915666222
 20
10.8436043639
 11
16.007057259
 21
10.8937320831
  0
LINE
  5
28C
100
AcDbEntity
  8
0
100
AcDbLine
 62
7
  6
CONTINUOUS
 10
16.0950132756
 20
11.1783578569
 11
16.1280904207
 21
11.2853955379
  0
LINE
  5
28D
100
AcDbEntity
  8
0
100
AcDbLine
 62
7
  6
CONTINUOUS
 10
16.2160464373
 20
11.5700213118
 11
16.2491235824
 21
11.6770589927
  0
LINE
  5
28E
100
AcDbEntity
  8
0
100
AcDbLine
 62
7
  6
CONTINUOUS
 10
16.337079599
 20
11.9616847666
 11
16.3701567441
 21
12.0687224475
  0
LINE
  5
28F
100
AcDbEntity
  8
0
100
AcDbLine
 62
7
  6
CONTINUOUS
 10
16.4581127607
 20
12.3533482214
 11
16.4911899058
 21
12.4603859023
  0
LINE
  5
290
100
AcDbEntity
  8
0
100
AcDbLine
 62
7
  6
CONTINUOUS
 10
16.5791459224
 20
12.7450116762
 11
16.6122230676
 21
12.8520493571
  0
LINE
  5
291
100
AcDbEntity
  8
0
100
AcDbLine
 62
7
  6
CONTINUOUS
 10
16.7001790841
 20
13.136675131
 11
16.7332562293
 21
13.2437128119
  0
LINE
  5
292
100
AcDbEntity
  8
0
100
AcDbLine
 62
7
  6
CONTINUOUS
 10
16.8212122458
 20
13.5283385858
 11
16.854289391
 21
13.6353762668
  0
LINE
  5
293
100
AcDbEntity
  8
0
100
AcDbLine
 62
7
  6
CONTINUOUS
 10
16.9422454075
 20
13.9200020406
 11
16.9587839796
 21
13.9735208795
  0
LINE
  5
294
100
AcDbEntity
  8
0
100
AcDbLine
 62
7
  6
CONTINUOUS
 10
16.0480930289
 20
10.8704291319
 11
16.0811701731
 21
10.9774668098
  0
LINE
  5
295
100
AcDbEntity
  8
0
100
AcDbLine
 62
7
  6
CONTINUOUS
 10
16.1691261906
 20
11.2620925867
 11
16.2022033348
 21
11.3691302646
  0
LINE
  5
296
100
AcDbEntity
  8
0
100
AcDbLine
 62
7
  6
CONTINUOUS
 10
16.2901593523
 20
11.6537560416
 11
16.3232364965
 21
11.7607937194
  0
LINE
  5
297
100
AcDbEntity
  8
0
100
AcDbLine
 62
7
  6
CONTINUOUS
 10
16.411192514
 20
12.0454194964
 11
16.4442696582
 21
12.1524571742
  0
LINE
  5
298
100
AcDbEntity
  8
0
100
AcDbLine
 62
7
  6
CONTINUOUS
 10
16.5322256757
 20
12.4370829512
 11
16.5653028199
 21
12.544120629
  0
LINE
  5
299
100
AcDbEntity
  8
0
100
AcDbLine
 62
7
  6
CONTINUOUS
 10
16.6532588374
 20
12.828746406
 11
16.6863359816
 21
12.9357840838
  0
LINE
  5
29A
100
AcDbEntity
  8
0
100
AcDbLine
 62
7
  6
CONTINUOUS
 10
16.7742919991
 20
13.2204098608
 11
16.8073691433
 21
13.3274475386
  0
LINE
  5
29B
100
AcDbEntity
  8
0
100
AcDbLine
 62
7
  6
CONTINUOUS
 10
16.8953251608
 20
13.6120733156
 11
16.928402305
 21
13.7191109935
  0
LINE
  5
29C
100
AcDbEntity
  8
0
100
AcDbLine
 62
7
  6
CONTINUOUS
 10
16.928402305
 20
13.7191109935
 11
16.9283887614
 21
13.7190675934
  0
LINE
  5
29D
100
AcDbEntity
  8
0
100
AcDbLine
 62
7
  6
CONTINUOUS
 10
16.8073691433
 20
13.3274475386
 11
16.8073555997
 21
13.3274041386
  0
LINE
  5
29E
100
AcDbEntity
  8
0
100
AcDbLine
 62
7
  6
CONTINUOUS
 10
16.6863359816
 20
12.9357840838
 11
16.686322438
 21
12.9357406838
  0
LINE
  5
29F
100
AcDbEntity
  8
0
100
AcDbLine
 62
7
  6
CONTINUOUS
 10
16.5653028199
 20
12.544120629
 11
16.5652892763
 21
12.544077229
  0
LINE
  5
2A0
100
AcDbEntity
  8
0
100
AcDbLine
 62
7
  6
CONTINUOUS
 10
16.4442696582
 20
12.1524571742
 11
16.4442561146
 21
12.1524137741
  0
LINE
  5
2A1
100
AcDbEntity
  8
0
100
AcDbLine
 62
7
  6
CONTINUOUS
 10
16.3232364965
 20
11.7607937194
 11
16.3232229529
 21
11.7607503193
  0
LINE
  5
2A2
100
AcDbEntity
  8
0
100
AcDbLine
 62
7
  6
CONTINUOUS
 10
16.2022033348
 20
11.3691302646
 11
16.2021897912
 21
11.3690868645
  0
LINE
  5
2A3
100
AcDbEntity
  8
0
100
AcDbLine
 62
7
  6
CONTINUOUS
 10
16.0811701731
 20
10.9774668098
 11
16.0811566295
 21
10.9774234097
  0
LINE
  5
2A4
100
AcDbEntity
  8
0
100
AcDbLine
 62
7
  6
CONTINUOUS
 10
16.8542892806
 20
13.6353784507
 11
16.8549550525
 21
13.6374772515
  0
LINE
  5
2A5
100
AcDbEntity
  8
0
100
AcDbLine
 62
7
  6
CONTINUOUS
 10
16.7332561189
 20
13.2437149959
 11
16.7339218908
 21
13.2458137967
  0
LINE
  5
2A6
100
AcDbEntity
  8
0
100
AcDbLine
 62
7
  6
CONTINUOUS
 10
16.6122229572
 20
12.8520515411
 11
16.6128887291
 21
12.8541503419
  0
LINE
  5
2A7
100
AcDbEntity
  8
0
100
AcDbLine
 62
7
  6
CONTINUOUS
 10
16.4911897955
 20
12.4603880863
 11
16.4918555674
 21
12.4624868871
  0
LINE
  5
2A8
100
AcDbEntity
  8
0
100
AcDbLine
 62
7
  6
CONTINUOUS
 10
16.3701566338
 20
12.0687246315
 11
16.3708224057
 21
12.0708234323
  0
LINE
  5
2A9
100
AcDbEntity
  8
0
100
AcDbLine
 62
7
  6
CONTINUOUS
 10
16.2491234721
 20
11.6770611766
 11
16.249789244
 21
11.6791599775
  0
LINE
  5
2AA
100
AcDbEntity
  8
0
100
AcDbLine
 62
7
  6
CONTINUOUS
 10
16.1280903104
 20
11.2853977218
 11
16.1287560823
 21
11.2874965227
  0
LINE
  5
2AB
100
AcDbEntity
  8
0
100
AcDbLine
 62
7
  6
CONTINUOUS
 10
16.0070571487
 20
10.893734267
 11
16.0077229206
 21
10.8958330678
  0
LINE
  5
2AC
100
AcDbEntity
  8
0
100
AcDbLine
 62
7
  6
CONTINUOUS
 10
16.8947983475
 20
13.6104352665
 11
16.8953323304
 21
13.6120966501
  0
LINE
  5
2AD
100
AcDbEntity
  8
0
100
AcDbLine
 62
7
  6
CONTINUOUS
 10
16.7737651858
 20
13.2187718117
 11
16.7742991687
 21
13.2204331953
  0
LINE
  5
2AE
100
AcDbEntity
  8
0
100
AcDbLine
 62
7
  6
CONTINUOUS
 10
16.6527320241
 20
12.8271083569
 11
16.653266007
 21
12.8287697405
  0
LINE
  5
2AF
100
AcDbEntity
  8
0
100
AcDbLine
 62
7
  6
CONTINUOUS
 10
16.5316988624
 20
12.4354449021
 11
16.5322328453
 21
12.4371062857
  0
LINE
  5
2B0
100
AcDbEntity
  8
0
100
AcDbLine
 62
7
  6
CONTINUOUS
 10
16.4106657007
 20
12.0437814473
 11
16.4111996836
 21
12.0454428309
  0
LINE
  5
2B1
100
AcDbEntity
  8
0
100
AcDbLine
 62
7
  6
CONTINUOUS
 10
16.289632539
 20
11.6521179925
 11
16.2901665219
 21
11.6537793761
  0
LINE
  5
2B2
100
AcDbEntity
  8
0
100
AcDbLine
 62
7
  6
CONTINUOUS
 10
16.1685993773
 20
11.2604545377
 11
16.1691333602
 21
11.2621159212
  0
LINE
  5
2B3
100
AcDbEntity
  8
0
100
AcDbLine
 62
7
  6
CONTINUOUS
 10
16.0475662156
 20
10.8687910828
 11
16.0481001985
 21
10.8704524664
  0
LWPOLYLINE
  5
2B4
100
AcDbEntity
  8
0
100
AcDbPolyline
 62
7
  6
CONTINUOUS
 90
3
 70
0
 10
16.8549550525
 20
13.6374772515
 10
16.8574367776
 20
13.6443828247
 10
16.859453488
 20
13.6488677588
  0
LWPOLYLINE
  5
2B5
100
AcDbEntity
  8
0
100
AcDbPolyline
 62
7
  6
CONTINUOUS
 90
3
 70
0
 10
16.7339218908
 20
13.2458137967
 10
16.7364036159
 20
13.2527193699
 10
16.7384203263
 20
13.2572043039
  0
LWPOLYLINE
  5
2B6
100
AcDbEntity
  8
0
100
AcDbPolyline
 62
7
  6
CONTINUOUS
 90
3
 70
0
 10
16.6128887291
 20
12.8541503419
 10
16.6153704542
 20
12.8610559151
 10
16.6173871646
 20
12.8655408491
  0
LWPOLYLINE
  5
2B7
100
AcDbEntity
  8
0
100
AcDbPolyline
 62
7
  6
CONTINUOUS
 90
3
 70
0
 10
16.4918555674
 20
12.4624868871
 10
16.4943372925
 20
12.4693924603
 10
16.4963540029
 20
12.4738773943
  0
LWPOLYLINE
  5
2B8
100
AcDbEntity
  8
0
100
AcDbPolyline
 62
7
  6
CONTINUOUS
 90
3
 70
0
 10
16.3708224057
 20
12.0708234323
 10
16.3733041308
 20
12.0777290055
 10
16.3753208412
 20
12.0822139395
  0
LWPOLYLINE
  5
2B9
100
AcDbEntity
  8
0
100
AcDbPolyline
 62
7
  6
CONTINUOUS
 90
3
 70
0
 10
16.249789244
 20
11.6791599775
 10
16.2522709691
 20
11.6860655507
 10
16.2542876795
 20
11.6905504847
  0
LWPOLYLINE
  5
2BA
100
AcDbEntity
  8
0
100
AcDbPolyline
 62
7
  6
CONTINUOUS
 90
3
 70
0
 10
16.1287560823
 20
11.2874965227
 10
16.1312378073
 20
11.2944020958
 10
16.1332545178
 20
11.2988870299
  0
LWPOLYLINE
  5
2BB
100
AcDbEntity
  8
0
100
AcDbPolyline
 62
7
  6
CONTINUOUS
 90
3
 70
0
 10
16.0077229206
 20
10.8958330678
 10
16.0102046456
 20
10.902738641
 10
16.0122213561
 20
10.9072235751
  0
LINE
  5
2BC
100
AcDbEntity
  8
0
100
AcDbLine
 62
7
  6
CONTINUOUS
 10
16.771290509
 20
13.212554013
 11
16.7737651858
 21
13.2187718117
  0
LINE
  5
2BD
100
AcDbEntity
  8
0
100
AcDbLine
 62
7
  6
CONTINUOUS
 10
16.6502573473
 20
12.8208905582
 11
16.6527320241
 21
12.8271083569
  0
LINE
  5
2BE
100
AcDbEntity
  8
0
100
AcDbLine
 62
7
  6
CONTINUOUS
 10
16.5292241856
 20
12.4292271034
 11
16.5316988624
 21
12.4354449021
  0
LINE
  5
2BF
100
AcDbEntity
  8
0
100
AcDbLine
 62
7
  6
CONTINUOUS
 10
16.4081910239
 20
12.0375636486
 11
16.4106657007
 21
12.0437814473
  0
LINE
  5
2C0
100
AcDbEntity
  8
0
100
AcDbLine
 62
7
  6
CONTINUOUS
 10
16.3753208412
 20
12.0822139395
 11
16.3760272571
 21
12.083484135
  0
LINE
  5
2C1
100
AcDbEntity
  8
0
100
AcDbLine
 62
7
  6
CONTINUOUS
 10
16.569973237
 20
12.5771137816
 11
16.5678183453
 21
12.6657447639
  0
LINE
  5
2C2
100
AcDbEntity
  8
0
100
AcDbLine
 62
7
  6
CONTINUOUS
 10
16.5678172488
 20
12.6657694429
 11
16.5677990791
 21
12.6721853228
  0
LINE
  5
2C3
100
AcDbEntity
  8
0
100
AcDbLine
 62
7
  6
CONTINUOUS
 10
16.5699089708
 20
12.5714788299
 11
16.5699716545
 21
12.5771721592
  0
LINE
  5
2C4
100
AcDbEntity
  8
0
100
AcDbLine
 62
7
  6
CONTINUOUS
 10
16.6909421325
 20
12.9631422847
 11
16.6910048162
 21
12.968835614
  0
LWPOLYLINE
  5
2C5
100
AcDbEntity
  8
0
100
AcDbPolyline
 62
7
  6
CONTINUOUS
 90
5
 70
0
 10
16.5677990791
 20
12.6721853228
 10
16.5686064427
 20
12.6876985516
 10
16.5705983511
 20
12.705222177
 10
16.573607408
 20
12.7227809981
 10
16.577233361
 20
12.738361469
  0
LWPOLYLINE
  5
2C6
100
AcDbEntity
  8
0
100
AcDbPolyline
 62
7
  6
CONTINUOUS
 90
5
 70
0
 10
16.6888322408
 20
13.0638487776
 10
16.6896396044
 20
13.0793620064
 10
16.6916315128
 20
13.0968856318
 10
16.6946405697
 20
13.1144444529
 10
16.6982665227
 20
13.1300249238
  0
LWPOLYLINE
  5
2C7
100
AcDbEntity
  8
0
100
AcDbPolyline
 62
7
  6
CONTINUOUS
 90
3
 70
0
 10
16.5667551548
 20
12.5494163537
 10
16.5688604268
 20
12.560453952
 10
16.5699089708
 20
12.5714788299
  0
LWPOLYLINE
  5
2C8
100
AcDbEntity
  8
0
100
AcDbPolyline
 62
7
  6
CONTINUOUS
 90
3
 70
0
 10
16.6877883165
 20
12.9410798086
 10
16.6898935885
 20
12.9521174068
 10
16.6909421325
 20
12.9631422847
  0
LWPOLYLINE
  5
2C9
100
AcDbEntity
  8
0
100
AcDbPolyline
 62
7
  6
CONTINUOUS
 90
3
 70
0
 10
16.8088214782
 20
13.3327432634
 10
16.8109267502
 20
13.3437808616
 10
16.8119752942
 20
13.3548057395
  0
LWPOLYLINE
  5
2CA
100
AcDbEntity
  8
0
100
AcDbPolyline
 62
7
  6
CONTINUOUS
 90
3
 70
0
 10
16.9298546399
 20
13.7244067182
 10
16.9319599119
 20
13.7354443164
 10
16.9330084559
 20
13.7464691943
  0
LINE
  5
2CB
100
AcDbEntity
  8
0
100
AcDbLine
 62
7
  6
CONTINUOUS
 10
16.8073555982
 20
13.327404139
 11
16.8088214782
 21
13.3327432634
  0
LINE
  5
2CC
100
AcDbEntity
  8
0
100
AcDbLine
 62
7
  6
CONTINUOUS
 10
16.9283887599
 20
13.7190675938
 11
16.9298546399
 21
13.7244067182
  0
LINE
  5
2CD
100
AcDbEntity
  8
0
100
AcDbLine
 62
7
  6
CONTINUOUS
 10
16.2871578622
 20
11.6459001938
 11
16.289632539
 21
11.6521179925
  0
LINE
  5
2CE
100
AcDbEntity
  8
0
100
AcDbLine
 62
7
  6
CONTINUOUS
 10
16.1661247005
 20
11.2542367389
 11
16.1685993773
 21
11.2604545377
  0
LINE
  5
2CF
100
AcDbEntity
  8
0
100
AcDbLine
 62
7
  6
CONTINUOUS
 10
16.0450915388
 20
10.8625732841
 11
16.0475662156
 21
10.8687910828
  0
LINE
  5
2D0
100
AcDbEntity
  8
0
100
AcDbLine
 62
7
  6
CONTINUOUS
 10
16.2542876795
 20
11.6905504847
 11
16.2549940954
 21
11.6918206802
  0
LINE
  5
2D1
100
AcDbEntity
  8
0
100
AcDbLine
 62
7
  6
CONTINUOUS
 10
16.1332545178
 20
11.2988870299
 11
16.1339609337
 21
11.3001572254
  0
LINE
  5
2D2
100
AcDbEntity
  8
0
100
AcDbLine
 62
7
  6
CONTINUOUS
 10
16.839295237
 20
13.5868551668
 11
16.8670587038
 21
13.5868551668
  0
LINE
  5
2D3
100
AcDbEntity
  8
0
100
AcDbLine
 62
7
  6
CONTINUOUS
 10
16.6910063987
 20
12.9687772365
 11
16.688851507
 21
13.0574082187
  0
LINE
  5
2D4
100
AcDbEntity
  8
0
100
AcDbLine
 62
7
  6
CONTINUOUS
 10
16.8120395604
 20
13.3604406913
 11
16.8098846687
 21
13.4490716735
  0
LINE
  5
2D5
100
AcDbEntity
  8
0
100
AcDbLine
 62
7
  6
CONTINUOUS
 10
16.6888504105
 20
13.0574328977
 11
16.6888322408
 21
13.0638487776
  0
LINE
  5
2D6
100
AcDbEntity
  8
0
100
AcDbLine
 62
7
  6
CONTINUOUS
 10
16.8098835722
 20
13.4490963525
 11
16.8098654025
 21
13.4555122324
  0
LINE
  5
2D7
100
AcDbEntity
  8
0
100
AcDbLine
 62
7
  6
CONTINUOUS
 10
16.8119752942
 20
13.3548057395
 11
16.8120379779
 21
13.3604990688
  0
LWPOLYLINE
  5
2D8
100
AcDbEntity
  8
0
100
AcDbPolyline
 62
7
  6
CONTINUOUS
 90
5
 70
0
 10
16.8098654025
 20
13.4555122324
 10
16.8106727661
 20
13.4710254612
 10
16.8126646745
 20
13.4885490866
 10
16.8156737314
 20
13.5061079077
 10
16.8192996844
 20
13.5216883786
  0
LINE
  5
2D9
100
AcDbEntity
  8
0
100
AcDbLine
 62
7
  6
CONTINUOUS
 10
16.9590859048
 20
13.9771425372
 11
16.9587813624
 21
13.9735216846
  0
LINE
  5
2DA
100
AcDbEntity
  8
0
100
AcDbLine
 62
7
  6
CONTINUOUS
 10
16.0122213561
 20
10.9072235751
 11
16.012927772
 21
10.9084937706
  0
LINE
  5
2DB
100
AcDbEntity
  8
0
100
AcDbLine
 62
7
  6
CONTINUOUS
 10
16.9330727221
 20
13.7521041461
 11
16.9309178304
 21
13.8407351283
  0
LINE
  5
2DC
100
AcDbEntity
  8
0
100
AcDbLine
 62
7
  6
CONTINUOUS
 10
16.9309167339
 20
13.8407598073
 11
16.9308985642
 21
13.8471756872
  0
LINE
  5
2DD
100
AcDbEntity
  8
0
100
AcDbLine
 62
7
  6
CONTINUOUS
 10
16.9330084559
 20
13.7464691943
 11
16.9330711396
 21
13.7521625236
  0
LWPOLYLINE
  5
2DE
100
AcDbEntity
  8
0
100
AcDbPolyline
 62
7
  6
CONTINUOUS
 90
5
 70
0
 10
16.9308985642
 20
13.8471756872
 10
16.9317059278
 20
13.862688916
 10
16.9336978362
 20
13.8802125414
 10
16.9367068931
 20
13.8977713625
 10
16.9403328461
 20
13.9133518334
  0
LINE
  5
2DF
100
AcDbEntity
  8
0
100
AcDbLine
 62
7
  6
CONTINUOUS
 10
16.9590859048
 20
13.9771425372
 11
16.944417623
 21
14.0980773661
  0
LINE
  5
2E0
100
AcDbEntity
  8
0
100
AcDbLine
 62
7
  6
CONTINUOUS
 10
16.879235943
 20
14.1895558098
 11
14.9680343804
 21
14.1895558098
  0
LINE
  5
2E1
100
AcDbEntity
  8
0
100
AcDbLine
 62
7
  6
CONTINUOUS
 10
16.9397739371
 20
14.1131154723
 11
16.9098885145
 21
14.1740155606
  0
ARC
  5
2E2
100
AcDbEntity
  8
0
100
AcDbCircle
 62
7
  6
CONTINUOUS
 10
5.1436021041
 20
5.4549532301
 40
0.025
100
AcDbArc
 50
194.0
 51
270.0
  0
ARC
  5
2E3
100
AcDbEntity
  8
0
100
AcDbCircle
 62
7
  6
CONTINUOUS
 10
5.1885642512
 20
5.2746199079
 40
0.025
100
AcDbArc
 50
194.0000264282
 51
270.0000063935
  0
ARC
  5
2E4
100
AcDbEntity
  8
0
100
AcDbCircle
 62
7
  6
CONTINUOUS
 10
5.1678672762
 20
5.6676483528
 40
0.1
100
AcDbArc
 50
180.0
 51
194.0
  0
ARC
  5
2E5
100
AcDbEntity
  8
0
100
AcDbCircle
 62
7
  6
CONTINUOUS
 10
5.0928672762
 20
5.7656198968
 40
0.025
100
AcDbArc
 50
90.0
 51
180.0
  0
ARC
  5
2E6
100
AcDbEntity
  8
0
100
AcDbCircle
 62
7
  6
CONTINUOUS
 10
7.0721702984
 20
5.2746198968
 40
0.025
100
AcDbArc
 50
270.0
 51
346.0
  0
ARC
  5
2E7
100
AcDbEntity
  8
0
100
AcDbCircle
 62
7
  6
CONTINUOUS
 10
7.1171324482
 20
5.4549532301
 40
0.025
100
AcDbArc
 50
270.0
 51
346.0
  0
ARC
  5
2E8
100
AcDbEntity
  8
0
100
AcDbCircle
 62
7
  6
CONTINUOUS
 10
7.0928672762
 20
5.6676483528
 40
0.1
100
AcDbArc
 50
346.0
 51
360.0
  0
ARC
  5
2E9
100
AcDbEntity
  8
0
100
AcDbCircle
 62
7
  6
CONTINUOUS
 10
7.1678672762
 20
5.7656198968
 40
0.025
100
AcDbArc
 50
0.0
 51
90.0
  0
ARC
  5
2EA
100
AcDbEntity
  8
0
100
AcDbCircle
 62
7
  6
CONTINUOUS
 10
13.7420327747
 20
5.2352080378
 40
0.0450833333
100
AcDbArc
 50
193.0
 51
270.0
  0
ARC
  5
2EB
100
AcDbEntity
  8
0
100
AcDbCircle
 62
7
  6
CONTINUOUS
 10
13.8786777391
 20
5.2352080378
 40
0.0450833333
100
AcDbArc
 50
270.0
 51
347.0
  0
ARC
  5
2EC
100
AcDbEntity
  8
0
100
AcDbCircle
 62
7
  6
CONTINUOUS
 10
14.2420327747
 20
5.2352080378
 40
0.0450833333
100
AcDbArc
 50
193.0
 51
270.0
  0
ARC
  5
2ED
100
AcDbEntity
  8
0
100
AcDbCircle
 62
7
  6
CONTINUOUS
 10
14.3786777391
 20
5.2352080378
 40
0.0450833333
100
AcDbArc
 50
270.0
 51
347.0
  0
ARC
  5
2EE
100
AcDbEntity
  8
0
100
AcDbCircle
 62
7
  6
CONTINUOUS
 10
14.7420327747
 20
5.2352080378
 40
0.0450833333
100
AcDbArc
 50
193.0
 51
270.0
  0
ARC
  5
2EF
100
AcDbEntity
  8
0
100
AcDbCircle
 62
7
  6
CONTINUOUS
 10
14.8786777391
 20
5.2352080378
 40
0.0450833333
100
AcDbArc
 50
270.0
 51
347.0
  0
ARC
  5
2F0
100
AcDbEntity
  8
0
100
AcDbCircle
 62
7
  6
CONTINUOUS
 10
15.2420327747
 20
5.2352080378
 40
0.0450833333
100
AcDbArc
 50
193.0
 51
270.0
  0
ARC
  5
2F1
100
AcDbEntity
  8
0
100
AcDbCircle
 62
7
  6
CONTINUOUS
 10
15.3786777391
 20
5.2352080378
 40
0.0450833333
100
AcDbArc
 50
270.0
 51
347.0
  0
ARC
  5
2F2
100
AcDbEntity
  8
0
100
AcDbCircle
 62
7
  6
CONTINUOUS
 10
13.6286777391
 20
5.3253747044
 40
0.0450833333
100
AcDbArc
 50
13.0
 51
90.0
  0
ARC
  5
2F3
100
AcDbEntity
  8
0
100
AcDbCircle
 62
7
  6
CONTINUOUS
 10
13.9920327747
 20
5.3253747044
 40
0.0450833333
100
AcDbArc
 50
90.0
 51
167.0
  0
ARC
  5
2F4
100
AcDbEntity
  8
0
100
AcDbCircle
 62
7
  6
CONTINUOUS
 10
14.1286777391
 20
5.3253747044
 40
0.0450833333
100
AcDbArc
 50
13.0
 51
90.0
  0
ARC
  5
2F5
100
AcDbEntity
  8
0
100
AcDbCircle
 62
7
  6
CONTINUOUS
 10
14.4920327747
 20
5.3253747044
 40
0.0450833333
100
AcDbArc
 50
90.0
 51
167.0
  0
ARC
  5
2F6
100
AcDbEntity
  8
0
100
AcDbCircle
 62
7
  6
CONTINUOUS
 10
14.6286777391
 20
5.3253747044
 40
0.0450833333
100
AcDbArc
 50
13.0
 51
90.0
  0
ARC
  5
2F7
100
AcDbEntity
  8
0
100
AcDbCircle
 62
7
  6
CONTINUOUS
 10
14.9920327747
 20
5.3253747044
 40
0.0450833333
100
AcDbArc
 50
90.0
 51
167.0
  0
ARC
  5
2F8
100
AcDbEntity
  8
0
100
AcDbCircle
 62
7
  6
CONTINUOUS
 10
15.1286777391
 20
5.3253747044
 40
0.0450833333
100
AcDbArc
 50
13.0
 51
90.0
  0
ARC
  5
2F9
100
AcDbEntity
  8
0
100
AcDbCircle
 62
7
  6
CONTINUOUS
 10
15.4920327747
 20
5.3253747044
 40
0.0450833333
100
AcDbArc
 50
90.0
 51
167.0
  0
ARC
  5
2FA
100
AcDbEntity
  8
0
100
AcDbCircle
 62
7
  6
CONTINUOUS
 10
17.3786777391
 20
5.2352080378
 40
0.0450833333
100
AcDbArc
 50
270.0
 51
347.0
  0
ARC
  5
2FB
100
AcDbEntity
  8
0
100
AcDbCircle
 62
7
  6
CONTINUOUS
 10
17.2420327747
 20
5.2352080378
 40
0.0450833333
100
AcDbArc
 50
193.0
 51
270.0
  0
ARC
  5
2FC
100
AcDbEntity
  8
0
100
AcDbCircle
 62
7
  6
CONTINUOUS
 10
16.8786777391
 20
5.2352080378
 40
0.0450833333
100
AcDbArc
 50
270.0
 51
347.0
  0
ARC
  5
2FD
100
AcDbEntity
  8
0
100
AcDbCircle
 62
7
  6
CONTINUOUS
 10
16.7420327747
 20
5.2352080378
 40
0.0450833333
100
AcDbArc
 50
193.0
 51
270.0
  0
ARC
  5
2FE
100
AcDbEntity
  8
0
100
AcDbCircle
 62
7
  6
CONTINUOUS
 10
16.3786777391
 20
5.2352080378
 40
0.0450833333
100
AcDbArc
 50
270.0
 51
347.0
  0
ARC
  5
2FF
100
AcDbEntity
  8
0
100
AcDbCircle
 62
7
  6
CONTINUOUS
 10
16.2420327747
 20
5.2352080378
 40
0.0450833333
100
AcDbArc
 50
193.0
 51
270.0
  0
ARC
  5
300
100
AcDbEntity
  8
0
100
AcDbCircle
 62
7
  6
CONTINUOUS
 10
15.8786777391
 20
5.2352080378
 40
0.0450833333
100
AcDbArc
 50
270.0
 51
347.0
  0
ARC
  5
301
100
AcDbEntity
  8
0
100
AcDbCircle
 62
7
  6
CONTINUOUS
 10
15.7420327747
 20
5.2352080378
 40
0.0450833333
100
AcDbArc
 50
193.0
 51
270.0
  0
ARC
  5
302
100
AcDbEntity
  8
0
100
AcDbCircle
 62
7
  6
CONTINUOUS
 10
17.4920327747
 20
5.3253747044
 40
0.0450833333
100
AcDbArc
 50
90.0
 51
167.0
  0
ARC
  5
303
100
AcDbEntity
  8
0
100
AcDbCircle
 62
7
  6
CONTINUOUS
 10
17.1286777391
 20
5.3253747044
 40
0.0450833333
100
AcDbArc
 50
13.0
 51
90.0
  0
ARC
  5
304
100
AcDbEntity
  8
0
100
AcDbCircle
 62
7
  6
CONTINUOUS
 10
16.9920327747
 20
5.3253747044
 40
0.0450833333
100
AcDbArc
 50
90.0
 51
167.0
  0
ARC
  5
305
100
AcDbEntity
  8
0
100
AcDbCircle
 62
7
  6
CONTINUOUS
 10
16.6286777391
 20
5.3253747044
 40
0.0450833333
100
AcDbArc
 50
13.0
 51
90.0
  0
ARC
  5
306
100
AcDbEntity
  8
0
100
AcDbCircle
 62
7
  6
CONTINUOUS
 10
16.4920327747
 20
5.3253747044
 40
0.0450833333
100
AcDbArc
 50
90.0
 51
167.0
  0
ARC
  5
307
100
AcDbEntity
  8
0
100
AcDbCircle
 62
7
  6
CONTINUOUS
 10
16.1286777391
 20
5.3253747044
 40
0.0450833333
100
AcDbArc
 50
13.0
 51
90.0
  0
ARC
  5
308
100
AcDbEntity
  8
0
100
AcDbCircle
 62
7
  6
CONTINUOUS
 10
15.9920327747
 20
5.3253747044
 40
0.0450833333
100
AcDbArc
 50
90.0
 51
167.0
  0
ARC
  5
309
100
AcDbEntity
  8
0
100
AcDbCircle
 62
7
  6
CONTINUOUS
 10
15.6286777391
 20
5.3253747044
 40
0.0450833333
100
AcDbArc
 50
13.0
 51
90.0
  0
SPLINE
  5
30A
100
AcDbEntity
  8
0
100
AcDbSpline
 62
7
  6
CONTINUOUS
 70
0
 71
3
 72
15
 73
11
 74
0
 42
0.0000001
 43
0.0000001
 44
0.0000000001
 40
0.0
 40
0.0
 40
0.0
 40
0.0
 40
0.1295691439
 40
0.2645766485
 40
0.4012661311
 40
0.5362716028
 40
0.6662154949
 40
0.7881001117
 40
0.8998137149
 40
1.0
 40
1.0
 40
1.0
 40
1.0
 10
16.879235943
 20
14.1895558098
 30
0.0
 10
16.8807842089
 20
14.1895558098
 30
0.0
 10
16.8839481714
 20
14.1893405696
 30
0.0
 10
16.8886706905
 20
14.1884566917
 30
0.0
 10
16.8933269884
 20
14.1870292354
 30
0.0
 10
16.8977388377
 20
14.1851139132
 30
0.0
 10
16.9017450191
 20
14.1827852436
 30
0.0
 10
16.9051971047
 20
14.1801239229
 30
0.0
 10
16.9079629438
 20
14.1772278618
 30
0.0
 10
16.9093611143
 20
14.1750902891
 30
0.0
 10
16.9098885145
 20
14.1740155606
 30
0.0
  0
SPLINE
  5
30B
100
AcDbEntity
  8
0
100
AcDbSpline
 62
7
  6
CONTINUOUS
 70
0
 71
3
 72
15
 73
11
 74
0
 42
0.0000001
 43
0.0000001
 44
0.0000000001
 40
0.0
 40
0.0
 40
0.0
 40
0.0
 40
0.0996455565
 40
0.2028715591
 40
0.3125938434
 40
0.4308560128
 40
0.5588132185
 40
0.696829703
 40
0.8443978227
 40
1.0
 40
1.0
 40
1.0
 40
1.0
 10
14.9517748826
 20
14.1813967551
 30
0.0
 10
14.9519649979
 20
14.1820119929
 30
0.0
 10
14.9525036424
 20
14.1832229307
 30
0.0
 10
14.9537346327
 20
14.1848438697
 30
0.0
 10
14.9553580118
 20
14.1862590383
 30
0.0
 10
14.9573421608
 20
14.1874431027
 30
0.0
 10
14.9596496947
 20
14.1883817365
 30
0.0
 10
14.9622413161
 20
14.1890604516
 30
0.0
 10
14.965068204
 20
14.1894681212
 30
0.0
 10
14.9670288284
 20
14.1895558098
 30
0.0
 10
14.9680343804
 20
14.1895558098
 30
0.0
  0
SPLINE
  5
30C
100
AcDbEntity
  8
0
100
AcDbSpline
 62
7
  6
CONTINUOUS
 70
0
 71
3
 72
11
 73
7
 74
0
 42
0.0000001
 43
0.0000001
 44
0.0000000001
 40
0.0
 40
0.0
 40
0.0
 40
0.0
 40
0.2336928937
 40
0.4747268754
 40
0.7289542795
 40
1.0
 40
1.0
 40
1.0
 40
1.0
 10
13.983509589
 20
11.0480891166
 30
0.0
 10
13.9833347346
 20
11.0475232649
 30
0.0
 10
13.9831044251
 20
11.0463311191
 30
0.0
 10
13.9831467308
 20
11.0444718422
 30
0.0
 10
13.9835645319
 20
11.0425646629
 30
0.0
 10
13.9840659929
 20
11.041324588
 30
0.0
 10
13.9843686086
 20
11.0407079221
 30
0.0
  0
SPLINE
  5
30D
100
AcDbEntity
  8
0
100
AcDbSpline
 62
7
  6
CONTINUOUS
 70
0
 71
3
 72
9
 73
5
 74
0
 42
0.0000001
 43
0.0000001
 44
0.0000000001
 40
0.0
 40
0.0
 40
0.0
 40
0.0
 40
0.5166047381
 40
1.0
 40
1.0
 40
1.0
 40
1.0
 10
16.9397739371
 20
14.1131154723
 30
0.0
 10
16.9409721211
 20
14.11067383
 30
0.0
 10
16.9429643994
 20
14.1057756586
 30
0.0
 10
16.9441111896
 20
14.1006038016
 30
0.0
 10
16.944417623
 20
14.0980773661
 30
0.0
  0
SPLINE
  5
30E
100
AcDbEntity
  8
0
100
AcDbSpline
 62
7
  6
CONTINUOUS
 70
0
 71
3
 72
14
 73
10
 74
0
 42
0.0000001
 43
0.0000001
 44
0.0000000001
 40
0.0
 40
0.0
 40
0.0
 40
0.0
 40
0.1556196057
 40
0.3032590931
 40
0.568835042
 40
0.6871450531
 40
0.7968767889
 40
0.9001663981
 40
1.0
 40
1.0
 40
1.0
 40
1.0
 10
15.9742592115
 20
10.832054176
 30
0.0
 10
15.9752642986
 20
10.832054176
 30
0.0
 10
15.9772252458
 20
10.8321420373
 30
0.0
 10
15.9808631627
 20
10.8326667388
 30
0.0
 10
15.9841839121
 20
10.8337108481
 30
0.0
 10
15.9869342412
 20
10.8353495086
 30
0.0
 10
15.9885580064
 20
10.836763903
 30
0.0
 10
15.9897892478
 20
10.8383852996
 30
0.0
 10
15.990327841
 20
10.8395973418
 30
0.0
 10
15.9905176019
 20
10.8402135728
 30
0.0
  0
SPLINE
  5
30F
100
AcDbEntity
  8
0
100
AcDbSpline
 62
7
  6
CONTINUOUS
 70
0
 71
3
 72
15
 73
11
 74
0
 42
0.0000001
 43
0.0000001
 44
0.0000000001
 40
0.0
 40
0.0
 40
0.0
 40
0.0
 40
0.1095614945
 40
0.227678096
 40
0.3524302901
 40
0.4818023367
 40
0.6136282067
 40
0.7455973478
 40
0.8752989294
 40
1.0
 40
1.0
 40
1.0
 40
1.0
 10
14.1283937135
 20
10.8438348987
 30
0.0
 10
14.1291395869
 20
10.8429677721
 30
0.0
 10
14.1308319095
 20
10.8412860207
 30
0.0
 10
14.1337500189
 20
10.8390324903
 30
0.0
 10
14.1370789067
 20
10.8370129312
 30
0.0
 10
14.1407224982
 20
10.8352779738
 30
0.0
 10
14.1445866452
 20
10.833875962
 30
0.0
 10
14.1485685738
 20
10.8328408285
 30
0.0
 10
14.1525581864
 20
10.8322073191
 30
0.0
 10
14.1552155583
 20
10.832054176
 30
0.0
 10
14.1565173911
 20
10.832054176
 30
0.0
  0
SPLINE
  5
310
100
AcDbEntity
  8
0
100
AcDbSpline
 62
7
  6
CONTINUOUS
 70
0
 71
3
 72
9
 73
5
 74
0
 42
0.0000001
 43
0.0000001
 44
0.0000000001
 40
0.0
 40
0.0
 40
0.0
 40
0.0
 40
0.2371427614
 40
1.0
 40
1.0
 40
1.0
 40
1.0
 10
14.0142540313
 20
10.9798078338
 30
0.0
 10
14.0148861522
 20
10.9785197067
 30
0.0
 10
14.0177534805
 20
10.9731871974
 30
0.0
 10
14.0213595985
 20
10.968269059
 30
0.0
 10
14.0243696067
 20
10.9647697276
 30
0.0
  0
SPLINE
  5
311
100
AcDbEntity
  8
0
100
AcDbSpline
 62
7
  6
CONTINUOUS
 70
0
 71
3
 72
15
 73
11
 74
0
 42
0.0000001
 43
0.0000001
 44
0.0000000001
 40
0.0
 40
0.0
 40
0.0
 40
0.0
 40
0.1001862851
 40
0.2118998883
 40
0.3337845051
 40
0.4637283972
 40
0.5987338689
 40
0.7354233515
 40
0.8704308561
 40
1.0
 40
1.0
 40
1.0
 40
1.0
 10
15.9416232209
 20
11.0407079221
 30
0.0
 10
15.9410958207
 20
11.0417826506
 30
0.0
 10
15.9396976502
 20
11.0439202233
 30
0.0
 10
15.9369318111
 20
11.0468162844
 30
0.0
 10
15.9334797254
 20
11.0494776051
 30
0.0
 10
15.9294735441
 20
11.0518062747
 30
0.0
 10
15.9250616948
 20
11.0537215969
 30
0.0
 10
15.9204053968
 20
11.0551490532
 30
0.0
 10
15.9156828777
 20
11.0560329311
 30
0.0
 10
15.9125189153
 20
11.0562481713
 30
0.0
 10
15.9109706494
 20
11.0562481713
 30
0.0
  0
SPLINE
  5
312
100
AcDbEntity
  8
0
100
AcDbSpline
 62
7
  6
CONTINUOUS
 70
0
 71
3
 72
15
 73
11
 74
0
 42
0.0000001
 43
0.0000001
 44
0.0000000001
 40
0.0
 40
0.0
 40
0.0
 40
0.0
 40
0.1556021773
 40
0.303170297
 40
0.4411867815
 40
0.5691439872
 40
0.6874061566
 40
0.7971284409
 40
0.9003544435
 40
1.0
 40
1.0
 40
1.0
 40
1.0
 10
13.9997690868
 20
11.0562481713
 30
0.0
 10
13.9987635348
 20
11.0562481713
 30
0.0
 10
13.9968029103
 20
11.0561604827
 30
0.0
 10
13.9939760224
 20
11.0557528131
 30
0.0
 10
13.991384401
 20
11.055074098
 30
0.0
 10
13.9890768672
 20
11.0541354642
 30
0.0
 10
13.9870927182
 20
11.0529513998
 30
0.0
 10
13.9854693391
 20
11.0515362312
 30
0.0
 10
13.9842383488
 20
11.0499152922
 30
0.0
 10
13.9836997042
 20
11.0487043544
 30
0.0
 10
13.983509589
 20
11.0480891166
 30
0.0
  0
SPLINE
  5
313
100
AcDbEntity
  8
0
100
AcDbSpline
 62
7
  6
CONTINUOUS
 70
0
 71
3
 72
9
 73
5
 74
0
 42
0.0000001
 43
0.0000001
 44
0.0000000001
 40
0.0
 40
0.0
 40
0.0
 40
0.0
 40
0.4833952619
 40
1.0
 40
1.0
 40
1.0
 40
1.0
 10
15.9761523294
 20
10.9647697276
 30
0.0
 10
15.975845896
 20
10.9672961631
 30
0.0
 10
15.9746991058
 20
10.9724680201
 30
0.0
 10
15.9727068275
 20
10.9773661915
 30
0.0
 10
15.9715086435
 20
10.9798078338
 30
0.0
  0
ENDSEC
  0
SECTION
  2
OBJECTS
  0
DICTIONARY
  5
C
100
AcDbDictionary
280
0
281
1
  3
ACAD_GROUP
350
D
  3
ACAD_MLINESTYLE
350
17
  3
ACAD_LAYOUT
350
1A
  3
ACAD_PLOTSETTINGS
350
19
  3
ACAD_PLOTSTYLENAME
350
E
  0
DICTIONARY
  5
D
102
{ACAD_REACTORS
330
C
102
}
100
AcDbDictionary
280
0
281
1
  0
ACDBDICTIONARYWDFLT
  5
E
102
{ACAD_REACTORS
330
C
102
}
100
AcDbDictionary
281
1
  3
Normal
350
F
100
AcDbDictionaryWithDefault
340
F
  0
DICTIONARY
  5
17
102
{ACAD_REACTORS
330
C
102
}
100
AcDbDictionary
280
0
281
1
  3
Standard
350
18
  0
DICTIONARY
  5
19
102
{ACAD_REACTORS
330
C
102
}
100
AcDbDictionary
281
1
  0
DICTIONARY
  5
1A
102
{ACAD_REACTORS
330
C
102
}
100
AcDbDictionary
281
1
  3
Model
350
314
  3
Layout1
350
315
  0
ACDBPLACEHOLDER
  5
F
102
{ACAD_REACTORS
330
E
102
}
  0
MLINESTYLE
  5
18
102
{ACAD_REACTORS
330
17
102
}
100
AcDbMlineStyle
  2
STANDARD
 70
0
  3

 62
256
 51
90.0
 52
90.0
 71
2
 49
0.5
 62
256
  6
BYLAYER
 49
-0.5
 62
256
  6
BYLAYER
  0
LAYOUT
  5
314
102
{ACAD_REACTORS
330
1A
102
}
100
AcDbPlotSettings
  1

  2
none_device
  4
ANSI_C_(22.00_x_17.00_Inches)
  6

 40
0.0
 41
0.0
 42
0.0
 43
0.0
 44
558.8
 45
431.8
 46
0.0
 47
0.0
 48
0.0
 49
0.0
140
0.0
141
0.0
142
1.0
143
1.0
 70
1024
 72
0
 73
0
 74
0
  7

 75
0
147
1.0
148
0.0
149
0.0
100
AcDbLayout
  1
Model
 70
0
 71
0
 10
0.0
 20
0.0
 11
22.0
 21
17.0
 12
0.0
 22
0.0
 32
0.0
 14
0.0
 24
0.0
 34
0.0
 15
0.0
 25
0.0
 35
0.0
146
0.0
 13
0.0
 23
0.0
 33
0.0
 16
1.0
 26
0.0
 36
0.0
 17
0.0
 27
1.0
 37
0.0
 76
0
330
216
345
0
346
0
  0
LAYOUT
  5
315
102
{ACAD_REACTORS
330
1A
102
}
100
AcDbPlotSettings
  1

  2
none_device
  4
ANSI_C_(22.00_x_17.00_Inches)
  6

 40
0.0
 41
0.0
 42
0.0
 43
0.0
 44
558.8
 45
431.8
 46
0.0
 47
0.0
 48
0.0
 49
0.0
140
0.0
141
0.0
142
1.0
143
1.0
 70
0
 72
0
 73
0
 74
0
  7

 75
0
147
1.0
148
0.0
149
0.0
100
AcDbLayout
  1
Layout1
 70
0
 71
1
 10
0.0
 20
0.0
 11
22.0
 21
17.0
 12
0.0
 22
0.0
 32
0.0
 14
0.0
 24
0.0
 34
0.0
 15
0.0
 25
0.0
 35
0.0
146
0.0
 13
0.0
 23
0.0
 33
0.0
 16
1.0
 26
0.0
 36
0.0
 17
0.0
 27
1.0
 37
0.0
 76
0
330
217
345
0
346
0
  0
ENDSEC
  0
EOF