999
DXF file: _cgs_temp_output.dxf
999
Pro/ENGINEER 2016360 by Parametric Technology Corporation
  0
SECTION
  2
HEADER
  9
$ACADVER
  1
AC1021
  9
$DWGCODEPAGE
  3
ANSI_1252
  9
$EXTMAX
 10
22.0
 20
17.0
 30
0.0
  9
$EXTMIN
 10
0.0
 20
0.0
 30
0.0
  9
$LIMMIN
 10
0.0
 20
0.0
  9
$LIMMAX
 10
22.0
 20
17.0
  9
$VIEWCTR
 10
11.0
 20
8.5
  9
$VIEWSIZE
 40
17.0
  9
$CLAYER
  8
0
  9
$LTSCALE
 40
1.21
  9
$CELTYPE
  6
BYLAYER
  9
$DIMSCALE
 40
1.0
  9
$DIMASZ
 40
0.1875
  9
$DIMEXO
 40
0.0625
  9
$DIMDLI
 40
0.836
  9
$DIMEXE
 40
0.125
  9
$DIMCEN
 40
0.198
  9
$DIMLFAC
 40
1.0
  9
$DIMBLK
  1
_CLOSED
  9
$DIMALT
 70
0
  9
$DIMALTF
 40
25.4
  9
$DIMTXT
 40
0.15625
  9
$DIMTOL
 70
0
  9
$DIMLIM
 70
0
  9
$DIMTFAC
 40
1.0
  9
$DIMGAP
 40
0.09
  9
$DIMDSEP
 70
46
  9
$AUNITS
 70
0
  9
$PDMODE
 70
3
  9
$PDSIZE
 40
0.3125
  9
$HANDSEED
  5
2FA
  9
$TILEMODE
 70
1
  9
$MEASUREMENT
 70
0
  9
$INSUNITS
 70
1
  0
ENDSEC
  0
SECTION
  2
CLASSES
  0
CLASS
  1
ACDBDICTIONARYWDFLT
  2
AcDbDictionaryWithDefault
  3
AutoCAD 2000
 90
0
 91
1
280
0
281
0
  0
CLASS
  1
ACDBPLACEHOLDER
  2
AcDbPlaceHolder
  3
AutoCAD 2000
 90
0
 91
1
280
0
281
0
  0
CLASS
  1
LAYOUT
  2
AcDbLayout
  3
AutoCAD 2000
 90
0
 91
0
280
0
281
0
  0
ENDSEC
  0
SECTION
  2
TABLES
  0
TABLE
  2
VPORT
  5
8
100
AcDbSymbolTable
 70
2
  0
VPORT
  5
1F4
100
AcDbSymbolTableRecord
100
AcDbViewportTableRecord
  2
*ACTIVE
 70
0
 10
0.0
 20
0.0
 11
1.0
 21
1.0
 12
11.0
 22
8.5
 13
0.0
 23
0.0
 14
1.0
 24
1.0
 15
0.0
 25
0.0
 16
0.0
 26
0.0
 36
1.0
 17
0.0
 27
0.0
 37
0.0
 40
17.0
 41
1.2941176471
 42
50.0
 43
0.0
 44
0.0
 50
0.0
 51
0.0
 71
0
 72
100
 73
1
 74
1
 75
0
 76
0
 77
0
 78
0
  0
ENDTAB
  0
TABLE
  2
LTYPE
  5
5
100
AcDbSymbolTable
 70
6
  0
LTYPE
  5
14
100
AcDbSymbolTableRecord
100
AcDbLinetypeTableRecord
  2
BYBLOCK
 70
0
  3

 72
65
 73
0
 40
0.0
  0
LTYPE
  5
15
100
AcDbSymbolTableRecord
100
AcDbLinetypeTableRecord
  2
BYLAYER
 70
0
  3

 72
65
 73
0
 40
0.0
  0
LTYPE
  5
16
100
AcDbSymbolTableRecord
100
AcDbLinetypeTableRecord
  2
CONTINUOUS
 70
64
  3
Solid line
 72
65
 73
0
 40
0.0
  0
LTYPE
  5
1F5
100
AcDbSymbolTableRecord
100
AcDbLinetypeTableRecord
  2
CENTER
 70
64
  3
____ _ ____ _ ____ _ ____ _ ____ _ ____ _ ____
 72
65
 73
4
 40
0.6
 49
0.375
 74
0
 49
-0.075
 74
0
 49
0.075
 74
0
 49
-0.075
 74
0
  0
LTYPE
  5
1F6
100
AcDbSymbolTableRecord
100
AcDbLinetypeTableRecord
  2
HIDDEN
 70
64
  3
- - - - - - - - - - - - - - - - - - - -
 72
65
 73
2
 40
0.2
 49
0.1
 74
0
 49
-0.1
 74
0
  0
LTYPE
  5
1F7
100
AcDbSymbolTableRecord
100
AcDbLinetypeTableRecord
  2
PHANTOM
 70
64
  3
_____ _ _ _____ _ _ _____ _ _ _____
 72
65
 73
6
 40
0.8
 49
0.45
 74
0
 49
-0.05
 74
0
 49
0.1
 74
0
 49
-0.05
 74
0
 49
0.1
 74
0
 49
-0.05
 74
0
  0
LTYPE
  5
1F8
100
AcDbSymbolTableRecord
100
AcDbLinetypeTableRecord
  2
DOT
 70
64
  3
. . . . . . . . . . . . . . . . . . . .
 72
65
 73
2
 40
0.2
 49
0.1
 74
0
 49
-0.1
 74
0
  0
LTYPE
  5
1F9
100
AcDbSymbolTableRecord
100
AcDbLinetypeTableRecord
  2
DASHED
 70
64
  3
- - - - - - - - - - - - - - - - - - - -
 72
65
 73
2
 40
0.2
 49
0.1
 74
0
 49
-0.1
 74
0
  0
ENDTAB
  0
TABLE
  2
LAYER
  5
2
100
AcDbSymbolTable
 70
36
  0
LAYER
  5
10
100
AcDbSymbolTableRecord
100
AcDbLayerTableRecord
  2
0
 70
0
 62
7
  6
CONTINUOUS
370
-3
390
F
  0
LAYER
  5
1FA
100
AcDbSymbolTableRecord
100
AcDbLayerTableRecord
  2
DEFAULT_1
 70
0
 62
7
  6
CENTER
370
-3
390
F
  0
LAYER
  5
1FB
100
AcDbSymbolTableRecord
100
AcDbLayerTableRecord
  2
DEFAULT_2
 70
0
 62
8
  6
HIDDEN
370
-3
390
F
  0
LAYER
  5
1FC
100
AcDbSymbolTableRecord
100
AcDbLayerTableRecord
  2
DEFAULT_3
 70
0
 62
7
  6
PHANTOM
370
-3
390
F
  0
LAYER
  5
1FD
100
AcDbSymbolTableRecord
100
AcDbLayerTableRecord
  2
01_ALL_DTM_PLN
 70
0
 62
7
  6
CONTINUOUS
370
-3
390
F
  0
LAYER
  5
1FE
100
AcDbSymbolTableRecord
100
AcDbLayerTableRecord
  2
01__ASM_ALL_DTM_PLN
 70
0
 62
7
  6
CONTINUOUS
370
-3
390
F
  0
LAYER
  5
1FF
100
AcDbSymbolTableRecord
100
AcDbLayerTableRecord
  2
01__ASM_DEF_DTM_PLN
 70
0
 62
7
  6
CONTINUOUS
370
-3
390
F
  0
LAYER
  5
200
100
AcDbSymbolTableRecord
100
AcDbLayerTableRecord
  2
01___PRT_ALL_DTM_PLN
 70
0
 62
7
  6
CONTINUOUS
370
-3
390
F
  0
LAYER
  5
201
100
AcDbSymbolTableRecord
100
AcDbLayerTableRecord
  2
01___PRT_DEF_DTM_PLN
 70
0
 62
7
  6
CONTINUOUS
370
-3
390
F
  0
LAYER
  5
202
100
AcDbSymbolTableRecord
100
AcDbLayerTableRecord
  2
02_ALL_AXES
 70
0
 62
7
  6
CONTINUOUS
370
-3
390
F
  0
LAYER
  5
203
100
AcDbSymbolTableRecord
100
AcDbLayerTableRecord
  2
02__ASM_ALL_AXES
 70
0
 62
7
  6
CONTINUOUS
370
-3
390
F
  0
LAYER
  5
204
100
AcDbSymbolTableRecord
100
AcDbLayerTableRecord
  2
02___PRT_ALL_AXES
 70
0
 62
7
  6
CONTINUOUS
370
-3
390
F
  0
LAYER
  5
205
100
AcDbSymbolTableRecord
100
AcDbLayerTableRecord
  2
03_ALL_CURVES
 70
0
 62
7
  6
CONTINUOUS
370
-3
390
F
  0
LAYER
  5
206
100
AcDbSymbolTableRecord
100
AcDbLayerTableRecord
  2
03__ASM_ALL_CURVES
 70
0
 62
7
  6
CONTINUOUS
370
-3
390
F
  0
LAYER
  5
207
100
AcDbSymbolTableRecord
100
AcDbLayerTableRecord
  2
03___PRT_ALL_CURVES
 70
0
 62
7
  6
CONTINUOUS
370
-3
390
F
  0
LAYER
  5
208
100
AcDbSymbolTableRecord
100
AcDbLayerTableRecord
  2
04_ALL_DTM_PNT
 70
0
 62
7
  6
CONTINUOUS
370
-3
390
F
  0
LAYER
  5
209
100
AcDbSymbolTableRecord
100
AcDbLayerTableRecord
  2
04__ASM_ALL_DTM_PNT
 70
0
 62
7
  6
CONTINUOUS
370
-3
390
F
  0
LAYER
  5
20A
100
AcDbSymbolTableRecord
100
AcDbLayerTableRecord
  2
04___PRT_ALL_DTM_PNT
 70
0
 62
7
  6
CONTINUOUS
370
-3
390
F
  0
LAYER
  5
20B
100
AcDbSymbolTableRecord
100
AcDbLayerTableRecord
  2
05_ALL_DTM_CSYS
 70
0
 62
7
  6
CONTINUOUS
370
-3
390
F
  0
LAYER
  5
20C
100
AcDbSymbolTableRecord
100
AcDbLayerTableRecord
  2
05__ASM_ALL_DTM_CSYS
 70
0
 62
7
  6
CONTINUOUS
370
-3
390
F
  0
LAYER
  5
20D
100
AcDbSymbolTableRecord
100
AcDbLayerTableRecord
  2
05__ASM_DEF_DTM_CSYS
 70
0
 62
7
  6
CONTINUOUS
370
-3
390
F
  0
LAYER
  5
20E
100
AcDbSymbolTableRecord
100
AcDbLayerTableRecord
  2
05___PRT_ALL_DTM_CSYS
 70
0
 62
7
  6
CONTINUOUS
370
-3
390
F
  0
LAYER
  5
20F
100
AcDbSymbolTableRecord
100
AcDbLayerTableRecord
  2
05___PRT_DEF_DTM_CSYS
 70
0
 62
7
  6
CONTINUOUS
370
-3
390
F
  0
LAYER
  5
210
100
AcDbSymbolTableRecord
100
AcDbLayerTableRecord
  2
06_ALL_SURFS
 70
0
 62
7
  6
CONTINUOUS
370
-3
390
F
  0
LAYER
  5
211
100
AcDbSymbolTableRecord
100
AcDbLayerTableRecord
  2
06__ASM_ALL_SURFS
 70
0
 62
7
  6
CONTINUOUS
370
-3
390
F
  0
LAYER
  5
212
100
AcDbSymbolTableRecord
100
AcDbLayerTableRecord
  2
06___PRT_ALL_SURFS
 70
0
 62
7
  6
CONTINUOUS
370
-3
390
F
  0
LAYER
  5
213
100
AcDbSymbolTableRecord
100
AcDbLayerTableRecord
  2
07__ASM_ALL_SKELETONS
 70
0
 62
7
  6
CONTINUOUS
370
-3
390
F
  0
ENDTAB
  0
TABLE
  2
STYLE
  5
3
100
AcDbSymbolTable
 70
1
  0
STYLE
  5
11
100
AcDbSymbolTableRecord
100
AcDbTextStyleTableRecord
  2
STANDARD
 70
0
 40
0.0
 41
0.8
 50
0.0
 71
0
 42
0.2
  3
txt
  4

  0
STYLE
  5
214
100
AcDbSymbolTableRecord
100
AcDbTextStyleTableRecord
  2
TEXTSTYLE_1
 70
0
 40
0.0
 41
0.8
 50
0.0
 71
0
 42
0.2
  3
gdt
  4

  0
ENDTAB
  0
TABLE
  2
VIEW
  5
6
100
AcDbSymbolTable
 70
0
  0
ENDTAB
  0
TABLE
  2
UCS
  5
7
100
AcDbSymbolTable
 70
0
  0
ENDTAB
  0
TABLE
  2
APPID
  5
9
100
AcDbSymbolTable
 70
1
  0
APPID
  5
215
100
AcDbSymbolTableRecord
100
AcDbRegAppTableRecord
  2
ACAD
 70
0
  0
ENDTAB
  0
TABLE
  2
BLOCK_RECORD
  5
1
100
AcDbSymbolTable
 70
0
  0
BLOCK_RECORD
  5
216
100
AcDbSymbolTableRecord
100
AcDbBlockTableRecord
  2
*Model_Space
  0
BLOCK_RECORD
  5
217
100
AcDbSymbolTableRecord
100
AcDbBlockTableRecord
  2
*Paper_Space
  0
ENDTAB
  0
TABLE
  2
DIMSTYLE
  5
A
100
AcDbSymbolTable
 70
1
100
AcDbDimStyleTable
 71
0
  0
DIMSTYLE
105
218
100
AcDbSymbolTableRecord
100
AcDbDimStyleTableRecord
  2
STANDARD
 70
0
  3

  4

 40
1.0
 41
0.1875
 42
0.0625
 43
0.38
 44
0.125
 45
0.0
 46
0.0
 47
0.0001
 48
0.0001
140
0.15625
141
0.09
142
0.0
143
25.4
144
1.0
145
0.0
146
1.0
147
0.09
 71
0.0
 72
0.0
 73
1
 74
1
 75
0
 76
0
 77
0
 78
4
 79
1
170
0
171
3
172
0
173
0
174
0
175
0
176
0
177
0
178
0
270
2
179
4
271
4
272
4
273
2
274
2
275
0
280
0
281
0
282
0
283
1
284
4
285
0
286
0
287
3
288
0
340
11
278
46
  0
ENDTAB
  0
ENDSEC
  0
SECTION
  2
BLOCKS
  0
BLOCK
  5
20
100
AcDbEntity
  8
0
100
AcDbBlockBegin
  2
*Model_Space
 70
0
 10
0.0
 20
0.0
 30
0.0
  3
*Model_Space
  1

  0
ENDBLK
  5
21
100
AcDbEntity
  8
0
100
AcDbBlockEnd
  0
BLOCK
  5
1C
100
AcDbEntity
  8
0
100
AcDbBlockBegin
  2
*Paper_Space
 70
0
 10
0.0
 20
0.0
 30
0.0
  3
*Paper_Space
  1

  0
ENDBLK
  5
1D
100
AcDbEntity
  8
0
100
AcDbBlockEnd
  0
ENDSEC
  0
SECTION
  2
ENTITIES
  0
MTEXT
  5
219
100
AcDbEntity
  8
0
100
AcDbMText
 62
7
  6
CONTINUOUS
  7
STANDARD
 71
1
 72
1
 10
15.9560215477
 20
0.9479130325
 30
0.0
 11
1.0
 21
0.0
 31
0.0
 44
0.9
  1
SCALE: 1:1.000
 40
0.3
 41
3.36
  0
LINE
  5
21A
100
AcDbEntity
  8
0
100
AcDbLine
 62
7
  6
CONTINUOUS
 10
0.0
 20
0.0
 11
0.0
 21
17.0
  0
LINE
  5
21B
100
AcDbEntity
  8
0
100
AcDbLine
 62
7
  6
CONTINUOUS
 10
0.0
 20
0.0
 11
22.0
 21
0.0
  0
LINE
  5
21C
100
AcDbEntity
  8
0
100
AcDbLine
 62
7
  6
CONTINUOUS
 10
0.0
 20
17.0
 11
22.0
 21
17.0
  0
LINE
  5
21D
100
AcDbEntity
  8
0
100
AcDbLine
 62
7
  6
CONTINUOUS
 10
22.0
 20
0.0
 11
22.0
 21
17.0
  0
LINE
  5
21E
100
AcDbEntity
  8
0
100
AcDbLine
 62
7
  6
CONTINUOUS
 10
4.9741172762
 20
5.8391198968
 11
4.9741172762
 21
5.7035134576
  0
LINE
  5
21F
100
AcDbEntity
  8
0
100
AcDbLine
 62
7
  6
CONTINUOUS
 10
5.0887719091
 20
5.1954961204
 11
4.9766802697
 21
5.6810183521
  0
LINE
  5
220
100
AcDbEntity
  8
0
100
AcDbLine
 62
7
  6
CONTINUOUS
 10
5.1131311607
 20
5.1761198968
 11
7.1476033916
 21
5.1761198968
  0
LINE
  5
221
100
AcDbEntity
  8
0
100
AcDbLine
 62
7
  6
CONTINUOUS
 10
5.0601853889
 20
5.4054532301
 11
7.2005491635
 21
5.4054532301
  0
LINE
  5
222
100
AcDbEntity
  8
0
100
AcDbLine
 62
7
  6
CONTINUOUS
 10
7.2616172762
 20
5.8641198968
 11
4.9991172762
 21
5.8641198968
  0
LINE
  5
223
100
AcDbEntity
  8
0
100
AcDbLine
 62
7
  6
CONTINUOUS
 10
7.2866172762
 20
5.7035134576
 11
7.2866172762
 21
5.8391198968
  0
LINE
  5
224
100
AcDbEntity
  8
0
100
AcDbLine
 62
7
  6
CONTINUOUS
 10
7.1719626432
 20
5.1954961204
 11
7.2840542826
 21
5.6810183521
  0
LINE
  5
225
100
AcDbEntity
  8
0
100
AcDbLine
 62
7
  6
CONTINUOUS
 10
7.2271220839
 20
10.6000477814
 11
4.9146220839
 21
10.6000477814
  0
LINE
  5
226
100
AcDbEntity
  8
0
100
AcDbLine
 62
7
  6
CONTINUOUS
 10
4.9146220839
 20
10.6000477814
 11
4.9146220839
 21
14.6000477814
  0
LINE
  5
227
100
AcDbEntity
  8
0
100
AcDbLine
 62
7
  6
CONTINUOUS
 10
7.2271220839
 20
10.6000477814
 11
7.2271220839
 21
14.6000477814
  0
LINE
  5
228
100
AcDbEntity
  8
0
100
AcDbLine
 62
7
  6
CONTINUOUS
 10
4.9146220839
 20
14.6000477814
 11
7.2271220839
 21
14.6000477814
  0
LINE
  5
229
100
AcDbEntity
  8
0
100
AcDbLine
 62
7
  6
CONTINUOUS
 10
13.5603552569
 20
5.3459580378
 11
13.5603552569
 21
5.8046247044
  0
LINE
  5
22A
100
AcDbEntity
  8
0
100
AcDbLine
 62
7
  6
CONTINUOUS
 10
13.6691412622
 20
5.3015218982
 11
13.7015692517
 21
5.161060844
  0
LINE
  5
22B
100
AcDbEntity
  8
0
100
AcDbLine
 62
7
  6
CONTINUOUS
 10
13.9191412622
 20
5.161060844
 11
13.9515692517
 21
5.3015218982
  0
LINE
  5
22C
100
AcDbEntity
  8
0
100
AcDbLine
 62
7
  6
CONTINUOUS
 10
14.1691412622
 20
5.3015218982
 11
14.2015692517
 21
5.161060844
  0
LINE
  5
22D
100
AcDbEntity
  8
0
100
AcDbLine
 62
7
  6
CONTINUOUS
 10
14.4191412622
 20
5.161060844
 11
14.4515692517
 21
5.3015218982
  0
LINE
  5
22E
100
AcDbEntity
  8
0
100
AcDbLine
 62
7
  6
CONTINUOUS
 10
14.6691412622
 20
5.3015218982
 11
14.7015692517
 21
5.161060844
  0
LINE
  5
22F
100
AcDbEntity
  8
0
100
AcDbLine
 62
7
  6
CONTINUOUS
 10
14.9191412622
 20
5.161060844
 11
14.9515692517
 21
5.3015218982
  0
LINE
  5
230
100
AcDbEntity
  8
0
100
AcDbLine
 62
7
  6
CONTINUOUS
 10
15.1691412622
 20
5.3015218982
 11
15.2015692517
 21
5.161060844
  0
LINE
  5
231
100
AcDbEntity
  8
0
100
AcDbLine
 62
7
  6
CONTINUOUS
 10
13.7574331354
 20
5.1166247044
 11
13.8632773785
 21
5.1166247044
  0
LINE
  5
232
100
AcDbEntity
  8
0
100
AcDbLine
 62
7
  6
CONTINUOUS
 10
14.2574331354
 20
5.1166247044
 11
14.3632773785
 21
5.1166247044
  0
LINE
  5
233
100
AcDbEntity
  8
0
100
AcDbLine
 62
7
  6
CONTINUOUS
 10
14.7574331354
 20
5.1166247044
 11
14.8632773785
 21
5.1166247044
  0
LINE
  5
234
100
AcDbEntity
  8
0
100
AcDbLine
 62
7
  6
CONTINUOUS
 10
15.2574331354
 20
5.1166247044
 11
15.3632773785
 21
5.1166247044
  0
LINE
  5
235
100
AcDbEntity
  8
0
100
AcDbLine
 62
7
  6
CONTINUOUS
 10
15.7574331354
 20
5.1166247044
 11
15.8632773785
 21
5.1166247044
  0
LINE
  5
236
100
AcDbEntity
  8
0
100
AcDbLine
 62
7
  6
CONTINUOUS
 10
16.2574331354
 20
5.1166247044
 11
16.3632773785
 21
5.1166247044
  0
LINE
  5
237
100
AcDbEntity
  8
0
100
AcDbLine
 62
7
  6
CONTINUOUS
 10
16.7574331354
 20
5.1166247044
 11
16.8632773785
 21
5.1166247044
  0
LINE
  5
238
100
AcDbEntity
  8
0
100
AcDbLine
 62
7
  6
CONTINUOUS
 10
17.2574331354
 20
5.1166247044
 11
17.3632773785
 21
5.1166247044
  0
LINE
  5
239
100
AcDbEntity
  8
0
100
AcDbLine
 62
7
  6
CONTINUOUS
 10
15.4191412622
 20
5.161060844
 11
15.4515692517
 21
5.3015218982
  0
LINE
  5
23A
100
AcDbEntity
  8
0
100
AcDbLine
 62
7
  6
CONTINUOUS
 10
13.5603552569
 20
5.3459580378
 11
13.6132773785
 21
5.3459580378
  0
LINE
  5
23B
100
AcDbEntity
  8
0
100
AcDbLine
 62
7
  6
CONTINUOUS
 10
14.0074331354
 20
5.3459580378
 11
14.1132773785
 21
5.3459580378
  0
LINE
  5
23C
100
AcDbEntity
  8
0
100
AcDbLine
 62
7
  6
CONTINUOUS
 10
14.5074331354
 20
5.3459580378
 11
14.6132773785
 21
5.3459580378
  0
LINE
  5
23D
100
AcDbEntity
  8
0
100
AcDbLine
 62
7
  6
CONTINUOUS
 10
15.0074331354
 20
5.3459580378
 11
15.1132773785
 21
5.3459580378
  0
LINE
  5
23E
100
AcDbEntity
  8
0
100
AcDbLine
 62
7
  6
CONTINUOUS
 10
15.5074331354
 20
5.3459580378
 11
15.6132773785
 21
5.3459580378
  0
LINE
  5
23F
100
AcDbEntity
  8
0
100
AcDbLine
 62
7
  6
CONTINUOUS
 10
16.0074331354
 20
5.3459580378
 11
16.1132773785
 21
5.3459580378
  0
LINE
  5
240
100
AcDbEntity
  8
0
100
AcDbLine
 62
7
  6
CONTINUOUS
 10
16.5074331354
 20
5.3459580378
 11
16.6132773785
 21
5.3459580378
  0
LINE
  5
241
100
AcDbEntity
  8
0
100
AcDbLine
 62
7
  6
CONTINUOUS
 10
17.0074331354
 20
5.3459580378
 11
17.1132773785
 21
5.3459580378
  0
LINE
  5
242
100
AcDbEntity
  8
0
100
AcDbLine
 62
7
  6
CONTINUOUS
 10
17.5074331354
 20
5.3459580378
 11
17.5603552569
 21
5.3459580378
  0
LINE
  5
243
100
AcDbEntity
  8
0
100
AcDbLine
 62
7
  6
CONTINUOUS
 10
15.6691412622
 20
5.3015218982
 11
15.7015692517
 21
5.161060844
  0
LINE
  5
244
100
AcDbEntity
  8
0
100
AcDbLine
 62
7
  6
CONTINUOUS
 10
15.9191412622
 20
5.161060844
 11
15.9515692517
 21
5.3015218982
  0
LINE
  5
245
100
AcDbEntity
  8
0
100
AcDbLine
 62
7
  6
CONTINUOUS
 10
13.5603552569
 20
5.8046247044
 11
17.5603552569
 21
5.8046247044
  0
LINE
  5
246
100
AcDbEntity
  8
0
100
AcDbLine
 62
7
  6
CONTINUOUS
 10
16.1691412622
 20
5.3015218982
 11
16.2015692517
 21
5.161060844
  0
LINE
  5
247
100
AcDbEntity
  8
0
100
AcDbLine
 62
7
  6
CONTINUOUS
 10
16.4191412622
 20
5.161060844
 11
16.4515692517
 21
5.3015218982
  0
LINE
  5
248
100
AcDbEntity
  8
0
100
AcDbLine
 62
7
  6
CONTINUOUS
 10
16.6691412622
 20
5.3015218982
 11
16.7015692517
 21
5.161060844
  0
LINE
  5
249
100
AcDbEntity
  8
0
100
AcDbLine
 62
7
  6
CONTINUOUS
 10
16.9191412622
 20
5.161060844
 11
16.9515692517
 21
5.3015218982
  0
LINE
  5
24A
100
AcDbEntity
  8
0
100
AcDbLine
 62
7
  6
CONTINUOUS
 10
17.1691412622
 20
5.3015218982
 11
17.2015692517
 21
5.161060844
  0
LINE
  5
24B
100
AcDbEntity
  8
0
100
AcDbLine
 62
7
  6
CONTINUOUS
 10
17.5603552569
 20
5.3459580378
 11
17.5603552569
 21
5.8046247044
  0
LINE
  5
24C
100
AcDbEntity
  8
0
100
AcDbLine
 62
7
  6
CONTINUOUS
 10
17.4191412622
 20
5.161060844
 11
17.4515692517
 21
5.3015218982
  0
LINE
  5
24D
100
AcDbEntity
  8
0
100
AcDbLine
 62
7
  6
CONTINUOUS
 10
13.9384369517
 20
10.9777699233
 11
14.0710622431
 21
10.8185203502
  0
LWPOLYLINE
  5
24E
100
AcDbEntity
  8
0
100
AcDbPolyline
 62
7
  6
CONTINUOUS
 90
3
 70
0
 10
14.2224301358
 20
10.8048736873
 10
14.2293527224
 20
10.800539105
 10
14.2425450242
 20
10.7967482749
  0
LINE
  5
24F
100
AcDbEntity
  8
0
100
AcDbLine
 62
7
  6
CONTINUOUS
 10
14.2224301372
 20
10.8048736891
 11
14.2203449135
 21
10.8064758965
  0
LINE
  5
250
100
AcDbEntity
  8
0
100
AcDbLine
 62
7
  6
CONTINUOUS
 10
13.8878486881
 20
11.0760474194
 11
13.9292143294
 21
10.991753105
  0
LWPOLYLINE
  5
251
100
AcDbEntity
  8
0
100
AcDbPolyline
 62
7
  6
CONTINUOUS
 90
4
 70
0
 10
16.1248250917
 20
10.7966021103
 10
16.1332624838
 20
10.7979697929
 10
16.1417077181
 20
10.8025269236
 10
16.148335196
 20
10.8096491228
  0
LINE
  5
252
100
AcDbEntity
  8
0
100
AcDbLine
 62
7
  6
CONTINUOUS
 10
16.124823039
 20
10.7966020541
 11
16.124825484
 21
10.7966020547
  0
LINE
  5
253
100
AcDbEntity
  8
0
100
AcDbLine
 62
7
  6
CONTINUOUS
 10
14.2457470742
 20
10.7966020541
 11
16.1248233727
 21
10.7966020541
  0
LINE
  5
254
100
AcDbEntity
  8
0
100
AcDbLine
 62
7
  6
CONTINUOUS
 10
14.099409159
 20
10.8064758965
 11
16.0708147448
 21
10.8064758965
  0
LINE
  5
255
100
AcDbEntity
  8
0
100
AcDbLine
 62
7
  6
CONTINUOUS
 10
14.2425450242
 20
10.7967482749
 11
14.2457999001
 21
10.796602224
  0
LWPOLYLINE
  5
256
100
AcDbEntity
  8
0
100
AcDbPolyline
 62
7
  6
CONTINUOUS
 90
4
 70
0
 10
16.2458582534
 20
11.1882655651
 10
16.2542956455
 20
11.1896332478
 10
16.2627408799
 20
11.1941903785
 10
16.2693683577
 20
11.2013125776
  0
LINE
  5
257
100
AcDbEntity
  8
0
100
AcDbLine
 62
7
  6
CONTINUOUS
 10
15.9871496652
 20
11.0915876686
 11
13.9032491663
 21
11.0915876686
  0
LINE
  5
258
100
AcDbEntity
  8
0
100
AcDbLine
 62
7
  6
CONTINUOUS
 10
16.2025347911
 20
11.1882655089
 11
16.2458565344
 21
11.1882655089
  0
LINE
  5
259
100
AcDbEntity
  8
0
100
AcDbLine
 62
7
  6
CONTINUOUS
 10
13.8869896918
 20
11.0834286037
 11
14.8552549855
 21
14.2167362422
  0
LWPOLYLINE
  5
25A
100
AcDbEntity
  8
0
100
AcDbPolyline
 62
7
  6
CONTINUOUS
 90
4
 70
0
 10
16.3668914151
 20
11.5799290199
 10
16.3753288072
 20
11.5812967026
 10
16.3837740416
 20
11.5858538333
 10
16.3904015194
 20
11.5929760324
  0
LINE
  5
25B
100
AcDbEntity
  8
0
100
AcDbLine
 62
7
  6
CONTINUOUS
 10
16.3235679528
 20
11.5799289637
 11
16.3668896961
 21
11.5799289637
  0
LWPOLYLINE
  5
25C
100
AcDbEntity
  8
0
100
AcDbPolyline
 62
7
  6
CONTINUOUS
 90
4
 70
0
 10
16.4879245768
 20
11.9715924748
 10
16.4963619689
 20
11.9729601574
 10
16.5048072033
 20
11.9775172881
 10
16.5114346811
 20
11.9846394872
  0
LINE
  5
25D
100
AcDbEntity
  8
0
100
AcDbLine
 62
7
  6
CONTINUOUS
 10
16.4446011145
 20
11.9715924185
 11
16.4879228578
 21
11.9715924185
  0
LWPOLYLINE
  5
25E
100
AcDbEntity
  8
0
100
AcDbPolyline
 62
7
  6
CONTINUOUS
 90
4
 70
0
 10
16.6089577385
 20
12.3632559296
 10
16.6173951306
 20
12.3646236122
 10
16.625840365
 20
12.3691807429
 10
16.6324678428
 20
12.376302942
  0
LINE
  5
25F
100
AcDbEntity
  8
0
100
AcDbLine
 62
7
  6
CONTINUOUS
 10
16.5656342762
 20
12.3632558734
 11
16.6089560195
 21
12.3632558734
  0
LINE
  5
260
100
AcDbEntity
  8
0
100
AcDbLine
 62
7
  6
CONTINUOUS
 10
16.059167878
 20
10.991753105
 11
16.0178022367
 21
11.0760474194
  0
LWPOLYLINE
  5
261
100
AcDbEntity
  8
0
100
AcDbPolyline
 62
7
  6
CONTINUOUS
 90
4
 70
0
 10
16.7299909002
 20
12.7549193844
 10
16.7384282923
 20
12.756287067
 10
16.7468735267
 20
12.7608441977
 10
16.7535010045
 20
12.7679663969
  0
LINE
  5
262
100
AcDbEntity
  8
0
100
AcDbLine
 62
7
  6
CONTINUOUS
 10
16.6866674379
 20
12.7549193282
 11
16.7299891812
 21
12.7549193282
  0
LWPOLYLINE
  5
263
100
AcDbEntity
  8
0
100
AcDbPolyline
 62
7
  6
CONTINUOUS
 90
4
 70
0
 10
16.8510240619
 20
13.1465828392
 10
16.859461454
 20
13.1479505218
 10
16.8679066884
 20
13.1525076525
 10
16.8745341662
 20
13.1596298517
  0
LINE
  5
264
100
AcDbEntity
  8
0
100
AcDbLine
 62
7
  6
CONTINUOUS
 10
16.0873405419
 20
10.8185203502
 11
16.0636691536
 21
10.9777699233
  0
LINE
  5
265
100
AcDbEntity
  8
0
100
AcDbLine
 62
7
  6
CONTINUOUS
 10
16.8077005996
 20
13.146582783
 11
16.8510223429
 21
13.146582783
  0
LINE
  5
266
100
AcDbEntity
  8
0
100
AcDbLine
 62
7
  6
CONTINUOUS
 10
16.1879908055
 20
10.9581395857
 11
16.1828621838
 21
11.0708532935
  0
LINE
  5
267
100
AcDbEntity
  8
0
100
AcDbLine
 62
7
  6
CONTINUOUS
 10
16.3090239672
 20
11.3498030405
 11
16.3038953455
 21
11.4625167484
  0
LWPOLYLINE
  5
268
100
AcDbEntity
  8
0
100
AcDbPolyline
 62
7
  6
CONTINUOUS
 90
7
 70
0
 10
16.1828606598
 20
11.070877247
 10
16.1826864416
 20
11.0794536984
 10
16.183383941
 20
11.0975135533
 10
16.1854418466
 20
11.1176684608
 10
16.1886970726
 20
11.137811585
 10
16.1927554689
 20
11.1558806935
 10
16.1952916653
 20
11.1648297132
  0
LINE
  5
269
100
AcDbEntity
  8
0
100
AcDbLine
 62
7
  6
CONTINUOUS
 10
16.188002626
 20
10.9485224095
 11
16.1879879145
 21
10.958199325
  0
LINE
  5
26A
100
AcDbEntity
  8
0
100
AcDbLine
 62
7
  6
CONTINUOUS
 10
16.0870721282
 20
10.8146356048
 11
16.0873405419
 21
10.8185203502
  0
LWPOLYLINE
  5
26B
100
AcDbEntity
  8
0
100
AcDbPolyline
 62
7
  6
CONTINUOUS
 90
4
 70
0
 10
16.9720572236
 20
13.538246294
 10
16.9804946157
 20
13.5396139766
 10
16.9889398501
 20
13.5441711073
 10
16.9955673279
 20
13.5512933065
  0
LINE
  5
26C
100
AcDbEntity
  8
0
100
AcDbLine
 62
7
  6
CONTINUOUS
 10
16.4300571289
 20
11.7414664953
 11
16.4249285072
 21
11.8541802032
  0
LWPOLYLINE
  5
26D
100
AcDbEntity
  8
0
100
AcDbPolyline
 62
7
  6
CONTINUOUS
 90
7
 70
0
 10
16.3038938215
 20
11.4625407019
 10
16.3037196033
 20
11.4711171532
 10
16.3044171028
 20
11.4891770081
 10
16.3064750083
 20
11.5093319156
 10
16.3097302343
 20
11.5294750399
 10
16.3137886306
 20
11.5475441483
 10
16.316324827
 20
11.556493168
  0
LWPOLYLINE
  5
26E
100
AcDbEntity
  8
0
100
AcDbPolyline
 62
7
  6
CONTINUOUS
 90
7
 70
0
 10
16.4249269832
 20
11.8542041567
 10
16.424752765
 20
11.862780608
 10
16.4254502645
 20
11.8808404629
 10
16.42750817
 20
11.9009953705
 10
16.430763396
 20
11.9211384947
 10
16.4348217923
 20
11.9392076031
 10
16.4373579887
 20
11.9481566228
  0
LINE
  5
26F
100
AcDbEntity
  8
0
100
AcDbLine
 62
7
  6
CONTINUOUS
 10
16.3090357877
 20
11.3401858644
 11
16.3090210762
 21
11.3498627798
  0
LWPOLYLINE
  5
270
100
AcDbEntity
  8
0
100
AcDbPolyline
 62
7
  6
CONTINUOUS
 90
3
 70
0
 10
16.9509506553
 20
13.608608494
 10
16.9532330562
 20
13.6136330332
 10
16.9541957906
 20
13.6153799076
  0
LWPOLYLINE
  5
271
100
AcDbEntity
  8
0
100
AcDbPolyline
 62
7
  6
CONTINUOUS
 90
3
 70
0
 10
16.8299174936
 20
13.2169450392
 10
16.8321998945
 20
13.2219695784
 10
16.8331626289
 20
13.2237164528
  0
LWPOLYLINE
  5
272
100
AcDbEntity
  8
0
100
AcDbPolyline
 62
7
  6
CONTINUOUS
 90
3
 70
0
 10
16.9955673279
 20
13.5512933065
 10
17.0003964189
 20
13.5602990402
 10
17.0032101729
 20
13.5681268637
  0
LWPOLYLINE
  5
273
100
AcDbEntity
  8
0
100
AcDbPolyline
 62
7
  6
CONTINUOUS
 90
3
 70
0
 10
16.8745341662
 20
13.1596298517
 10
16.8793632572
 20
13.1686355854
 10
16.8821770112
 20
13.1764634089
  0
LINE
  5
274
100
AcDbEntity
  8
0
100
AcDbLine
 62
7
  6
CONTINUOUS
 10
16.5510902906
 20
12.1331299501
 11
16.5459616689
 21
12.245843658
  0
LWPOLYLINE
  5
275
100
AcDbEntity
  8
0
100
AcDbPolyline
 62
7
  6
CONTINUOUS
 90
7
 70
0
 10
16.5459601449
 20
12.2458676115
 10
16.5457859267
 20
12.2544440629
 10
16.5464834262
 20
12.2725039178
 10
16.5485413317
 20
12.2926588253
 10
16.5517965578
 20
12.3128019495
 10
16.5558549541
 20
12.3308710579
 10
16.5583911504
 20
12.3398200776
  0
LINE
  5
276
100
AcDbEntity
  8
0
100
AcDbLine
 62
7
  6
CONTINUOUS
 10
16.4300689494
 20
11.7318493192
 11
16.4300542379
 21
11.7415262346
  0
LINE
  5
277
100
AcDbEntity
  8
0
100
AcDbLine
 62
7
  6
CONTINUOUS
 10
16.5511021111
 20
12.123512774
 11
16.5510873996
 21
12.1331896894
  0
LWPOLYLINE
  5
278
100
AcDbEntity
  8
0
100
AcDbPolyline
 62
7
  6
CONTINUOUS
 90
3
 70
0
 10
16.1838188833
 20
10.91762918
 10
16.1866167334
 20
10.9328880189
 10
16.188002626
 20
10.9485224095
  0
LWPOLYLINE
  5
279
100
AcDbEntity
  8
0
100
AcDbPolyline
 62
7
  6
CONTINUOUS
 90
3
 70
0
 10
16.304852045
 20
11.3092926348
 10
16.3076498951
 20
11.3245514737
 10
16.3090357877
 20
11.3401858644
  0
LWPOLYLINE
  5
27A
100
AcDbEntity
  8
0
100
AcDbPolyline
 62
7
  6
CONTINUOUS
 90
3
 70
0
 10
16.4258852067
 20
11.7009560896
 10
16.4286830568
 20
11.7162149286
 10
16.4300689494
 20
11.7318493192
  0
LINE
  5
27B
100
AcDbEntity
  8
0
100
AcDbLine
 62
7
  6
CONTINUOUS
 10
16.181580626
 20
10.9093328497
 11
16.1838188833
 21
10.91762918
  0
LINE
  5
27C
100
AcDbEntity
  8
0
100
AcDbLine
 62
7
  6
CONTINUOUS
 10
16.0881934467
 20
10.8182567827
 11
16.0998848832
 21
10.8560902853
  0
LINE
  5
27D
100
AcDbEntity
  8
0
100
AcDbLine
 62
7
  6
CONTINUOUS
 10
16.1952967175
 20
11.1648430943
 11
16.2209180449
 21
11.2477537401
  0
LINE
  5
27E
100
AcDbEntity
  8
0
100
AcDbLine
 62
7
  6
CONTINUOUS
 10
16.3163298792
 20
11.5565065491
 11
16.3419512066
 21
11.6394171949
  0
LINE
  5
27F
100
AcDbEntity
  8
0
100
AcDbLine
 62
7
  6
CONTINUOUS
 10
16.4373630409
 20
11.9481700039
 11
16.4629843683
 21
12.0310806497
  0
LINE
  5
280
100
AcDbEntity
  8
0
100
AcDbLine
 62
7
  6
CONTINUOUS
 10
16.5583962026
 20
12.3398334587
 11
16.58401753
 21
12.4227441045
  0
LINE
  5
281
100
AcDbEntity
  8
0
100
AcDbLine
 62
7
  6
CONTINUOUS
 10
16.6794293643
 20
12.7314969136
 11
16.7050506917
 21
12.8144075594
  0
LINE
  5
282
100
AcDbEntity
  8
0
100
AcDbLine
 62
7
  6
CONTINUOUS
 10
16.800462526
 20
13.1231603684
 11
16.8260838534
 21
13.2060710142
  0
LINE
  5
283
100
AcDbEntity
  8
0
100
AcDbLine
 62
7
  6
CONTINUOUS
 10
16.9214956877
 20
13.5148238232
 11
16.9471170151
 21
13.597734469
  0
LINE
  5
284
100
AcDbEntity
  8
0
100
AcDbLine
 62
7
  6
CONTINUOUS
 10
17.0425288495
 20
13.906487278
 11
17.0553395128
 21
13.9479425999
  0
LINE
  5
285
100
AcDbEntity
  8
0
100
AcDbLine
 62
7
  6
CONTINUOUS
 10
16.9471166827
 20
13.5977360656
 11
16.9482051546
 21
13.6011296903
  0
LINE
  5
286
100
AcDbEntity
  8
0
100
AcDbLine
 62
7
  6
CONTINUOUS
 10
16.826083521
 20
13.2060726108
 11
16.8271719929
 21
13.2094662355
  0
LINE
  5
287
100
AcDbEntity
  8
0
100
AcDbLine
 62
7
  6
CONTINUOUS
 10
16.7050503593
 20
12.814409156
 11
16.7061388312
 21
12.8178027807
  0
LINE
  5
288
100
AcDbEntity
  8
0
100
AcDbLine
 62
7
  6
CONTINUOUS
 10
16.5840171976
 20
12.4227457012
 11
16.5851056695
 21
12.4261393259
  0
LINE
  5
289
100
AcDbEntity
  8
0
100
AcDbLine
 62
7
  6
CONTINUOUS
 10
16.4629840359
 20
12.0310822464
 11
16.4640725078
 21
12.0344758711
  0
LINE
  5
28A
100
AcDbEntity
  8
0
100
AcDbLine
 62
7
  6
CONTINUOUS
 10
16.3419508742
 20
11.6394187916
 11
16.3430393461
 21
11.6428124162
  0
LINE
  5
28B
100
AcDbEntity
  8
0
100
AcDbLine
 62
7
  6
CONTINUOUS
 10
16.2209177125
 20
11.2477553367
 11
16.2220061844
 21
11.2511489614
  0
LINE
  5
28C
100
AcDbEntity
  8
0
100
AcDbLine
 62
7
  6
CONTINUOUS
 10
16.0998845508
 20
10.8560918819
 11
16.1009730227
 21
10.8594855066
  0
LINE
  5
28D
100
AcDbEntity
  8
0
100
AcDbLine
 62
7
  6
CONTINUOUS
 10
16.9482051546
 20
13.6011296903
 11
16.9509506553
 21
13.608608494
  0
LINE
  5
28E
100
AcDbEntity
  8
0
100
AcDbLine
 62
7
  6
CONTINUOUS
 10
16.8271719929
 20
13.2094662355
 11
16.8299174936
 21
13.2169450392
  0
LINE
  5
28F
100
AcDbEntity
  8
0
100
AcDbLine
 62
7
  6
CONTINUOUS
 10
16.7061388312
 20
12.8178027807
 11
16.7088843319
 21
12.8252815844
  0
LINE
  5
290
100
AcDbEntity
  8
0
100
AcDbLine
 62
7
  6
CONTINUOUS
 10
16.5851056695
 20
12.4261393259
 11
16.5878511702
 21
12.4336181296
  0
LINE
  5
291
100
AcDbEntity
  8
0
100
AcDbLine
 62
7
  6
CONTINUOUS
 10
16.4640725078
 20
12.0344758711
 11
16.4668180085
 21
12.0419546748
  0
LWPOLYLINE
  5
292
100
AcDbEntity
  8
0
100
AcDbPolyline
 62
7
  6
CONTINUOUS
 90
3
 70
0
 10
16.7088843319
 20
12.8252815844
 10
16.7111667328
 20
12.8303061236
 10
16.7121294672
 20
12.8320529979
  0
LWPOLYLINE
  5
293
100
AcDbEntity
  8
0
100
AcDbPolyline
 62
7
  6
CONTINUOUS
 90
3
 70
0
 10
16.5878511702
 20
12.4336181296
 10
16.5901335711
 20
12.4386426688
 10
16.5910963055
 20
12.4403895431
  0
LWPOLYLINE
  5
294
100
AcDbEntity
  8
0
100
AcDbPolyline
 62
7
  6
CONTINUOUS
 90
3
 70
0
 10
16.4668180085
 20
12.0419546748
 10
16.4691004094
 20
12.046979214
 10
16.4700631438
 20
12.0487260883
  0
LWPOLYLINE
  5
295
100
AcDbEntity
  8
0
100
AcDbPolyline
 62
7
  6
CONTINUOUS
 90
3
 70
0
 10
16.7535010045
 20
12.7679663969
 10
16.7583300955
 20
12.7769721306
 10
16.7611438495
 20
12.7847999541
  0
LWPOLYLINE
  5
296
100
AcDbEntity
  8
0
100
AcDbPolyline
 62
7
  6
CONTINUOUS
 90
3
 70
0
 10
16.6324678428
 20
12.376302942
 10
16.6372969338
 20
12.3853086758
 10
16.6401106878
 20
12.3931364993
  0
LINE
  5
297
100
AcDbEntity
  8
0
100
AcDbLine
 62
7
  6
CONTINUOUS
 10
16.9287337613
 20
13.5382462378
 11
16.9720555046
 21
13.5382462378
  0
LINE
  5
298
100
AcDbEntity
  8
0
100
AcDbLine
 62
7
  6
CONTINUOUS
 10
16.6721234523
 20
12.5247934049
 11
16.6669948306
 21
12.6375071128
  0
LWPOLYLINE
  5
299
100
AcDbEntity
  8
0
100
AcDbPolyline
 62
7
  6
CONTINUOUS
 90
7
 70
0
 10
16.6669933066
 20
12.6375310663
 10
16.6668190884
 20
12.6461075177
 10
16.6675165879
 20
12.6641673726
 10
16.6695744934
 20
12.6843222801
 10
16.6728297195
 20
12.7044654043
 10
16.6768881158
 20
12.7225345127
 10
16.6794243121
 20
12.7314835324
  0
LINE
  5
29A
100
AcDbEntity
  8
0
100
AcDbLine
 62
7
  6
CONTINUOUS
 10
16.6721352728
 20
12.5151762288
 11
16.6721205613
 21
12.5248531442
  0
LWPOLYLINE
  5
29B
100
AcDbEntity
  8
0
100
AcDbPolyline
 62
7
  6
CONTINUOUS
 90
3
 70
0
 10
16.5469183685
 20
12.0926195444
 10
16.5497162185
 20
12.1078783834
 10
16.5511021111
 20
12.123512774
  0
LWPOLYLINE
  5
29C
100
AcDbEntity
  8
0
100
AcDbPolyline
 62
7
  6
CONTINUOUS
 90
3
 70
0
 10
16.6679515302
 20
12.4842829992
 10
16.6707493802
 20
12.4995418382
 10
16.6721352728
 20
12.5151762288
  0
LWPOLYLINE
  5
29D
100
AcDbEntity
  8
0
100
AcDbPolyline
 62
7
  6
CONTINUOUS
 90
3
 70
0
 10
16.7889846919
 20
12.8759464541
 10
16.7917825419
 20
12.891205293
 10
16.7931684345
 20
12.9068396836
  0
LINE
  5
29E
100
AcDbEntity
  8
0
100
AcDbLine
 62
7
  6
CONTINUOUS
 10
16.3026137877
 20
11.3009963045
 11
16.304852045
 21
11.3092926348
  0
LINE
  5
29F
100
AcDbEntity
  8
0
100
AcDbLine
 62
7
  6
CONTINUOUS
 10
16.4236469494
 20
11.6926597593
 11
16.4258852067
 21
11.7009560896
  0
LINE
  5
2A0
100
AcDbEntity
  8
0
100
AcDbLine
 62
7
  6
CONTINUOUS
 10
16.5446801111
 20
12.0843232141
 11
16.5469183685
 21
12.0926195444
  0
LINE
  5
2A1
100
AcDbEntity
  8
0
100
AcDbLine
 62
7
  6
CONTINUOUS
 10
16.6657132728
 20
12.4759866689
 11
16.6679515302
 21
12.4842829992
  0
LINE
  5
2A2
100
AcDbEntity
  8
0
100
AcDbLine
 62
7
  6
CONTINUOUS
 10
16.7867464345
 20
12.8676501237
 11
16.7889846919
 21
12.8759464541
  0
LINE
  5
2A3
100
AcDbEntity
  8
0
100
AcDbLine
 62
7
  6
CONTINUOUS
 10
16.9077795962
 20
13.2593135785
 11
16.9100178536
 21
13.2676099089
  0
LINE
  5
2A4
100
AcDbEntity
  8
0
100
AcDbLine
 62
7
  6
CONTINUOUS
 10
17.0288127579
 20
13.6509770334
 11
17.0310510153
 21
13.6592733637
  0
LINE
  5
2A5
100
AcDbEntity
  8
0
100
AcDbLine
 62
7
  6
CONTINUOUS
 10
16.1559701195
 20
10.8264554808
 11
16.1815914469
 21
10.9093661266
  0
LINE
  5
2A6
100
AcDbEntity
  8
0
100
AcDbLine
 62
7
  6
CONTINUOUS
 10
16.2770032812
 20
11.2181189356
 11
16.3026246086
 21
11.3010295814
  0
LINE
  5
2A7
100
AcDbEntity
  8
0
100
AcDbLine
 62
7
  6
CONTINUOUS
 10
16.3980364429
 20
11.6097823905
 11
16.4236577703
 21
11.6926930362
  0
LINE
  5
2A8
100
AcDbEntity
  8
0
100
AcDbLine
 62
7
  6
CONTINUOUS
 10
16.5190696046
 20
12.0014458453
 11
16.544690932
 21
12.084356491
  0
LINE
  5
2A9
100
AcDbEntity
  8
0
100
AcDbLine
 62
7
  6
CONTINUOUS
 10
16.6401027663
 20
12.3931093001
 11
16.6657240937
 21
12.4760199458
  0
LINE
  5
2AA
100
AcDbEntity
  8
0
100
AcDbLine
 62
7
  6
CONTINUOUS
 10
16.761135928
 20
12.7847727549
 11
16.7867572554
 21
12.8676834006
  0
LINE
  5
2AB
100
AcDbEntity
  8
0
100
AcDbLine
 62
7
  6
CONTINUOUS
 10
16.8821690897
 20
13.1764362097
 11
16.9077904171
 21
13.2593468555
  0
LINE
  5
2AC
100
AcDbEntity
  8
0
100
AcDbLine
 62
7
  6
CONTINUOUS
 10
17.0032022514
 20
13.5680996645
 11
17.0288235788
 21
13.6510103103
  0
LINE
  5
2AD
100
AcDbEntity
  8
0
100
AcDbLine
 62
7
  6
CONTINUOUS
 10
16.3430393461
 20
11.6428124162
 11
16.3457848468
 21
11.6502912199
  0
LINE
  5
2AE
100
AcDbEntity
  8
0
100
AcDbLine
 62
7
  6
CONTINUOUS
 10
16.2220061844
 20
11.2511489614
 11
16.2247516851
 21
11.2586277651
  0
LINE
  5
2AF
100
AcDbEntity
  8
0
100
AcDbLine
 62
7
  6
CONTINUOUS
 10
16.1009730227
 20
10.8594855066
 11
16.1037185234
 21
10.8669643103
  0
LWPOLYLINE
  5
2B0
100
AcDbEntity
  8
0
100
AcDbPolyline
 62
7
  6
CONTINUOUS
 90
3
 70
0
 10
16.3457848468
 20
11.6502912199
 10
16.3480672477
 20
11.6553157592
 10
16.3490299821
 20
11.6570626335
  0
LWPOLYLINE
  5
2B1
100
AcDbEntity
  8
0
100
AcDbPolyline
 62
7
  6
CONTINUOUS
 90
3
 70
0
 10
16.2247516851
 20
11.2586277651
 10
16.227034086
 20
11.2636523044
 10
16.2279968204
 20
11.2653991787
  0
LWPOLYLINE
  5
2B2
100
AcDbEntity
  8
0
100
AcDbPolyline
 62
7
  6
CONTINUOUS
 90
3
 70
0
 10
16.1037185234
 20
10.8669643103
 10
16.1060009243
 20
10.8719888495
 10
16.1069636587
 20
10.8737357239
  0
LWPOLYLINE
  5
2B3
100
AcDbEntity
  8
0
100
AcDbPolyline
 62
7
  6
CONTINUOUS
 90
3
 70
0
 10
16.5114346811
 20
11.9846394872
 10
16.5162637721
 20
11.9936452209
 10
16.5190775261
 20
12.0014730445
  0
LWPOLYLINE
  5
2B4
100
AcDbEntity
  8
0
100
AcDbPolyline
 62
7
  6
CONTINUOUS
 90
3
 70
0
 10
16.3904015194
 20
11.5929760324
 10
16.3952306104
 20
11.6019817661
 10
16.3980443644
 20
11.6098095897
  0
LINE
  5
2B5
100
AcDbEntity
  8
0
100
AcDbLine
 62
7
  6
CONTINUOUS
 10
16.793156614
 20
12.9164568597
 11
16.7880279923
 21
13.0291705676
  0
LWPOLYLINE
  5
2B6
100
AcDbEntity
  8
0
100
AcDbPolyline
 62
7
  6
CONTINUOUS
 90
7
 70
0
 10
16.7880264683
 20
13.0291945211
 10
16.7878522501
 20
13.0377709725
 10
16.7885497496
 20
13.0558308274
 10
16.7906076551
 20
13.0759857349
 10
16.7938628812
 20
13.0961288591
 10
16.7979212775
 20
13.1141979675
 10
16.8004574738
 20
13.1231469873
  0
LINE
  5
2B7
100
AcDbEntity
  8
0
100
AcDbLine
 62
7
  6
CONTINUOUS
 10
16.7931684345
 20
12.9068396836
 11
16.793153723
 21
12.916516599
  0
LWPOLYLINE
  5
2B8
100
AcDbEntity
  8
0
100
AcDbPolyline
 62
7
  6
CONTINUOUS
 90
3
 70
0
 10
16.9100178536
 20
13.2676099089
 10
16.9128157036
 20
13.2828687478
 10
16.9142015962
 20
13.2985031384
  0
LWPOLYLINE
  5
2B9
100
AcDbEntity
  8
0
100
AcDbPolyline
 62
7
  6
CONTINUOUS
 90
3
 70
0
 10
17.0310510153
 20
13.6592733637
 10
17.0338488653
 20
13.6745322026
 10
17.0352347579
 20
13.6901665932
  0
LWPOLYLINE
  5
2BA
100
AcDbEntity
  8
0
100
AcDbPolyline
 62
7
  6
CONTINUOUS
 90
3
 70
0
 10
16.2693683577
 20
11.2013125776
 10
16.2741974487
 20
11.2103183113
 10
16.2770112027
 20
11.2181461349
  0
LWPOLYLINE
  5
2BB
100
AcDbEntity
  8
0
100
AcDbPolyline
 62
7
  6
CONTINUOUS
 90
3
 70
0
 10
16.148335196
 20
10.8096491228
 10
16.153164287
 20
10.8186548565
 10
16.155978041
 20
10.8264826801
  0
LINE
  5
2BC
100
AcDbEntity
  8
0
100
AcDbLine
 62
7
  6
CONTINUOUS
 10
16.9141897757
 20
13.3081203145
 11
16.909061154
 21
13.4208340224
  0
LWPOLYLINE
  5
2BD
100
AcDbEntity
  8
0
100
AcDbPolyline
 62
7
  6
CONTINUOUS
 90
7
 70
0
 10
16.90905963
 20
13.4208579759
 10
16.9088854118
 20
13.4294344273
 10
16.9095829113
 20
13.4474942822
 10
16.9116408168
 20
13.4676491897
 10
16.9148960429
 20
13.4877923139
 10
16.9189544392
 20
13.5058614223
 10
16.9214906355
 20
13.5148104421
  0
LINE
  5
2BE
100
AcDbEntity
  8
0
100
AcDbLine
 62
7
  6
CONTINUOUS
 10
16.9142015962
 20
13.2985031384
 11
16.9141868847
 21
13.3081800539
  0
LINE
  5
2BF
100
AcDbEntity
  8
0
100
AcDbLine
 62
7
  6
CONTINUOUS
 10
17.0352347579
 20
13.6901665932
 11
17.0352200464
 21
13.6998435087
  0
LINE
  5
2C0
100
AcDbEntity
  8
0
100
AcDbLine
 62
7
  6
CONTINUOUS
 10
17.0556058355
 20
13.9518279887
 11
17.0553374218
 21
13.9479432433
  0
LINE
  5
2C1
100
AcDbEntity
  8
0
100
AcDbLine
 62
7
  6
CONTINUOUS
 10
17.0352229374
 20
13.6997837694
 11
17.0300943157
 21
13.8124974772
  0
LWPOLYLINE
  5
2C2
100
AcDbEntity
  8
0
100
AcDbPolyline
 62
7
  6
CONTINUOUS
 90
7
 70
0
 10
17.0300927917
 20
13.8125214307
 10
17.0299185735
 20
13.8210978821
 10
17.030616073
 20
13.839157737
 10
17.0326739785
 20
13.8593126445
 10
17.0359292046
 20
13.8794557687
 10
17.0399876009
 20
13.8975248772
 10
17.0425237972
 20
13.9064738969
  0
LINE
  5
2C3
100
AcDbEntity
  8
0
100
AcDbLine
 62
7
  6
CONTINUOUS
 10
16.9554149588
 20
14.2248953071
 11
14.8715144599
 21
14.2248953071
  0
LINE
  5
2C4
100
AcDbEntity
  8
0
100
AcDbLine
 62
7
  6
CONTINUOUS
 10
17.0556058355
 20
13.9518279887
 11
17.0319344473
 21
14.1110775618
  0
LINE
  5
2C5
100
AcDbEntity
  8
0
100
AcDbLine
 62
7
  6
CONTINUOUS
 10
17.0274331717
 20
14.1250607435
 11
16.9860675303
 21
14.2093550579
  0
ARC
  5
2C6
100
AcDbEntity
  8
0
100
AcDbCircle
 62
7
  6
CONTINUOUS
 10
5.0601853889
 20
5.4304532301
 40
0.025
100
AcDbArc
 50
193.0
 51
270.0
  0
ARC
  5
2C7
100
AcDbEntity
  8
0
100
AcDbCircle
 62
7
  6
CONTINUOUS
 10
5.1131308708
 20
5.2011211524
 40
0.025
100
AcDbArc
 50
193.0029535186
 51
270.000664209
  0
ARC
  5
2C8
100
AcDbEntity
  8
0
100
AcDbCircle
 62
7
  6
CONTINUOUS
 10
5.0741172762
 20
5.7035134576
 40
0.1
100
AcDbArc
 50
180.0
 51
193.0
  0
ARC
  5
2C9
100
AcDbEntity
  8
0
100
AcDbCircle
 62
7
  6
CONTINUOUS
 10
4.9991172762
 20
5.8391198968
 40
0.025
100
AcDbArc
 50
90.0
 51
180.0
  0
ARC
  5
2CA
100
AcDbEntity
  8
0
100
AcDbCircle
 62
7
  6
CONTINUOUS
 10
7.1476033916
 20
5.2011198968
 40
0.025
100
AcDbArc
 50
270.0
 51
347.0
  0
ARC
  5
2CB
100
AcDbEntity
  8
0
100
AcDbCircle
 62
7
  6
CONTINUOUS
 10
7.2005491635
 20
5.4304532301
 40
0.025
100
AcDbArc
 50
270.0
 51
347.0
  0
ARC
  5
2CC
100
AcDbEntity
  8
0
100
AcDbCircle
 62
7
  6
CONTINUOUS
 10
7.1866172762
 20
5.7035134576
 40
0.1
100
AcDbArc
 50
347.0
 51
360.0
  0
ARC
  5
2CD
100
AcDbEntity
  8
0
100
AcDbCircle
 62
7
  6
CONTINUOUS
 10
7.2616172762
 20
5.8391198968
 40
0.025
100
AcDbArc
 50
0.0
 51
90.0
  0
ARC
  5
2CE
100
AcDbEntity
  8
0
100
AcDbCircle
 62
7
  6
CONTINUOUS
 10
13.7574331354
 20
5.1739580378
 40
0.0573333333
100
AcDbArc
 50
193.0
 51
270.0
  0
ARC
  5
2CF
100
AcDbEntity
  8
0
100
AcDbCircle
 62
7
  6
CONTINUOUS
 10
13.8632773785
 20
5.1739580378
 40
0.0573333333
100
AcDbArc
 50
270.0
 51
347.0
  0
ARC
  5
2D0
100
AcDbEntity
  8
0
100
AcDbCircle
 62
7
  6
CONTINUOUS
 10
14.2574331354
 20
5.1739580378
 40
0.0573333333
100
AcDbArc
 50
193.0
 51
270.0
  0
ARC
  5
2D1
100
AcDbEntity
  8
0
100
AcDbCircle
 62
7
  6
CONTINUOUS
 10
14.3632773785
 20
5.1739580378
 40
0.0573333333
100
AcDbArc
 50
270.0
 51
347.0
  0
ARC
  5
2D2
100
AcDbEntity
  8
0
100
AcDbCircle
 62
7
  6
CONTINUOUS
 10
14.7574331354
 20
5.1739580378
 40
0.0573333333
100
AcDbArc
 50
193.0
 51
270.0
  0
ARC
  5
2D3
100
AcDbEntity
  8
0
100
AcDbCircle
 62
7
  6
CONTINUOUS
 10
14.8632773785
 20
5.1739580378
 40
0.0573333333
100
AcDbArc
 50
270.0
 51
347.0
  0
ARC
  5
2D4
100
AcDbEntity
  8
0
100
AcDbCircle
 62
7
  6
CONTINUOUS
 10
15.2574331354
 20
5.1739580378
 40
0.0573333333
100
AcDbArc
 50
193.0
 51
270.0
  0
ARC
  5
2D5
100
AcDbEntity
  8
0
100
AcDbCircle
 62
7
  6
CONTINUOUS
 10
15.3632773785
 20
5.1739580378
 40
0.0573333333
100
AcDbArc
 50
270.0
 51
347.0
  0
ARC
  5
2D6
100
AcDbEntity
  8
0
100
AcDbCircle
 62
7
  6
CONTINUOUS
 10
13.6132773785
 20
5.2886247044
 40
0.0573333333
100
AcDbArc
 50
13.0
 51
90.0
  0
ARC
  5
2D7
100
AcDbEntity
  8
0
100
AcDbCircle
 62
7
  6
CONTINUOUS
 10
14.0074331354
 20
5.2886247044
 40
0.0573333333
100
AcDbArc
 50
90.0
 51
167.0
  0
ARC
  5
2D8
100
AcDbEntity
  8
0
100
AcDbCircle
 62
7
  6
CONTINUOUS
 10
14.1132773785
 20
5.2886247044
 40
0.0573333333
100
AcDbArc
 50
13.0
 51
90.0
  0
ARC
  5
2D9
100
AcDbEntity
  8
0
100
AcDbCircle
 62
7
  6
CONTINUOUS
 10
14.5074331354
 20
5.2886247044
 40
0.0573333333
100
AcDbArc
 50
90.0
 51
167.0
  0
ARC
  5
2DA
100
AcDbEntity
  8
0
100
AcDbCircle
 62
7
  6
CONTINUOUS
 10
14.6132773785
 20
5.2886247044
 40
0.0573333333
100
AcDbArc
 50
13.0
 51
90.0
  0
ARC
  5
2DB
100
AcDbEntity
  8
0
100
AcDbCircle
 62
7
  6
CONTINUOUS
 10
15.0074331354
 20
5.2886247044
 40
0.0573333333
100
AcDbArc
 50
90.0
 51
167.0
  0
ARC
  5
2DC
100
AcDbEntity
  8
0
100
AcDbCircle
 62
7
  6
CONTINUOUS
 10
15.1132773785
 20
5.2886247044
 40
0.0573333333
100
AcDbArc
 50
13.0
 51
90.0
  0
ARC
  5
2DD
100
AcDbEntity
  8
0
100
AcDbCircle
 62
7
  6
CONTINUOUS
 10
15.5074331354
 20
5.2886247044
 40
0.0573333333
100
AcDbArc
 50
90.0
 51
167.0
  0
ARC
  5
2DE
100
AcDbEntity
  8
0
100
AcDbCircle
 62
7
  6
CONTINUOUS
 10
17.3632773785
 20
5.1739580378
 40
0.0573333333
100
AcDbArc
 50
270.0
 51
347.0
  0
ARC
  5
2DF
100
AcDbEntity
  8
0
100
AcDbCircle
 62
7
  6
CONTINUOUS
 10
17.2574331354
 20
5.1739580378
 40
0.0573333333
100
AcDbArc
 50
193.0
 51
270.0
  0
ARC
  5
2E0
100
AcDbEntity
  8
0
100
AcDbCircle
 62
7
  6
CONTINUOUS
 10
16.8632773785
 20
5.1739580378
 40
0.0573333333
100
AcDbArc
 50
270.0
 51
347.0
  0
ARC
  5
2E1
100
AcDbEntity
  8
0
100
AcDbCircle
 62
7
  6
CONTINUOUS
 10
16.7574331354
 20
5.1739580378
 40
0.0573333333
100
AcDbArc
 50
193.0
 51
270.0
  0
ARC
  5
2E2
100
AcDbEntity
  8
0
100
AcDbCircle
 62
7
  6
CONTINUOUS
 10
16.3632773785
 20
5.1739580378
 40
0.0573333333
100
AcDbArc
 50
270.0
 51
347.0
  0
ARC
  5
2E3
100
AcDbEntity
  8
0
100
AcDbCircle
 62
7
  6
CONTINUOUS
 10
16.2574331354
 20
5.1739580378
 40
0.0573333333
100
AcDbArc
 50
193.0
 51
270.0
  0
ARC
  5
2E4
100
AcDbEntity
  8
0
100
AcDbCircle
 62
7
  6
CONTINUOUS
 10
15.8632773785
 20
5.1739580378
 40
0.0573333333
100
AcDbArc
 50
270.0
 51
347.0
  0
ARC
  5
2E5
100
AcDbEntity
  8
0
100
AcDbCircle
 62
7
  6
CONTINUOUS
 10
15.7574331354
 20
5.1739580378
 40
0.0573333333
100
AcDbArc
 50
193.0
 51
270.0
  0
ARC
  5
2E6
100
AcDbEntity
  8
0
100
AcDbCircle
 62
7
  6
CONTINUOUS
 10
17.5074331354
 20
5.2886247044
 40
0.0573333333
100
AcDbArc
 50
90.0
 51
167.0
  0
ARC
  5
2E7
100
AcDbEntity
  8
0
100
AcDbCircle
 62
7
  6
CONTINUOUS
 10
17.1132773785
 20
5.2886247044
 40
0.0573333333
100
AcDbArc
 50
13.0
 51
90.0
  0
ARC
  5
2E8
100
AcDbEntity
  8
0
100
AcDbCircle
 62
7
  6
CONTINUOUS
 10
17.0074331354
 20
5.2886247044
 40
0.0573333333
100
AcDbArc
 50
90.0
 51
167.0
  0
ARC
  5
2E9
100
AcDbEntity
  8
0
100
AcDbCircle
 62
7
  6
CONTINUOUS
 10
16.6132773785
 20
5.2886247044
 40
0.0573333333
100
AcDbArc
 50
13.0
 51
90.0
  0
ARC
  5
2EA
100
AcDbEntity
  8
0
100
AcDbCircle
 62
7
  6
CONTINUOUS
 10
16.5074331354
 20
5.2886247044
 40
0.0573333333
100
AcDbArc
 50
90.0
 51
167.0
  0
ARC
  5
2EB
100
AcDbEntity
  8
0
100
AcDbCircle
 62
7
  6
CONTINUOUS
 10
16.1132773785
 20
5.2886247044
 40
0.0573333333
100
AcDbArc
 50
13.0
 51
90.0
  0
ARC
  5
2EC
100
AcDbEntity
  8
0
100
AcDbCircle
 62
7
  6
CONTINUOUS
 10
16.0074331354
 20
5.2886247044
 40
0.0573333333
100
AcDbArc
 50
90.0
 51
167.0
  0
ARC
  5
2ED
100
AcDbEntity
  8
0
100
AcDbCircle
 62
7
  6
CONTINUOUS
 10
15.6132773785
 20
5.2886247044
 40
0.0573333333
100
AcDbArc
 50
13.0
 51
90.0
  0
SPLINE
  5
2EE
100
AcDbEntity
  8
0
100
AcDbSpline
 62
7
  6
CONTINUOUS
 70
0
 71
3
 72
15
 73
11
 74
0
 42
0.0000001
 43
0.0000001
 44
0.0000000001
 40
0.0
 40
0.0
 40
0.0
 40
0.0
 40
0.1295693688
 40
0.2645770018
 40
0.4012661746
 40
0.5362715646
 40
0.6662153911
 40
0.7880997317
 40
0.8998134667
 40
1.0
 40
1.0
 40
1.0
 40
1.0
 10
16.9554149588
 20
14.2248953071
 30
0.0
 10
16.9569632275
 20
14.2248953071
 30
0.0
 10
16.9601271937
 20
14.2246800628
 30
0.0
 10
16.964849714
 20
14.2237961896
 30
0.0
 10
16.9695060085
 20
14.2223687318
 30
0.0
 10
16.9739178513
 20
14.2204534088
 30
0.0
 10
16.9779240296
 20
14.2181247449
 30
0.0
 10
16.9813761164
 20
14.2154634289
 30
0.0
 10
16.9841419508
 20
14.2125673622
 30
0.0
 10
16.9855401289
 20
14.2104297891
 30
0.0
 10
16.9860675303
 20
14.2093550579
 30
0.0
  0
SPLINE
  5
2EF
100
AcDbEntity
  8
0
100
AcDbSpline
 62
7
  6
CONTINUOUS
 70
0
 71
3
 72
15
 73
11
 74
0
 42
0.0000001
 43
0.0000001
 44
0.0000000001
 40
0.0
 40
0.0
 40
0.0
 40
0.0
 40
0.099645376
 40
0.2028713891
 40
0.3125936591
 40
0.4308555309
 40
0.5588123908
 40
0.6968290509
 40
0.8443975952
 40
1.0
 40
1.0
 40
1.0
 40
1.0
 10
14.8552549594
 20
14.2167362531
 30
0.0
 10
14.8554450746
 20
14.2173514897
 30
0.0
 10
14.855983721
 20
14.2185624256
 30
0.0
 10
14.8572147117
 20
14.2201833623
 30
0.0
 10
14.8588380876
 20
14.2215985314
 30
0.0
 10
14.8608222304
 20
14.2227825978
 30
0.0
 10
14.8631297609
 20
14.2237212327
 30
0.0
 10
14.8657213851
 20
14.2243999438
 30
0.0
 10
14.8685482777
 20
14.2248076164
 30
0.0
 10
14.8705089064
 20
14.2248953071
 30
0.0
 10
14.8715144599
 20
14.2248953071
 30
0.0
  0
SPLINE
  5
2F0
100
AcDbEntity
  8
0
100
AcDbSpline
 62
7
  6
CONTINUOUS
 70
0
 71
3
 72
11
 73
7
 74
0
 42
0.0000001
 43
0.0000001
 44
0.0000000001
 40
0.0
 40
0.0
 40
0.0
 40
0.0
 40
0.2336923142
 40
0.474726456
 40
0.7289542264
 40
1.0
 40
1.0
 40
1.0
 40
1.0
 10
13.8869896657
 20
11.0834286146
 30
0.0
 10
13.8868148115
 20
11.0828627644
 30
0.0
 10
13.8865845027
 20
11.0816706193
 30
0.0
 10
13.8866268136
 20
11.0798113429
 30
0.0
 10
13.8870446124
 20
11.0779041621
 30
0.0
 10
13.8875460723
 20
11.0766640854
 30
0.0
 10
13.8878486881
 20
11.0760474194
 30
0.0
  0
SPLINE
  5
2F1
100
AcDbEntity
  8
0
100
AcDbSpline
 62
7
  6
CONTINUOUS
 70
0
 71
3
 72
9
 73
5
 74
0
 42
0.0000001
 43
0.0000001
 44
0.0000000001
 40
0.0
 40
0.0
 40
0.0
 40
0.0
 40
0.5155721259
 40
1.0
 40
1.0
 40
1.0
 40
1.0
 10
17.0274331717
 20
14.1250607435
 30
0.0
 10
17.0285486605
 20
14.1227876162
 30
0.0
 10
17.0304276866
 20
14.1182301411
 30
0.0
 10
17.0315846497
 20
14.1134308294
 30
0.0
 10
17.0319344473
 20
14.1110775618
 30
0.0
  0
SPLINE
  5
2F2
100
AcDbEntity
  8
0
100
AcDbSpline
 62
7
  6
CONTINUOUS
 70
0
 71
3
 72
14
 73
10
 74
0
 42
0.0000001
 43
0.0000001
 44
0.0000000001
 40
0.0
 40
0.0
 40
0.0
 40
0.0
 40
0.1556094097
 40
0.3032525071
 40
0.568846438
 40
0.6871590814
 40
0.7968876153
 40
0.900171698
 40
1.0
 40
1.0
 40
1.0
 40
1.0
 10
16.0708147448
 20
10.8064758965
 30
0.0
 10
16.0718197652
 20
10.8064758965
 30
0.0
 10
16.073780667
 20
10.8065638015
 30
0.0
 10
16.0774186475
 20
10.8070885254
 30
0.0
 10
16.0807395661
 20
10.8081326384
 30
0.0
 10
16.0834899781
 20
10.8097713652
 30
0.0
 10
16.085113702
 20
10.8111857806
 30
0.0
 10
16.0863446886
 20
10.8128071949
 30
0.0
 10
16.0868836088
 20
10.814019027
 30
0.0
 10
16.0870732837
 20
10.8146352482
 30
0.0
  0
SPLINE
  5
2F3
100
AcDbEntity
  8
0
100
AcDbSpline
 62
7
  6
CONTINUOUS
 70
0
 71
3
 72
15
 73
11
 74
0
 42
0.0000001
 43
0.0000001
 44
0.0000000001
 40
0.0
 40
0.0
 40
0.0
 40
0.0
 40
0.1089091991
 40
0.2266192684
 40
0.3512091186
 40
0.4806318494
 40
0.6126722483
 40
0.7449566609
 40
0.8750042343
 40
1.0
 40
1.0
 40
1.0
 40
1.0
 10
14.0710622431
 20
10.8185203502
 30
0.0
 10
14.0717978566
 20
10.8176370637
 30
0.0
 10
14.0734785205
 20
10.8159217634
 30
0.0
 10
14.0763958341
 20
10.8136216462
 30
0.0
 10
14.0797414017
 20
10.8115571237
 30
0.0
 10
14.0834160594
 20
10.8097812188
 30
0.0
 10
14.0873224864
 20
10.8083446758
 30
0.0
 10
14.0913540646
 20
10.8072831581
 30
0.0
 10
14.0953964655
 20
10.8066332263
 30
0.0
 10
14.0980898846
 20
10.8064758965
 30
0.0
 10
14.099409159
 20
10.8064758965
 30
0.0
  0
SPLINE
  5
2F4
100
AcDbEntity
  8
0
100
AcDbSpline
 62
7
  6
CONTINUOUS
 70
0
 71
3
 72
9
 73
5
 74
0
 42
0.0000001
 43
0.0000001
 44
0.0000000001
 40
0.0
 40
0.0
 40
0.0
 40
0.0
 40
0.238006646
 40
1.0
 40
1.0
 40
1.0
 40
1.0
 10
13.9292143294
 20
10.991753105
 30
0.0
 10
13.9298005784
 20
10.9905584552
 30
0.0
 10
13.9324365861
 20
10.985624217
 30
0.0
 10
13.935710477
 20
10.9810437327
 30
0.0
 10
13.9384369517
 20
10.9777699233
 30
0.0
  0
SPLINE
  5
2F5
100
AcDbEntity
  8
0
100
AcDbSpline
 62
7
  6
CONTINUOUS
 70
0
 71
3
 72
15
 73
11
 74
0
 42
0.0000001
 43
0.0000001
 44
0.0000000001
 40
0.0
 40
0.0
 40
0.0
 40
0.0
 40
0.1001865333
 40
0.2119002683
 40
0.3337846089
 40
0.4637284354
 40
0.5987338254
 40
0.7354229982
 40
0.8704306312
 40
1.0
 40
1.0
 40
1.0
 40
1.0
 10
16.0178022367
 20
11.0760474194
 30
0.0
 10
16.0172748352
 20
11.0771221506
 30
0.0
 10
16.0158766571
 20
11.0792597237
 30
0.0
 10
16.0131108228
 20
11.0821557904
 30
0.0
 10
16.009658736
 20
11.0848171064
 30
0.0
 10
16.0056525576
 20
11.0871457703
 30
0.0
 10
16.0012407149
 20
11.0890610933
 30
0.0
 10
15.9965844204
 20
11.0904885511
 30
0.0
 10
15.9918619001
 20
11.0913724242
 30
0.0
 10
15.9886979338
 20
11.0915876686
 30
0.0
 10
15.9871496652
 20
11.0915876686
 30
0.0
  0
SPLINE
  5
2F6
100
AcDbEntity
  8
0
100
AcDbSpline
 62
7
  6
CONTINUOUS
 70
0
 71
3
 72
15
 73
11
 74
0
 42
0.0000001
 43
0.0000001
 44
0.0000000001
 40
0.0
 40
0.0
 40
0.0
 40
0.0
 40
0.1556024048
 40
0.3031709491
 40
0.4411876092
 40
0.5691444691
 40
0.6874063409
 40
0.7971286109
 40
0.900354624
 40
1.0
 40
1.0
 40
1.0
 40
1.0
 10
13.9032491663
 20
11.0915876686
 30
0.0
 10
13.9022436128
 20
11.0915876686
 30
0.0
 10
13.9002829841
 20
11.0914999779
 30
0.0
 10
13.8974560915
 20
11.0910923053
 30
0.0
 10
13.8948644673
 20
11.0904135942
 30
0.0
 10
13.8925569368
 20
11.0894749593
 30
0.0
 10
13.890572794
 20
11.0882908929
 30
0.0
 10
13.8889494181
 20
11.0868757238
 30
0.0
 10
13.8877184274
 20
11.085254787
 30
0.0
 10
13.887179781
 20
11.0840438512
 30
0.0
 10
13.8869896657
 20
11.0834286146
 30
0.0
  0
SPLINE
  5
2F7
100
AcDbEntity
  8
0
100
AcDbSpline
 62
7
  6
CONTINUOUS
 70
0
 71
3
 72
9
 73
5
 74
0
 42
0.0000001
 43
0.0000001
 44
0.0000000001
 40
0.0
 40
0.0
 40
0.0
 40
0.0
 40
0.4844278741
 40
1.0
 40
1.0
 40
1.0
 40
1.0
 10
16.0636691536
 20
10.9777699233
 30
0.0
 10
16.0633193561
 20
10.9801231909
 30
0.0
 10
16.0621623929
 20
10.9849225026
 30
0.0
 10
16.0602833669
 20
10.9894799777
 30
0.0
 10
16.059167878
 20
10.991753105
 30
0.0
  0
ENDSEC
  0
SECTION
  2
OBJECTS
  0
DICTIONARY
  5
C
100
AcDbDictionary
280
0
281
1
  3
ACAD_GROUP
350
D
  3
ACAD_MLINESTYLE
350
17
  3
ACAD_LAYOUT
350
1A
  3
ACAD_PLOTSETTINGS
350
19
  3
ACAD_PLOTSTYLENAME
350
E
  0
DICTIONARY
  5
D
102
{ACAD_REACTORS
330
C
102
}
100
AcDbDictionary
280
0
281
1
  0
ACDBDICTIONARYWDFLT
  5
E
102
{ACAD_REACTORS
330
C
102
}
100
AcDbDictionary
281
1
  3
Normal
350
F
100
AcDbDictionaryWithDefault
340
F
  0
DICTIONARY
  5
17
102
{ACAD_REACTORS
330
C
102
}
100
AcDbDictionary
280
0
281
1
  3
Standard
350
18
  0
DICTIONARY
  5
19
102
{ACAD_REACTORS
330
C
102
}
100
AcDbDictionary
281
1
  0
DICTIONARY
  5
1A
102
{ACAD_REACTORS
330
C
102
}
100
AcDbDictionary
281
1
  3
Model
350
2F8
  3
Layout1
350
2F9
  0
ACDBPLACEHOLDER
  5
F
102
{ACAD_REACTORS
330
E
102
}
  0
MLINESTYLE
  5
18
102
{ACAD_REACTORS
330
17
102
}
100
AcDbMlineStyle
  2
STANDARD
 70
0
  3

 62
256
 51
90.0
 52
90.0
 71
2
 49
0.5
 62
256
  6
BYLAYER
 49
-0.5
 62
256
  6
BYLAYER
  0
LAYOUT
  5
2F8
102
{ACAD_REACTORS
330
1A
102
}
100
AcDbPlotSettings
  1

  2
none_device
  4
ANSI_C_(22.00_x_17.00_Inches)
  6

 40
0.0
 41
0.0
 42
0.0
 43
0.0
 44
558.8
 45
431.8
 46
0.0
 47
0.0
 48
0.0
 49
0.0
140
0.0
141
0.0
142
1.0
143
1.0
 70
1024
 72
0
 73
0
 74
0
  7

 75
0
147
1.0
148
0.0
149
0.0
100
AcDbLayout
  1
Model
 70
0
 71
0
 10
0.0
 20
0.0
 11
22.0
 21
17.0
 12
0.0
 22
0.0
 32
0.0
 14
0.0
 24
0.0
 34
0.0
 15
0.0
 25
0.0
 35
0.0
146
0.0
 13
0.0
 23
0.0
 33
0.0
 16
1.0
 26
0.0
 36
0.0
 17
0.0
 27
1.0
 37
0.0
 76
0
330
216
345
0
346
0
  0
LAYOUT
  5
2F9
102
{ACAD_REACTORS
330
1A
102
}
100
AcDbPlotSettings
  1

  2
none_device
  4
ANSI_C_(22.00_x_17.00_Inches)
  6

 40
0.0
 41
0.0
 42
0.0
 43
0.0
 44
558.8
 45
431.8
 46
0.0
 47
0.0
 48
0.0
 49
0.0
140
0.0
141
0.0
142
1.0
143
1.0
 70
0
 72
0
 73
0
 74
0
  7

 75
0
147
1.0
148
0.0
149
0.0
100
AcDbLayout
  1
Layout1
 70
0
 71
1
 10
0.0
 20
0.0
 11
22.0
 21
17.0
 12
0.0
 22
0.0
 32
0.0
 14
0.0
 24
0.0
 34
0.0
 15
0.0
 25
0.0
 35
0.0
146
0.0
 13
0.0
 23
0.0
 33
0.0
 16
1.0
 26
0.0
 36
0.0
 17
0.0
 27
1.0
 37
0.0
 76
0
330
217
345
0
346
0
  0
ENDSEC
  0
EOF