999
DXF file: _cgs_temp_output.dxf
999
Pro/ENGINEER 2015110 by Parametric Technology Corporation
  0
SECTION
  2
HEADER
  9
$ACADVER
  1
AC1021
  9
$DWGCODEPAGE
  3
ANSI_1252
  9
$EXTMAX
 10
22.0
 20
17.0
 30
0.0
  9
$EXTMIN
 10
0.0
 20
0.0
 30
0.0
  9
$LIMMIN
 10
0.0
 20
0.0
  9
$LIMMAX
 10
22.0
 20
17.0
  9
$VIEWCTR
 10
11.0
 20
8.5
  9
$VIEWSIZE
 40
17.0
  9
$CLAYER
  8
0
  9
$LTSCALE
 40
1.21
  9
$CELTYPE
  6
BYLAYER
  9
$DIMSCALE
 40
1.0
  9
$DIMASZ
 40
0.1875
  9
$DIMEXO
 40
0.0625
  9
$DIMDLI
 40
0.836
  9
$DIMEXE
 40
0.125
  9
$DIMCEN
 40
0.198
  9
$DIMLFAC
 40
1.0
  9
$DIMBLK
  1
_CLOSED
  9
$DIMALT
 70
0
  9
$DIMALTF
 40
25.4
  9
$DIMTXT
 40
0.15625
  9
$DIMTOL
 70
0
  9
$DIMLIM
 70
0
  9
$DIMTFAC
 40
1.0
  9
$DIMGAP
 40
0.09
  9
$DIMDSEP
 70
46
  9
$AUNITS
 70
0
  9
$PDMODE
 70
3
  9
$PDSIZE
 40
0.3125
  9
$HANDSEED
  5
2A8
  9
$TILEMODE
 70
1
  9
$MEASUREMENT
 70
0
  9
$INSUNITS
 70
1
  0
ENDSEC
  0
SECTION
  2
CLASSES
  0
CLASS
  1
ACDBDICTIONARYWDFLT
  2
AcDbDictionaryWithDefault
  3
AutoCAD 2000
 90
0
 91
1
280
0
281
0
  0
CLASS
  1
ACDBPLACEHOLDER
  2
AcDbPlaceHolder
  3
AutoCAD 2000
 90
0
 91
1
280
0
281
0
  0
CLASS
  1
LAYOUT
  2
AcDbLayout
  3
AutoCAD 2000
 90
0
 91
0
280
0
281
0
  0
ENDSEC
  0
SECTION
  2
TABLES
  0
TABLE
  2
VPORT
  5
8
100
AcDbSymbolTable
 70
2
  0
VPORT
  5
1F4
100
AcDbSymbolTableRecord
100
AcDbViewportTableRecord
  2
*ACTIVE
 70
0
 10
0.0
 20
0.0
 11
1.0
 21
1.0
 12
11.0
 22
8.5
 13
0.0
 23
0.0
 14
1.0
 24
1.0
 15
0.0
 25
0.0
 16
0.0
 26
0.0
 36
1.0
 17
0.0
 27
0.0
 37
0.0
 40
17.0
 41
1.2941176471
 42
50.0
 43
0.0
 44
0.0
 50
0.0
 51
0.0
 71
0
 72
100
 73
1
 74
1
 75
0
 76
0
 77
0
 78
0
  0
ENDTAB
  0
TABLE
  2
LTYPE
  5
5
100
AcDbSymbolTable
 70
6
  0
LTYPE
  5
14
100
AcDbSymbolTableRecord
100
AcDbLinetypeTableRecord
  2
BYBLOCK
 70
0
  3

 72
65
 73
0
 40
0.0
  0
LTYPE
  5
15
100
AcDbSymbolTableRecord
100
AcDbLinetypeTableRecord
  2
BYLAYER
 70
0
  3

 72
65
 73
0
 40
0.0
  0
LTYPE
  5
16
100
AcDbSymbolTableRecord
100
AcDbLinetypeTableRecord
  2
CONTINUOUS
 70
64
  3
Solid line
 72
65
 73
0
 40
0.0
  0
LTYPE
  5
1F5
100
AcDbSymbolTableRecord
100
AcDbLinetypeTableRecord
  2
CENTER
 70
64
  3
____ _ ____ _ ____ _ ____ _ ____ _ ____ _ ____
 72
65
 73
4
 40
0.6
 49
0.375
 74
0
 49
-0.075
 74
0
 49
0.075
 74
0
 49
-0.075
 74
0
  0
LTYPE
  5
1F6
100
AcDbSymbolTableRecord
100
AcDbLinetypeTableRecord
  2
HIDDEN
 70
64
  3
- - - - - - - - - - - - - - - - - - - -
 72
65
 73
2
 40
0.2
 49
0.1
 74
0
 49
-0.1
 74
0
  0
LTYPE
  5
1F7
100
AcDbSymbolTableRecord
100
AcDbLinetypeTableRecord
  2
PHANTOM
 70
64
  3
_____ _ _ _____ _ _ _____ _ _ _____
 72
65
 73
6
 40
0.8
 49
0.45
 74
0
 49
-0.05
 74
0
 49
0.1
 74
0
 49
-0.05
 74
0
 49
0.1
 74
0
 49
-0.05
 74
0
  0
LTYPE
  5
1F8
100
AcDbSymbolTableRecord
100
AcDbLinetypeTableRecord
  2
DOT
 70
64
  3
. . . . . . . . . . . . . . . . . . . .
 72
65
 73
2
 40
0.2
 49
0.1
 74
0
 49
-0.1
 74
0
  0
LTYPE
  5
1F9
100
AcDbSymbolTableRecord
100
AcDbLinetypeTableRecord
  2
DASHED
 70
64
  3
- - - - - - - - - - - - - - - - - - - -
 72
65
 73
2
 40
0.2
 49
0.1
 74
0
 49
-0.1
 74
0
  0
ENDTAB
  0
TABLE
  2
LAYER
  5
2
100
AcDbSymbolTable
 70
36
  0
LAYER
  5
10
100
AcDbSymbolTableRecord
100
AcDbLayerTableRecord
  2
0
 70
0
 62
7
  6
CONTINUOUS
370
-3
390
F
  0
LAYER
  5
1FA
100
AcDbSymbolTableRecord
100
AcDbLayerTableRecord
  2
DEFAULT_1
 70
0
 62
7
  6
CENTER
370
-3
390
F
  0
LAYER
  5
1FB
100
AcDbSymbolTableRecord
100
AcDbLayerTableRecord
  2
DEFAULT_2
 70
0
 62
8
  6
HIDDEN
370
-3
390
F
  0
LAYER
  5
1FC
100
AcDbSymbolTableRecord
100
AcDbLayerTableRecord
  2
DEFAULT_3
 70
0
 62
7
  6
PHANTOM
370
-3
390
F
  0
LAYER
  5
1FD
100
AcDbSymbolTableRecord
100
AcDbLayerTableRecord
  2
01_ALL_DTM_PLN
 70
0
 62
7
  6
CONTINUOUS
370
-3
390
F
  0
LAYER
  5
1FE
100
AcDbSymbolTableRecord
100
AcDbLayerTableRecord
  2
01__ASM_ALL_DTM_PLN
 70
0
 62
7
  6
CONTINUOUS
370
-3
390
F
  0
LAYER
  5
1FF
100
AcDbSymbolTableRecord
100
AcDbLayerTableRecord
  2
01__ASM_DEF_DTM_PLN
 70
0
 62
7
  6
CONTINUOUS
370
-3
390
F
  0
LAYER
  5
200
100
AcDbSymbolTableRecord
100
AcDbLayerTableRecord
  2
01___PRT_ALL_DTM_PLN
 70
0
 62
7
  6
CONTINUOUS
370
-3
390
F
  0
LAYER
  5
201
100
AcDbSymbolTableRecord
100
AcDbLayerTableRecord
  2
01___PRT_DEF_DTM_PLN
 70
0
 62
7
  6
CONTINUOUS
370
-3
390
F
  0
LAYER
  5
202
100
AcDbSymbolTableRecord
100
AcDbLayerTableRecord
  2
02_ALL_AXES
 70
0
 62
7
  6
CONTINUOUS
370
-3
390
F
  0
LAYER
  5
203
100
AcDbSymbolTableRecord
100
AcDbLayerTableRecord
  2
02__ASM_ALL_AXES
 70
0
 62
7
  6
CONTINUOUS
370
-3
390
F
  0
LAYER
  5
204
100
AcDbSymbolTableRecord
100
AcDbLayerTableRecord
  2
02___PRT_ALL_AXES
 70
0
 62
7
  6
CONTINUOUS
370
-3
390
F
  0
LAYER
  5
205
100
AcDbSymbolTableRecord
100
AcDbLayerTableRecord
  2
03_ALL_CURVES
 70
0
 62
7
  6
CONTINUOUS
370
-3
390
F
  0
LAYER
  5
206
100
AcDbSymbolTableRecord
100
AcDbLayerTableRecord
  2
03__ASM_ALL_CURVES
 70
0
 62
7
  6
CONTINUOUS
370
-3
390
F
  0
LAYER
  5
207
100
AcDbSymbolTableRecord
100
AcDbLayerTableRecord
  2
03___PRT_ALL_CURVES
 70
0
 62
7
  6
CONTINUOUS
370
-3
390
F
  0
LAYER
  5
208
100
AcDbSymbolTableRecord
100
AcDbLayerTableRecord
  2
04_ALL_DTM_PNT
 70
0
 62
7
  6
CONTINUOUS
370
-3
390
F
  0
LAYER
  5
209
100
AcDbSymbolTableRecord
100
AcDbLayerTableRecord
  2
04__ASM_ALL_DTM_PNT
 70
0
 62
7
  6
CONTINUOUS
370
-3
390
F
  0
LAYER
  5
20A
100
AcDbSymbolTableRecord
100
AcDbLayerTableRecord
  2
04___PRT_ALL_DTM_PNT
 70
0
 62
7
  6
CONTINUOUS
370
-3
390
F
  0
LAYER
  5
20B
100
AcDbSymbolTableRecord
100
AcDbLayerTableRecord
  2
05_ALL_DTM_CSYS
 70
0
 62
7
  6
CONTINUOUS
370
-3
390
F
  0
LAYER
  5
20C
100
AcDbSymbolTableRecord
100
AcDbLayerTableRecord
  2
05__ASM_ALL_DTM_CSYS
 70
0
 62
7
  6
CONTINUOUS
370
-3
390
F
  0
LAYER
  5
20D
100
AcDbSymbolTableRecord
100
AcDbLayerTableRecord
  2
05__ASM_DEF_DTM_CSYS
 70
0
 62
7
  6
CONTINUOUS
370
-3
390
F
  0
LAYER
  5
20E
100
AcDbSymbolTableRecord
100
AcDbLayerTableRecord
  2
05___PRT_ALL_DTM_CSYS
 70
0
 62
7
  6
CONTINUOUS
370
-3
390
F
  0
LAYER
  5
20F
100
AcDbSymbolTableRecord
100
AcDbLayerTableRecord
  2
05___PRT_DEF_DTM_CSYS
 70
0
 62
7
  6
CONTINUOUS
370
-3
390
F
  0
LAYER
  5
210
100
AcDbSymbolTableRecord
100
AcDbLayerTableRecord
  2
06_ALL_SURFS
 70
0
 62
7
  6
CONTINUOUS
370
-3
390
F
  0
LAYER
  5
211
100
AcDbSymbolTableRecord
100
AcDbLayerTableRecord
  2
06__ASM_ALL_SURFS
 70
0
 62
7
  6
CONTINUOUS
370
-3
390
F
  0
LAYER
  5
212
100
AcDbSymbolTableRecord
100
AcDbLayerTableRecord
  2
06___PRT_ALL_SURFS
 70
0
 62
7
  6
CONTINUOUS
370
-3
390
F
  0
LAYER
  5
213
100
AcDbSymbolTableRecord
100
AcDbLayerTableRecord
  2
07__ASM_ALL_SKELETONS
 70
0
 62
7
  6
CONTINUOUS
370
-3
390
F
  0
ENDTAB
  0
TABLE
  2
STYLE
  5
3
100
AcDbSymbolTable
 70
1
  0
STYLE
  5
11
100
AcDbSymbolTableRecord
100
AcDbTextStyleTableRecord
  2
STANDARD
 70
0
 40
0.0
 41
0.8
 50
0.0
 71
0
 42
0.2
  3
txt
  4

  0
STYLE
  5
214
100
AcDbSymbolTableRecord
100
AcDbTextStyleTableRecord
  2
TEXTSTYLE_1
 70
0
 40
0.0
 41
0.8
 50
0.0
 71
0
 42
0.2
  3
gdt
  4

  0
ENDTAB
  0
TABLE
  2
VIEW
  5
6
100
AcDbSymbolTable
 70
0
  0
ENDTAB
  0
TABLE
  2
UCS
  5
7
100
AcDbSymbolTable
 70
0
  0
ENDTAB
  0
TABLE
  2
APPID
  5
9
100
AcDbSymbolTable
 70
1
  0
APPID
  5
215
100
AcDbSymbolTableRecord
100
AcDbRegAppTableRecord
  2
ACAD
 70
0
  0
ENDTAB
  0
TABLE
  2
BLOCK_RECORD
  5
1
100
AcDbSymbolTable
 70
0
  0
BLOCK_RECORD
  5
216
100
AcDbSymbolTableRecord
100
AcDbBlockTableRecord
  2
*Model_Space
  0
BLOCK_RECORD
  5
217
100
AcDbSymbolTableRecord
100
AcDbBlockTableRecord
  2
*Paper_Space
  0
ENDTAB
  0
TABLE
  2
DIMSTYLE
  5
A
100
AcDbSymbolTable
 70
1
100
AcDbDimStyleTable
 71
0
  0
DIMSTYLE
105
218
100
AcDbSymbolTableRecord
100
AcDbDimStyleTableRecord
  2
STANDARD
 70
0
  3

  4

 40
1.0
 41
0.1875
 42
0.0625
 43
0.38
 44
0.125
 45
0.0
 46
0.0
 47
0.0001
 48
0.0001
140
0.15625
141
0.09
142
0.0
143
25.4
144
1.0
145
0.0
146
1.0
147
0.09
 71
0.0
 72
0.0
 73
1
 74
1
 75
0
 76
0
 77
0
 78
4
170
0
171
2
172
0
173
0
174
0
175
0
176
0
177
0
178
0
270
2
271
4
272
4
273
2
274
2
275
0
280
0
281
0
282
0
283
1
284
4
285
0
286
0
287
3
288
0
340
11
278
46
  0
ENDTAB
  0
ENDSEC
  0
SECTION
  2
BLOCKS
  0
BLOCK
  5
20
100
AcDbEntity
  8
0
100
AcDbBlockBegin
  2
*Model_Space
 70
0
 10
0.0
 20
0.0
 30
0.0
  3
*Model_Space
  1

  0
ENDBLK
  5
21
100
AcDbEntity
  8
0
100
AcDbBlockEnd
  0
BLOCK
  5
1C
100
AcDbEntity
  8
0
100
AcDbBlockBegin
  2
*Paper_Space
 70
0
 10
0.0
 20
0.0
 30
0.0
  3
*Paper_Space
  1

  0
ENDBLK
  5
1D
100
AcDbEntity
  8
0
100
AcDbBlockEnd
  0
ENDSEC
  0
SECTION
  2
ENTITIES
  0
MTEXT
  5
219
100
AcDbEntity
  8
0
100
AcDbMText
 62
7
  6
CONTINUOUS
  7
STANDARD
 71
1
 72
1
 10
15.9560215477
 20
0.9479130325
 30
0.0
 11
1.0
 21
0.0
 31
0.0
 44
0.9
  1
SCALE: 1:1.000
 40
0.3
 41
3.36
  0
LINE
  5
21A
100
AcDbEntity
  8
0
100
AcDbLine
 62
7
  6
CONTINUOUS
 10
0.0
 20
0.0
 11
0.0
 21
17.0
  0
LINE
  5
21B
100
AcDbEntity
  8
0
100
AcDbLine
 62
7
  6
CONTINUOUS
 10
0.0
 20
0.0
 11
22.0
 21
0.0
  0
LINE
  5
21C
100
AcDbEntity
  8
0
100
AcDbLine
 62
7
  6
CONTINUOUS
 10
0.0
 20
17.0
 11
22.0
 21
17.0
  0
LINE
  5
21D
100
AcDbEntity
  8
0
100
AcDbLine
 62
7
  6
CONTINUOUS
 10
22.0
 20
0.0
 11
22.0
 21
17.0
  0
LINE
  5
21E
100
AcDbEntity
  8
0
100
AcDbLine
 62
7
  6
CONTINUOUS
 10
4.4768239691
 20
5.7151986369
 11
4.4768239691
 21
5.5549624164
  0
LINE
  5
21F
100
AcDbEntity
  8
0
100
AcDbLine
 62
7
  6
CONTINUOUS
 10
4.6914231305
 20
5.3250411566
 11
4.8134059101
 21
5.3250411566
  0
LINE
  5
220
100
AcDbEntity
  8
0
100
AcDbLine
 62
7
  6
CONTINUOUS
 10
5.2426042328
 20
5.3250411566
 11
5.3645870124
 21
5.3250411566
  0
LINE
  5
221
100
AcDbEntity
  8
0
100
AcDbLine
 62
7
  6
CONTINUOUS
 10
5.7937853352
 20
5.3250411566
 11
5.9157681148
 21
5.3250411566
  0
LINE
  5
222
100
AcDbEntity
  8
0
100
AcDbLine
 62
7
  6
CONTINUOUS
 10
6.3449664376
 20
5.3250411566
 11
6.4669492171
 21
5.3250411566
  0
LINE
  5
223
100
AcDbEntity
  8
0
100
AcDbLine
 62
7
  6
CONTINUOUS
 10
6.8961475399
 20
5.3250411566
 11
7.0181303195
 21
5.3250411566
  0
LINE
  5
224
100
AcDbEntity
  8
0
100
AcDbLine
 62
7
  6
CONTINUOUS
 10
7.4473286423
 20
5.3250411566
 11
7.5693114219
 21
5.3250411566
  0
LINE
  5
225
100
AcDbEntity
  8
0
100
AcDbLine
 62
7
  6
CONTINUOUS
 10
4.4768239691
 20
5.5549624164
 11
4.5366312066
 21
5.5549624164
  0
LINE
  5
226
100
AcDbEntity
  8
0
100
AcDbLine
 62
7
  6
CONTINUOUS
 10
4.9681978339
 20
5.5549624164
 11
5.087812309
 21
5.5549624164
  0
LINE
  5
227
100
AcDbEntity
  8
0
100
AcDbLine
 62
7
  6
CONTINUOUS
 10
5.5193789362
 20
5.5549624164
 11
5.6389934114
 21
5.5549624164
  0
LINE
  5
228
100
AcDbEntity
  8
0
100
AcDbLine
 62
7
  6
CONTINUOUS
 10
6.0705600386
 20
5.5549624164
 11
6.1901745137
 21
5.5549624164
  0
LINE
  5
229
100
AcDbEntity
  8
0
100
AcDbLine
 62
7
  6
CONTINUOUS
 10
6.621741141
 20
5.5549624164
 11
6.7413556161
 21
5.5549624164
  0
LINE
  5
22A
100
AcDbEntity
  8
0
100
AcDbLine
 62
7
  6
CONTINUOUS
 10
7.1729222433
 20
5.5549624164
 11
7.2925367185
 21
5.5549624164
  0
LINE
  5
22B
100
AcDbEntity
  8
0
100
AcDbLine
 62
7
  6
CONTINUOUS
 10
7.7241033457
 20
5.5549624164
 11
7.7839105833
 21
5.5549624164
  0
LINE
  5
22C
100
AcDbEntity
  8
0
100
AcDbLine
 62
7
  6
CONTINUOUS
 10
7.7839105833
 20
5.7151986369
 11
4.4768239691
 21
5.7151986369
  0
LINE
  5
22D
100
AcDbEntity
  8
0
100
AcDbLine
 62
7
  6
CONTINUOUS
 10
7.7839105833
 20
5.5549624164
 11
7.7839105833
 21
5.7151986369
  0
LINE
  5
22E
100
AcDbEntity
  8
0
100
AcDbLine
 62
7
  6
CONTINUOUS
 10
4.4173287768
 20
13.6827249467
 11
4.4173287768
 21
11.517370616
  0
LINE
  5
22F
100
AcDbEntity
  8
0
100
AcDbLine
 62
7
  6
CONTINUOUS
 10
7.7244153909
 20
11.517370616
 11
4.4173287768
 21
11.517370616
  0
LINE
  5
230
100
AcDbEntity
  8
0
100
AcDbLine
 62
7
  6
CONTINUOUS
 10
4.4173287768
 20
13.6827249467
 11
7.7244153909
 21
13.6827249467
  0
LINE
  5
231
100
AcDbEntity
  8
0
100
AcDbLine
 62
7
  6
CONTINUOUS
 10
7.7244153909
 20
13.6827249467
 11
7.7244153909
 21
11.517370616
  0
LINE
  5
232
100
AcDbEntity
  8
0
100
AcDbLine
 62
7
  6
CONTINUOUS
 10
14.4776780916
 20
5.2655459643
 11
14.4776780916
 21
5.6557034446
  0
LINE
  5
233
100
AcDbEntity
  8
0
100
AcDbLine
 62
7
  6
CONTINUOUS
 10
14.4776780916
 20
5.2655459643
 11
16.6430324223
 21
5.2655459643
  0
LINE
  5
234
100
AcDbEntity
  8
0
100
AcDbLine
 62
7
  6
CONTINUOUS
 10
16.6430324223
 20
5.4954672241
 11
14.4776780916
 21
5.4954672241
  0
LINE
  5
235
100
AcDbEntity
  8
0
100
AcDbLine
 62
7
  6
CONTINUOUS
 10
16.6430324223
 20
5.6557034446
 11
14.4776780916
 21
5.6557034446
  0
LINE
  5
236
100
AcDbEntity
  8
0
100
AcDbLine
 62
7
  6
CONTINUOUS
 10
16.6430324223
 20
5.2655459643
 11
16.6430324223
 21
5.6557034446
  0
LINE
  5
237
100
AcDbEntity
  8
0
100
AcDbLine
 62
7
  6
CONTINUOUS
 10
13.6615791677
 20
11.7839777243
 11
13.7104579235
 21
11.6843732924
  0
LINE
  5
238
100
AcDbEntity
  8
0
100
AcDbLine
 62
7
  6
CONTINUOUS
 10
14.1857385294
 20
13.4801580404
 11
13.6615791677
 21
11.7839777243
  0
LINE
  5
239
100
AcDbEntity
  8
0
100
AcDbLine
 62
7
  6
CONTINUOUS
 10
14.1726981038
 20
11.6843732924
 11
14.1365529943
 21
11.5674076753
  0
LINE
  5
23A
100
AcDbEntity
  8
0
100
AcDbLine
 62
7
  6
CONTINUOUS
 10
14.1351761559
 20
11.5632070062
 11
14.1365501489
 21
11.5674085542
  0
LINE
  5
23B
100
AcDbEntity
  8
0
100
AcDbLine
 62
7
  6
CONTINUOUS
 10
13.9782524506
 20
11.5414519454
 11
14.0906060309
 21
11.5414519454
  0
LINE
  5
23C
100
AcDbEntity
  8
0
100
AcDbLine
 62
7
  6
CONTINUOUS
 10
14.4859238647
 20
11.5414519454
 11
14.5982774449
 21
11.5414519454
  0
LINE
  5
23D
100
AcDbEntity
  8
0
100
AcDbLine
 62
7
  6
CONTINUOUS
 10
14.9935952787
 20
11.5414519454
 11
15.1059488589
 21
11.5414519454
  0
LINE
  5
23E
100
AcDbEntity
  8
0
100
AcDbLine
 62
7
  6
CONTINUOUS
 10
15.5012666927
 20
11.5414519454
 11
15.6136202729
 21
11.5414519454
  0
LINE
  5
23F
100
AcDbEntity
  8
0
100
AcDbLine
 62
7
  6
CONTINUOUS
 10
16.0089381067
 20
11.5414519454
 11
16.1212916869
 21
11.5414519454
  0
LINE
  5
240
100
AcDbEntity
  8
0
100
AcDbLine
 62
7
  6
CONTINUOUS
 10
16.5166095207
 20
11.5414519454
 11
16.628963101
 21
11.5414519454
  0
LINE
  5
241
100
AcDbEntity
  8
0
100
AcDbLine
 62
7
  6
CONTINUOUS
 10
13.7104579235
 20
11.6843732924
 11
13.7655440371
 21
11.6843732924
  0
LINE
  5
242
100
AcDbEntity
  8
0
100
AcDbLine
 62
7
  6
CONTINUOUS
 10
14.1630432238
 20
11.6843732924
 11
14.2732154512
 21
11.6843732924
  0
LINE
  5
243
100
AcDbEntity
  8
0
100
AcDbLine
 62
7
  6
CONTINUOUS
 10
14.6707146378
 20
11.6843732924
 11
14.7808868652
 21
11.6843732924
  0
LINE
  5
244
100
AcDbEntity
  8
0
100
AcDbLine
 62
7
  6
CONTINUOUS
 10
15.1783860518
 20
11.6843732924
 11
15.2885582792
 21
11.6843732924
  0
LINE
  5
245
100
AcDbEntity
  8
0
100
AcDbLine
 62
7
  6
CONTINUOUS
 10
15.6860574659
 20
11.6843732924
 11
15.7962296932
 21
11.6843732924
  0
LINE
  5
246
100
AcDbEntity
  8
0
100
AcDbLine
 62
7
  6
CONTINUOUS
 10
16.1937288799
 20
11.6843732924
 11
16.3039011072
 21
11.6843732924
  0
LINE
  5
247
100
AcDbEntity
  8
0
100
AcDbLine
 62
7
  6
CONTINUOUS
 10
16.7014002939
 20
11.6843732924
 11
16.7564864076
 21
11.6843732924
  0
LINE
  5
248
100
AcDbEntity
  8
0
100
AcDbLine
 62
7
  6
CONTINUOUS
 10
16.7076076518
 20
11.7839777243
 11
13.6615791677
 21
11.7839777243
  0
LINE
  5
249
100
AcDbEntity
  8
0
100
AcDbLine
 62
7
  6
CONTINUOUS
 10
14.6803695178
 20
11.6843732924
 11
14.6442244083
 21
11.5674076753
  0
LINE
  5
24A
100
AcDbEntity
  8
0
100
AcDbLine
 62
7
  6
CONTINUOUS
 10
14.64284757
 20
11.5632070062
 11
14.6442215629
 21
11.5674085542
  0
LINE
  5
24B
100
AcDbEntity
  8
0
100
AcDbLine
 62
7
  6
CONTINUOUS
 10
15.1880409318
 20
11.6843732924
 11
15.1518958224
 21
11.5674076753
  0
LINE
  5
24C
100
AcDbEntity
  8
0
100
AcDbLine
 62
7
  6
CONTINUOUS
 10
15.150518984
 20
11.5632070062
 11
15.1518929769
 21
11.5674085542
  0
LINE
  5
24D
100
AcDbEntity
  8
0
100
AcDbLine
 62
7
  6
CONTINUOUS
 10
15.6957123459
 20
11.6843732924
 11
15.6595672364
 21
11.5674076753
  0
LINE
  5
24E
100
AcDbEntity
  8
0
100
AcDbLine
 62
7
  6
CONTINUOUS
 10
15.658190398
 20
11.5632070062
 11
15.659564391
 21
11.5674085542
  0
LINE
  5
24F
100
AcDbEntity
  8
0
100
AcDbLine
 62
7
  6
CONTINUOUS
 10
16.7564864076
 20
11.6843732924
 11
16.7076076518
 21
11.7839777243
  0
LINE
  5
250
100
AcDbEntity
  8
0
100
AcDbLine
 62
7
  6
CONTINUOUS
 10
16.2033837599
 20
11.6843732924
 11
16.1672386504
 21
11.5674076753
  0
LINE
  5
251
100
AcDbEntity
  8
0
100
AcDbLine
 62
7
  6
CONTINUOUS
 10
16.165861812
 20
11.5632070062
 11
16.167235805
 21
11.5674085542
  0
LINE
  5
252
100
AcDbEntity
  8
0
100
AcDbLine
 62
7
  6
CONTINUOUS
 10
14.1857385294
 20
13.4801580404
 11
17.2317670135
 21
13.4801580404
  0
LINE
  5
253
100
AcDbEntity
  8
0
100
AcDbLine
 62
7
  6
CONTINUOUS
 10
17.2317670135
 20
13.4801580404
 11
16.7076076518
 21
11.7839777243
  0
LINE
  5
254
100
AcDbEntity
  8
0
100
AcDbLine
 62
7
  6
CONTINUOUS
 10
16.7110551739
 20
11.6843732924
 11
16.6749100644
 21
11.5674076753
  0
LINE
  5
255
100
AcDbEntity
  8
0
100
AcDbLine
 62
7
  6
CONTINUOUS
 10
17.2806457693
 20
13.3805536085
 11
16.7564864076
 21
11.6843732924
  0
LINE
  5
256
100
AcDbEntity
  8
0
100
AcDbLine
 62
7
  6
CONTINUOUS
 10
16.673533226
 20
11.5632070062
 11
16.6749088856
 21
11.5674080395
  0
LINE
  5
257
100
AcDbEntity
  8
0
100
AcDbLine
 62
7
  6
CONTINUOUS
 10
17.2806457693
 20
13.3805536085
 11
17.2317670135
 21
13.4801580404
  0
ARC
  5
258
100
AcDbEntity
  8
0
100
AcDbCircle
 62
7
  6
CONTINUOUS
 10
4.5284971974
 20
5.5549624164
 40
0.3961614173
100
AcDbArc
 50
330.5258999203
 51
354.0364298817
  0
ARC
  5
259
100
AcDbEntity
  8
0
100
AcDbCircle
 62
7
  6
CONTINUOUS
 10
5.5275129455
 20
5.5549624164
 40
0.3961614173
100
AcDbArc
 50
185.9635701183
 51
209.4741000797
  0
ARC
  5
25A
100
AcDbEntity
  8
0
100
AcDbCircle
 62
7
  6
CONTINUOUS
 10
5.0796782998
 20
5.5549624164
 40
0.3961614173
100
AcDbArc
 50
330.5258999203
 51
354.0364298817
  0
ARC
  5
25B
100
AcDbEntity
  8
0
100
AcDbCircle
 62
7
  6
CONTINUOUS
 10
6.0786940478
 20
5.5549624164
 40
0.3961614173
100
AcDbArc
 50
185.9635701183
 51
209.4741000797
  0
ARC
  5
25C
100
AcDbEntity
  8
0
100
AcDbCircle
 62
7
  6
CONTINUOUS
 10
5.6308594022
 20
5.5549624164
 40
0.3961614173
100
AcDbArc
 50
330.5258999203
 51
354.0364298817
  0
ARC
  5
25D
100
AcDbEntity
  8
0
100
AcDbCircle
 62
7
  6
CONTINUOUS
 10
6.6298751502
 20
5.5549624164
 40
0.3961614173
100
AcDbArc
 50
185.9635701183
 51
209.4741000797
  0
ARC
  5
25E
100
AcDbEntity
  8
0
100
AcDbCircle
 62
7
  6
CONTINUOUS
 10
4.9763318431
 20
5.5549624164
 40
0.3961614173
100
AcDbArc
 50
185.9635701183
 51
209.4741000797
  0
ARC
  5
25F
100
AcDbEntity
  8
0
100
AcDbCircle
 62
7
  6
CONTINUOUS
 10
7.2844027092
 20
5.5549624164
 40
0.3961614173
100
AcDbArc
 50
330.5258999203
 51
354.0364298817
  0
ARC
  5
260
100
AcDbEntity
  8
0
100
AcDbCircle
 62
7
  6
CONTINUOUS
 10
7.7322373549
 20
5.5549624164
 40
0.3961614173
100
AcDbArc
 50
185.9635701183
 51
209.4741000797
  0
ARC
  5
261
100
AcDbEntity
  8
0
100
AcDbCircle
 62
7
  6
CONTINUOUS
 10
6.7332216069
 20
5.5549624164
 40
0.3961614173
100
AcDbArc
 50
330.5258999203
 51
354.0364298817
  0
ARC
  5
262
100
AcDbEntity
  8
0
100
AcDbCircle
 62
7
  6
CONTINUOUS
 10
7.1810562525
 20
5.5549624164
 40
0.3961614173
100
AcDbArc
 50
185.9635701183
 51
209.4741000797
  0
ARC
  5
263
100
AcDbEntity
  8
0
100
AcDbCircle
 62
7
  6
CONTINUOUS
 10
6.1820405045
 20
5.5549624164
 40
0.3961614173
100
AcDbArc
 50
330.5258999203
 51
354.0364298817
  0
ARC
  5
264
100
AcDbEntity
  8
0
100
AcDbCircle
 62
7
  6
CONTINUOUS
 10
4.6914231305
 20
5.3939387944
 40
0.0688976378
100
AcDbArc
 50
209.4741000797
 51
270.0
  0
ARC
  5
265
100
AcDbEntity
  8
0
100
AcDbCircle
 62
7
  6
CONTINUOUS
 10
4.8134059101
 20
5.3939387944
 40
0.0688976378
100
AcDbArc
 50
270.0
 51
330.5258999203
  0
ARC
  5
266
100
AcDbEntity
  8
0
100
AcDbCircle
 62
7
  6
CONTINUOUS
 10
5.2426042328
 20
5.3939387944
 40
0.0688976378
100
AcDbArc
 50
209.4741000797
 51
270.0
  0
ARC
  5
267
100
AcDbEntity
  8
0
100
AcDbCircle
 62
7
  6
CONTINUOUS
 10
5.3645870124
 20
5.3939387944
 40
0.0688976378
100
AcDbArc
 50
270.0
 51
330.5258999203
  0
ARC
  5
268
100
AcDbEntity
  8
0
100
AcDbCircle
 62
7
  6
CONTINUOUS
 10
5.7937853352
 20
5.3939387944
 40
0.0688976378
100
AcDbArc
 50
209.4741000797
 51
270.0
  0
ARC
  5
269
100
AcDbEntity
  8
0
100
AcDbCircle
 62
7
  6
CONTINUOUS
 10
5.9157681148
 20
5.3939387944
 40
0.0688976378
100
AcDbArc
 50
270.0
 51
330.5258999203
  0
ARC
  5
26A
100
AcDbEntity
  8
0
100
AcDbCircle
 62
7
  6
CONTINUOUS
 10
6.3449664376
 20
5.3939387944
 40
0.0688976378
100
AcDbArc
 50
209.4741000797
 51
270.0
  0
ARC
  5
26B
100
AcDbEntity
  8
0
100
AcDbCircle
 62
7
  6
CONTINUOUS
 10
7.5693114219
 20
5.3939387944
 40
0.0688976378
100
AcDbArc
 50
270.0
 51
330.5258999203
  0
ARC
  5
26C
100
AcDbEntity
  8
0
100
AcDbCircle
 62
7
  6
CONTINUOUS
 10
7.4473286423
 20
5.3939387944
 40
0.0688976378
100
AcDbArc
 50
209.4741000797
 51
270.0
  0
ARC
  5
26D
100
AcDbEntity
  8
0
100
AcDbCircle
 62
7
  6
CONTINUOUS
 10
7.0181303195
 20
5.3939387944
 40
0.0688976378
100
AcDbArc
 50
270.0
 51
330.5258999203
  0
ARC
  5
26E
100
AcDbEntity
  8
0
100
AcDbCircle
 62
7
  6
CONTINUOUS
 10
6.8961475399
 20
5.3939387944
 40
0.0688976378
100
AcDbArc
 50
209.4741000797
 51
270.0
  0
ARC
  5
26F
100
AcDbEntity
  8
0
100
AcDbCircle
 62
7
  6
CONTINUOUS
 10
6.4669492171
 20
5.3939387944
 40
0.0688976378
100
AcDbArc
 50
270.0
 51
330.5258999203
  0
ARC
  5
270
100
AcDbEntity
  8
0
100
AcDbCircle
 62
7
  6
CONTINUOUS
 10
4.5366312066
 20
5.5090306579
 40
0.0459317585
100
AcDbArc
 50
5.9635701183
 51
90.0
  0
ARC
  5
271
100
AcDbEntity
  8
0
100
AcDbCircle
 62
7
  6
CONTINUOUS
 10
4.9681978339
 20
5.5090306579
 40
0.0459317585
100
AcDbArc
 50
90.0
 51
174.0364298817
  0
ARC
  5
272
100
AcDbEntity
  8
0
100
AcDbCircle
 62
7
  6
CONTINUOUS
 10
5.087812309
 20
5.5090306579
 40
0.0459317585
100
AcDbArc
 50
5.9635701183
 51
90.0
  0
ARC
  5
273
100
AcDbEntity
  8
0
100
AcDbCircle
 62
7
  6
CONTINUOUS
 10
5.5193789362
 20
5.5090306579
 40
0.0459317585
100
AcDbArc
 50
90.0
 51
174.0364298817
  0
ARC
  5
274
100
AcDbEntity
  8
0
100
AcDbCircle
 62
7
  6
CONTINUOUS
 10
5.6389934114
 20
5.5090306579
 40
0.0459317585
100
AcDbArc
 50
5.9635701183
 51
90.0
  0
ARC
  5
275
100
AcDbEntity
  8
0
100
AcDbCircle
 62
7
  6
CONTINUOUS
 10
6.0705600386
 20
5.5090306579
 40
0.0459317585
100
AcDbArc
 50
90.0
 51
174.0364298817
  0
ARC
  5
276
100
AcDbEntity
  8
0
100
AcDbCircle
 62
7
  6
CONTINUOUS
 10
6.1901745137
 20
5.5090306579
 40
0.0459317585
100
AcDbArc
 50
5.9635701183
 51
90.0
  0
ARC
  5
277
100
AcDbEntity
  8
0
100
AcDbCircle
 62
7
  6
CONTINUOUS
 10
6.621741141
 20
5.5090306579
 40
0.0459317585
100
AcDbArc
 50
90.0
 51
174.0364298817
  0
ARC
  5
278
100
AcDbEntity
  8
0
100
AcDbCircle
 62
7
  6
CONTINUOUS
 10
6.7413556161
 20
5.5090306579
 40
0.0459317585
100
AcDbArc
 50
5.9635701183
 51
90.0
  0
ARC
  5
279
100
AcDbEntity
  8
0
100
AcDbCircle
 62
7
  6
CONTINUOUS
 10
7.1729222433
 20
5.5090306579
 40
0.0459317585
100
AcDbArc
 50
90.0
 51
174.0364298817
  0
ARC
  5
27A
100
AcDbEntity
  8
0
100
AcDbCircle
 62
7
  6
CONTINUOUS
 10
7.2925367185
 20
5.5090306579
 40
0.0459317585
100
AcDbArc
 50
5.9635701183
 51
90.0
  0
ARC
  5
27B
100
AcDbEntity
  8
0
100
AcDbCircle
 62
7
  6
CONTINUOUS
 10
7.7241033457
 20
5.5090306579
 40
0.0459317585
100
AcDbArc
 50
90.0
 51
174.0364298817
  0
SPLINE
  5
27C
100
AcDbEntity
  8
0
100
AcDbSpline
 62
7
  6
CONTINUOUS
 70
0
 71
3
 72
11
 73
7
 74
0
 42
0.0000001
 43
0.0000001
 44
0.0000000001
 40
0.0
 40
0.0
 40
0.0
 40
0.0
 40
0.2022220636
 40
0.4300659122
 40
0.6961866804
 40
1.0
 40
1.0
 40
1.0
 40
1.0
 10
14.1331702828
 20
11.6693828618
 30
0.0
 10
14.1338768808
 20
11.6716696377
 30
0.0
 10
14.1366391193
 20
11.6761922688
 30
0.0
 10
14.1435761763
 20
11.6809419721
 30
0.0
 10
14.1526752361
 20
11.6838033957
 30
0.0
 10
14.1594473581
 20
11.6843732924
 30
0.0
 10
14.1630432238
 20
11.6843732924
 30
0.0
  0
SPLINE
  5
27D
100
AcDbEntity
  8
0
100
AcDbSpline
 62
7
  6
CONTINUOUS
 70
0
 71
3
 72
11
 73
7
 74
0
 42
0.0000001
 43
0.0000001
 44
0.0000000001
 40
0.0
 40
0.0
 40
0.0
 40
0.0
 40
0.2022220636
 40
0.4300659122
 40
0.6961866804
 40
1.0
 40
1.0
 40
1.0
 40
1.0
 10
14.6408416968
 20
11.6693828618
 30
0.0
 10
14.6415482948
 20
11.6716696377
 30
0.0
 10
14.6443105334
 20
11.6761922688
 30
0.0
 10
14.6512475903
 20
11.6809419721
 30
0.0
 10
14.6603466502
 20
11.6838033957
 30
0.0
 10
14.6671187722
 20
11.6843732924
 30
0.0
 10
14.6707146378
 20
11.6843732924
 30
0.0
  0
SPLINE
  5
27E
100
AcDbEntity
  8
0
100
AcDbSpline
 62
7
  6
CONTINUOUS
 70
0
 71
3
 72
11
 73
7
 74
0
 42
0.0000001
 43
0.0000001
 44
0.0000000001
 40
0.0
 40
0.0
 40
0.0
 40
0.0
 40
0.2022220636
 40
0.4300659122
 40
0.6961866804
 40
1.0
 40
1.0
 40
1.0
 40
1.0
 10
15.1485131108
 20
11.6693828618
 30
0.0
 10
15.1492197088
 20
11.6716696377
 30
0.0
 10
15.1519819474
 20
11.6761922688
 30
0.0
 10
15.1589190044
 20
11.6809419721
 30
0.0
 10
15.1680180642
 20
11.6838033957
 30
0.0
 10
15.1747901862
 20
11.6843732924
 30
0.0
 10
15.1783860518
 20
11.6843732924
 30
0.0
  0
SPLINE
  5
27F
100
AcDbEntity
  8
0
100
AcDbSpline
 62
7
  6
CONTINUOUS
 70
0
 71
3
 72
11
 73
7
 74
0
 42
0.0000001
 43
0.0000001
 44
0.0000000001
 40
0.0
 40
0.0
 40
0.0
 40
0.0
 40
0.2022220636
 40
0.4300659122
 40
0.6961866804
 40
1.0
 40
1.0
 40
1.0
 40
1.0
 10
15.6561845249
 20
11.6693828618
 30
0.0
 10
15.6568911228
 20
11.6716696377
 30
0.0
 10
15.6596533614
 20
11.6761922688
 30
0.0
 10
15.6665904184
 20
11.6809419721
 30
0.0
 10
15.6756894782
 20
11.6838033957
 30
0.0
 10
15.6824616002
 20
11.6843732924
 30
0.0
 10
15.6860574659
 20
11.6843732924
 30
0.0
  0
SPLINE
  5
280
100
AcDbEntity
  8
0
100
AcDbSpline
 62
7
  6
CONTINUOUS
 70
0
 71
3
 72
11
 73
7
 74
0
 42
0.0000001
 43
0.0000001
 44
0.0000000001
 40
0.0
 40
0.0
 40
0.0
 40
0.0
 40
0.2022220636
 40
0.4300659122
 40
0.6961866804
 40
1.0
 40
1.0
 40
1.0
 40
1.0
 10
16.1638559389
 20
11.6693828618
 30
0.0
 10
16.1645625369
 20
11.6716696377
 30
0.0
 10
16.1673247754
 20
11.6761922688
 30
0.0
 10
16.1742618324
 20
11.6809419721
 30
0.0
 10
16.1833608922
 20
11.6838033957
 30
0.0
 10
16.1901330142
 20
11.6843732924
 30
0.0
 10
16.1937288799
 20
11.6843732924
 30
0.0
  0
SPLINE
  5
281
100
AcDbEntity
  8
0
100
AcDbSpline
 62
7
  6
CONTINUOUS
 70
0
 71
3
 72
11
 73
7
 74
0
 42
0.0000001
 43
0.0000001
 44
0.0000000001
 40
0.0
 40
0.0
 40
0.0
 40
0.0
 40
0.2022220636
 40
0.4300659122
 40
0.6961866804
 40
1.0
 40
1.0
 40
1.0
 40
1.0
 10
16.6715273529
 20
11.6693828618
 30
0.0
 10
16.6722339509
 20
11.6716696377
 30
0.0
 10
16.6749961894
 20
11.6761922688
 30
0.0
 10
16.6819332464
 20
11.6809419721
 30
0.0
 10
16.6910323062
 20
11.6838033957
 30
0.0
 10
16.6978044282
 20
11.6843732924
 30
0.0
 10
16.7014002939
 20
11.6843732924
 30
0.0
  0
SPLINE
  5
282
100
AcDbEntity
  8
0
100
AcDbSpline
 62
7
  6
CONTINUOUS
 70
0
 71
3
 72
11
 73
7
 74
0
 42
0.0000001
 43
0.0000001
 44
0.0000000001
 40
0.0
 40
0.0
 40
0.0
 40
0.0
 40
0.2600306852
 40
0.528388317
 40
0.7814357597
 40
1.0
 40
1.0
 40
1.0
 40
1.0
 10
13.7655440371
 20
11.6843732924
 30
0.0
 10
13.7709477234
 20
11.6843732924
 30
0.0
 10
13.7819487184
 20
11.6829852687
 30
0.0
 10
13.7974134205
 20
11.677683193
 30
0.0
 10
13.8107057812
 20
11.6697385649
 30
0.0
 10
13.8177131715
 20
11.6626040517
 30
0.0
 10
13.8201764448
 20
11.6587880575
 30
0.0
  0
SPLINE
  5
283
100
AcDbEntity
  8
0
100
AcDbSpline
 62
7
  6
CONTINUOUS
 70
0
 71
3
 72
11
 73
7
 74
0
 42
0.0000001
 43
0.0000001
 44
0.0000000001
 40
0.0
 40
0.0
 40
0.0
 40
0.0
 40
0.2600306852
 40
0.528388317
 40
0.7814357597
 40
1.0
 40
1.0
 40
1.0
 40
1.0
 10
14.2732154512
 20
11.6843732924
 30
0.0
 10
14.2786191374
 20
11.6843732924
 30
0.0
 10
14.2896201324
 20
11.6829852687
 30
0.0
 10
14.3050848346
 20
11.677683193
 30
0.0
 10
14.3183771952
 20
11.6697385649
 30
0.0
 10
14.3253845856
 20
11.6626040517
 30
0.0
 10
14.3278478588
 20
11.6587880575
 30
0.0
  0
SPLINE
  5
284
100
AcDbEntity
  8
0
100
AcDbSpline
 62
7
  6
CONTINUOUS
 70
0
 71
3
 72
9
 73
5
 74
0
 42
0.0000001
 43
0.0000001
 44
0.0000000001
 40
0.0
 40
0.0
 40
0.0
 40
0.0
 40
0.4746386337
 40
1.0
 40
1.0
 40
1.0
 40
1.0
 10
13.8201764448
 20
11.6587880575
 30
0.0
 10
13.8316120556
 20
11.6410725141
 30
0.0
 10
13.8599625245
 20
11.6064477015
 30
0.0
 10
13.8936854057
 20
11.5772453112
 30
0.0
 10
13.9123306591
 20
11.5632070062
 30
0.0
  0
SPLINE
  5
285
100
AcDbEntity
  8
0
100
AcDbSpline
 62
7
  6
CONTINUOUS
 70
0
 71
3
 72
11
 73
7
 74
0
 42
0.0000001
 43
0.0000001
 44
0.0000000001
 40
0.0
 40
0.0
 40
0.0
 40
0.0
 40
0.3029376261
 40
0.5690852191
 40
0.7975949073
 40
1.0
 40
1.0
 40
1.0
 40
1.0
 10
16.628963101
 20
11.5414519454
 30
0.0
 10
16.6342652501
 20
11.5414519454
 30
0.0
 10
16.6442631207
 20
11.5422793781
 30
0.0
 10
16.6577345543
 20
11.5464264701
 30
0.0
 10
16.6680945755
 20
11.55329559
 30
0.0
 10
16.67237274
 20
11.559859892
 30
0.0
 10
16.673533226
 20
11.5632070062
 30
0.0
  0
SPLINE
  5
286
100
AcDbEntity
  8
0
100
AcDbSpline
 62
7
  6
CONTINUOUS
 70
0
 71
3
 72
9
 73
5
 74
0
 42
0.0000001
 43
0.0000001
 44
0.0000000001
 40
0.0
 40
0.0
 40
0.0
 40
0.0
 40
0.4970490565
 40
1.0
 40
1.0
 40
1.0
 40
1.0
 10
16.4506877292
 20
11.5632070062
 30
0.0
 10
16.4599856815
 20
11.5562064314
 30
0.0
 10
16.4813839357
 20
11.5456610689
 30
0.0
 10
16.5048325973
 20
11.5414519454
 30
0.0
 10
16.5166095207
 20
11.5414519454
 30
0.0
  0
SPLINE
  5
287
100
AcDbEntity
  8
0
100
AcDbSpline
 62
7
  6
CONTINUOUS
 70
0
 71
3
 72
9
 73
5
 74
0
 42
0.0000001
 43
0.0000001
 44
0.0000000001
 40
0.0
 40
0.0
 40
0.0
 40
0.0
 40
0.474639384
 40
1.0
 40
1.0
 40
1.0
 40
1.0
 10
16.3585335149
 20
11.6587880575
 30
0.0
 10
16.3699691401
 20
11.6410724918
 30
0.0
 10
16.3983199758
 20
11.6064480148
 30
0.0
 10
16.4320425084
 20
11.5772452867
 30
0.0
 10
16.4506877292
 20
11.5632070062
 30
0.0
  0
SPLINE
  5
288
100
AcDbEntity
  8
0
100
AcDbSpline
 62
7
  6
CONTINUOUS
 70
0
 71
3
 72
11
 73
7
 74
0
 42
0.0000001
 43
0.0000001
 44
0.0000000001
 40
0.0
 40
0.0
 40
0.0
 40
0.0
 40
0.3029376261
 40
0.5690852191
 40
0.7975949073
 40
1.0
 40
1.0
 40
1.0
 40
1.0
 10
16.1212916869
 20
11.5414519454
 30
0.0
 10
16.1265938361
 20
11.5414519454
 30
0.0
 10
16.1365917066
 20
11.5422793781
 30
0.0
 10
16.1500631403
 20
11.5464264701
 30
0.0
 10
16.1604231615
 20
11.55329559
 30
0.0
 10
16.164701326
 20
11.559859892
 30
0.0
 10
16.165861812
 20
11.5632070062
 30
0.0
  0
SPLINE
  5
289
100
AcDbEntity
  8
0
100
AcDbSpline
 62
7
  6
CONTINUOUS
 70
0
 71
3
 72
9
 73
5
 74
0
 42
0.0000001
 43
0.0000001
 44
0.0000000001
 40
0.0
 40
0.0
 40
0.0
 40
0.0
 40
0.4970490565
 40
1.0
 40
1.0
 40
1.0
 40
1.0
 10
15.9430163151
 20
11.5632070062
 30
0.0
 10
15.9523142674
 20
11.5562064314
 30
0.0
 10
15.9737125217
 20
11.5456610689
 30
0.0
 10
15.9971611833
 20
11.5414519454
 30
0.0
 10
16.0089381067
 20
11.5414519454
 30
0.0
  0
SPLINE
  5
28A
100
AcDbEntity
  8
0
100
AcDbSpline
 62
7
  6
CONTINUOUS
 70
0
 71
3
 72
9
 73
5
 74
0
 42
0.0000001
 43
0.0000001
 44
0.0000000001
 40
0.0
 40
0.0
 40
0.0
 40
0.0
 40
0.4746386337
 40
1.0
 40
1.0
 40
1.0
 40
1.0
 10
15.8508621009
 20
11.6587880575
 30
0.0
 10
15.8622977116
 20
11.6410725141
 30
0.0
 10
15.8906481806
 20
11.6064477015
 30
0.0
 10
15.9243710617
 20
11.5772453112
 30
0.0
 10
15.9430163151
 20
11.5632070062
 30
0.0
  0
SPLINE
  5
28B
100
AcDbEntity
  8
0
100
AcDbSpline
 62
7
  6
CONTINUOUS
 70
0
 71
3
 72
11
 73
7
 74
0
 42
0.0000001
 43
0.0000001
 44
0.0000000001
 40
0.0
 40
0.0
 40
0.0
 40
0.0
 40
0.3029376261
 40
0.5690852191
 40
0.7975949073
 40
1.0
 40
1.0
 40
1.0
 40
1.0
 10
15.6136202729
 20
11.5414519454
 30
0.0
 10
15.6189224221
 20
11.5414519454
 30
0.0
 10
15.6289202926
 20
11.5422793781
 30
0.0
 10
15.6423917262
 20
11.5464264701
 30
0.0
 10
15.6527517475
 20
11.55329559
 30
0.0
 10
15.657029912
 20
11.559859892
 30
0.0
 10
15.658190398
 20
11.5632070062
 30
0.0
  0
SPLINE
  5
28C
100
AcDbEntity
  8
0
100
AcDbSpline
 62
7
  6
CONTINUOUS
 70
0
 71
3
 72
9
 73
5
 74
0
 42
0.0000001
 43
0.0000001
 44
0.0000000001
 40
0.0
 40
0.0
 40
0.0
 40
0.0
 40
0.4970490565
 40
1.0
 40
1.0
 40
1.0
 40
1.0
 10
15.4353449011
 20
11.5632070062
 30
0.0
 10
15.4446428534
 20
11.5562064314
 30
0.0
 10
15.4660411077
 20
11.5456610689
 30
0.0
 10
15.4894897693
 20
11.5414519454
 30
0.0
 10
15.5012666927
 20
11.5414519454
 30
0.0
  0
SPLINE
  5
28D
100
AcDbEntity
  8
0
100
AcDbSpline
 62
7
  6
CONTINUOUS
 70
0
 71
3
 72
9
 73
5
 74
0
 42
0.0000001
 43
0.0000001
 44
0.0000000001
 40
0.0
 40
0.0
 40
0.0
 40
0.0
 40
0.4746386337
 40
1.0
 40
1.0
 40
1.0
 40
1.0
 10
15.3431906868
 20
11.6587880575
 30
0.0
 10
15.3546262976
 20
11.6410725141
 30
0.0
 10
15.3829767665
 20
11.6064477015
 30
0.0
 10
15.4166996477
 20
11.5772453112
 30
0.0
 10
15.4353449011
 20
11.5632070062
 30
0.0
  0
SPLINE
  5
28E
100
AcDbEntity
  8
0
100
AcDbSpline
 62
7
  6
CONTINUOUS
 70
0
 71
3
 72
11
 73
7
 74
0
 42
0.0000001
 43
0.0000001
 44
0.0000000001
 40
0.0
 40
0.0
 40
0.0
 40
0.0
 40
0.3029376261
 40
0.5690852191
 40
0.7975949073
 40
1.0
 40
1.0
 40
1.0
 40
1.0
 10
15.1059488589
 20
11.5414519454
 30
0.0
 10
15.1112510081
 20
11.5414519454
 30
0.0
 10
15.1212488786
 20
11.5422793781
 30
0.0
 10
15.1347203122
 20
11.5464264701
 30
0.0
 10
15.1450803335
 20
11.55329559
 30
0.0
 10
15.149358498
 20
11.559859892
 30
0.0
 10
15.150518984
 20
11.5632070062
 30
0.0
  0
SPLINE
  5
28F
100
AcDbEntity
  8
0
100
AcDbSpline
 62
7
  6
CONTINUOUS
 70
0
 71
3
 72
9
 73
5
 74
0
 42
0.0000001
 43
0.0000001
 44
0.0000000001
 40
0.0
 40
0.0
 40
0.0
 40
0.0
 40
0.4970490565
 40
1.0
 40
1.0
 40
1.0
 40
1.0
 10
14.9276734871
 20
11.5632070062
 30
0.0
 10
14.9369714394
 20
11.5562064314
 30
0.0
 10
14.9583696937
 20
11.5456610689
 30
0.0
 10
14.9818183552
 20
11.5414519454
 30
0.0
 10
14.9935952787
 20
11.5414519454
 30
0.0
  0
SPLINE
  5
290
100
AcDbEntity
  8
0
100
AcDbSpline
 62
7
  6
CONTINUOUS
 70
0
 71
3
 72
9
 73
5
 74
0
 42
0.0000001
 43
0.0000001
 44
0.0000000001
 40
0.0
 40
0.0
 40
0.0
 40
0.0
 40
0.4746386337
 40
1.0
 40
1.0
 40
1.0
 40
1.0
 10
14.8355192728
 20
11.6587880575
 30
0.0
 10
14.8469548836
 20
11.6410725141
 30
0.0
 10
14.8753053525
 20
11.6064477015
 30
0.0
 10
14.9090282337
 20
11.5772453112
 30
0.0
 10
14.9276734871
 20
11.5632070062
 30
0.0
  0
SPLINE
  5
291
100
AcDbEntity
  8
0
100
AcDbSpline
 62
7
  6
CONTINUOUS
 70
0
 71
3
 72
11
 73
7
 74
0
 42
0.0000001
 43
0.0000001
 44
0.0000000001
 40
0.0
 40
0.0
 40
0.0
 40
0.0
 40
0.3029376261
 40
0.5690852191
 40
0.7975949073
 40
1.0
 40
1.0
 40
1.0
 40
1.0
 10
14.5982774449
 20
11.5414519454
 30
0.0
 10
14.6035795941
 20
11.5414519454
 30
0.0
 10
14.6135774646
 20
11.5422793781
 30
0.0
 10
14.6270488982
 20
11.5464264701
 30
0.0
 10
14.6374089194
 20
11.55329559
 30
0.0
 10
14.641687084
 20
11.559859892
 30
0.0
 10
14.64284757
 20
11.5632070062
 30
0.0
  0
SPLINE
  5
292
100
AcDbEntity
  8
0
100
AcDbSpline
 62
7
  6
CONTINUOUS
 70
0
 71
3
 72
9
 73
5
 74
0
 42
0.0000001
 43
0.0000001
 44
0.0000000001
 40
0.0
 40
0.0
 40
0.0
 40
0.0
 40
0.4970490565
 40
1.0
 40
1.0
 40
1.0
 40
1.0
 10
14.4200020731
 20
11.5632070062
 30
0.0
 10
14.4293000254
 20
11.5562064314
 30
0.0
 10
14.4506982797
 20
11.5456610689
 30
0.0
 10
14.4741469412
 20
11.5414519454
 30
0.0
 10
14.4859238647
 20
11.5414519454
 30
0.0
  0
SPLINE
  5
293
100
AcDbEntity
  8
0
100
AcDbSpline
 62
7
  6
CONTINUOUS
 70
0
 71
3
 72
9
 73
5
 74
0
 42
0.0000001
 43
0.0000001
 44
0.0000000001
 40
0.0
 40
0.0
 40
0.0
 40
0.0
 40
0.4746386337
 40
1.0
 40
1.0
 40
1.0
 40
1.0
 10
14.3278478588
 20
11.6587880575
 30
0.0
 10
14.3392834696
 20
11.6410725141
 30
0.0
 10
14.3676339385
 20
11.6064477015
 30
0.0
 10
14.4013568197
 20
11.5772453112
 30
0.0
 10
14.4200020731
 20
11.5632070062
 30
0.0
  0
SPLINE
  5
294
100
AcDbEntity
  8
0
100
AcDbSpline
 62
7
  6
CONTINUOUS
 70
0
 71
3
 72
11
 73
7
 74
0
 42
0.0000001
 43
0.0000001
 44
0.0000000001
 40
0.0
 40
0.0
 40
0.0
 40
0.0
 40
0.3029376261
 40
0.5690852191
 40
0.7975949073
 40
1.0
 40
1.0
 40
1.0
 40
1.0
 10
14.0906060309
 20
11.5414519454
 30
0.0
 10
14.09590818
 20
11.5414519454
 30
0.0
 10
14.1059060506
 20
11.5422793781
 30
0.0
 10
14.1193774842
 20
11.5464264701
 30
0.0
 10
14.1297375054
 20
11.55329559
 30
0.0
 10
14.1340156699
 20
11.559859892
 30
0.0
 10
14.1351761559
 20
11.5632070062
 30
0.0
  0
SPLINE
  5
295
100
AcDbEntity
  8
0
100
AcDbSpline
 62
7
  6
CONTINUOUS
 70
0
 71
3
 72
9
 73
5
 74
0
 42
0.0000001
 43
0.0000001
 44
0.0000000001
 40
0.0
 40
0.0
 40
0.0
 40
0.0
 40
0.4970490565
 40
1.0
 40
1.0
 40
1.0
 40
1.0
 10
13.9123306591
 20
11.5632070062
 30
0.0
 10
13.9216286114
 20
11.5562064314
 30
0.0
 10
13.9430268656
 20
11.5456610689
 30
0.0
 10
13.9664755272
 20
11.5414519454
 30
0.0
 10
13.9782524506
 20
11.5414519454
 30
0.0
  0
SPLINE
  5
296
100
AcDbEntity
  8
0
100
AcDbSpline
 62
7
  6
CONTINUOUS
 70
0
 71
3
 72
11
 73
7
 74
0
 42
0.0000001
 43
0.0000001
 44
0.0000000001
 40
0.0
 40
0.0
 40
0.0
 40
0.0
 40
0.2600306852
 40
0.528388317
 40
0.7814357597
 40
1.0
 40
1.0
 40
1.0
 40
1.0
 10
14.7808868652
 20
11.6843732924
 30
0.0
 10
14.7862905514
 20
11.6843732924
 30
0.0
 10
14.7972915464
 20
11.6829852687
 30
0.0
 10
14.8127562486
 20
11.677683193
 30
0.0
 10
14.8260486092
 20
11.6697385649
 30
0.0
 10
14.8330559996
 20
11.6626040517
 30
0.0
 10
14.8355192728
 20
11.6587880575
 30
0.0
  0
SPLINE
  5
297
100
AcDbEntity
  8
0
100
AcDbSpline
 62
7
  6
CONTINUOUS
 70
0
 71
3
 72
11
 73
7
 74
0
 42
0.0000001
 43
0.0000001
 44
0.0000000001
 40
0.0
 40
0.0
 40
0.0
 40
0.0
 40
0.2600306852
 40
0.528388317
 40
0.7814357597
 40
1.0
 40
1.0
 40
1.0
 40
1.0
 10
15.2885582792
 20
11.6843732924
 30
0.0
 10
15.2939619654
 20
11.6843732924
 30
0.0
 10
15.3049629604
 20
11.6829852687
 30
0.0
 10
15.3204276626
 20
11.677683193
 30
0.0
 10
15.3337200232
 20
11.6697385649
 30
0.0
 10
15.3407274136
 20
11.6626040517
 30
0.0
 10
15.3431906868
 20
11.6587880575
 30
0.0
  0
SPLINE
  5
298
100
AcDbEntity
  8
0
100
AcDbSpline
 62
7
  6
CONTINUOUS
 70
0
 71
3
 72
11
 73
7
 74
0
 42
0.0000001
 43
0.0000001
 44
0.0000000001
 40
0.0
 40
0.0
 40
0.0
 40
0.0
 40
0.2600306852
 40
0.528388317
 40
0.7814357597
 40
1.0
 40
1.0
 40
1.0
 40
1.0
 10
15.7962296932
 20
11.6843732924
 30
0.0
 10
15.8016333795
 20
11.6843732924
 30
0.0
 10
15.8126343744
 20
11.6829852687
 30
0.0
 10
15.8280990766
 20
11.677683193
 30
0.0
 10
15.8413914372
 20
11.6697385649
 30
0.0
 10
15.8483988276
 20
11.6626040517
 30
0.0
 10
15.8508621009
 20
11.6587880575
 30
0.0
  0
SPLINE
  5
299
100
AcDbEntity
  8
0
100
AcDbSpline
 62
7
  6
CONTINUOUS
 70
0
 71
3
 72
11
 73
7
 74
0
 42
0.0000001
 43
0.0000001
 44
0.0000000001
 40
0.0
 40
0.0
 40
0.0
 40
0.0
 40
0.2600306852
 40
0.528388317
 40
0.7814357597
 40
1.0
 40
1.0
 40
1.0
 40
1.0
 10
16.3039011072
 20
11.6843732924
 30
0.0
 10
16.3093047935
 20
11.6843732924
 30
0.0
 10
16.3203057884
 20
11.6829852687
 30
0.0
 10
16.3357704906
 20
11.677683193
 30
0.0
 10
16.3490628513
 20
11.6697385649
 30
0.0
 10
16.3560702416
 20
11.6626040517
 30
0.0
 10
16.3585335149
 20
11.6587880575
 30
0.0
  0
SPLINE
  5
29A
100
AcDbEntity
  8
0
100
AcDbSpline
 62
7
  6
CONTINUOUS
 70
0
 71
3
 72
9
 73
5
 74
0
 42
0.0000001
 43
0.0000001
 44
0.0000000001
 40
0.0
 40
0.0
 40
0.0
 40
0.0
 40
0.4826789452
 40
1.0
 40
1.0
 40
1.0
 40
1.0
 10
16.167238464
 20
11.5674077325
 30
0.0
 10
16.1716352217
 20
11.5816394317
 30
0.0
 10
16.1755382102
 20
11.612933463
 30
0.0
 10
16.1692912433
 20
11.6436547539
 30
0.0
 10
16.1642072916
 20
11.6587880575
 30
0.0
  0
SPLINE
  5
29B
100
AcDbEntity
  8
0
100
AcDbSpline
 62
7
  6
CONTINUOUS
 70
0
 71
3
 72
9
 73
5
 74
0
 42
0.0000001
 43
0.0000001
 44
0.0000000001
 40
0.0
 40
0.0
 40
0.0
 40
0.0
 40
0.5171845287
 40
1.0
 40
1.0
 40
1.0
 40
1.0
 10
15.6565358776
 20
11.6587880575
 30
0.0
 10
15.6559465982
 20
11.6605421545
 30
0.0
 10
15.6552231385
 20
11.6641040061
 30
0.0
 10
15.6556745409
 20
11.6677323915
 30
0.0
 10
15.6561845249
 20
11.6693828618
 30
0.0
  0
SPLINE
  5
29C
100
AcDbEntity
  8
0
100
AcDbSpline
 62
7
  6
CONTINUOUS
 70
0
 71
3
 72
9
 73
5
 74
0
 42
0.0000001
 43
0.0000001
 44
0.0000000001
 40
0.0
 40
0.0
 40
0.0
 40
0.0
 40
0.5171845287
 40
1.0
 40
1.0
 40
1.0
 40
1.0
 10
14.1335216355
 20
11.6587880575
 30
0.0
 10
14.1329323561
 20
11.6605421545
 30
0.0
 10
14.1322088965
 20
11.6641040061
 30
0.0
 10
14.1326602989
 20
11.6677323915
 30
0.0
 10
14.1331702828
 20
11.6693828618
 30
0.0
  0
SPLINE
  5
29D
100
AcDbEntity
  8
0
100
AcDbSpline
 62
7
  6
CONTINUOUS
 70
0
 71
3
 72
9
 73
5
 74
0
 42
0.0000001
 43
0.0000001
 44
0.0000000001
 40
0.0
 40
0.0
 40
0.0
 40
0.0
 40
0.5171845287
 40
1.0
 40
1.0
 40
1.0
 40
1.0
 10
16.1642072916
 20
11.6587880575
 30
0.0
 10
16.1636180122
 20
11.6605421545
 30
0.0
 10
16.1628945525
 20
11.6641040061
 30
0.0
 10
16.1633459549
 20
11.6677323915
 30
0.0
 10
16.1638559389
 20
11.6693828618
 30
0.0
  0
SPLINE
  5
29E
100
AcDbEntity
  8
0
100
AcDbSpline
 62
7
  6
CONTINUOUS
 70
0
 71
3
 72
9
 73
5
 74
0
 42
0.0000001
 43
0.0000001
 44
0.0000000001
 40
0.0
 40
0.0
 40
0.0
 40
0.0
 40
0.4826789452
 40
1.0
 40
1.0
 40
1.0
 40
1.0
 10
14.644224222
 20
11.5674077325
 30
0.0
 10
14.6486209797
 20
11.5816394317
 30
0.0
 10
14.6525239682
 20
11.612933463
 30
0.0
 10
14.6462770013
 20
11.6436547539
 30
0.0
 10
14.6411930496
 20
11.6587880575
 30
0.0
  0
SPLINE
  5
29F
100
AcDbEntity
  8
0
100
AcDbSpline
 62
7
  6
CONTINUOUS
 70
0
 71
3
 72
9
 73
5
 74
0
 42
0.0000001
 43
0.0000001
 44
0.0000000001
 40
0.0
 40
0.0
 40
0.0
 40
0.0
 40
0.5171845287
 40
1.0
 40
1.0
 40
1.0
 40
1.0
 10
16.6718787056
 20
11.6587880575
 30
0.0
 10
16.6712894262
 20
11.6605421545
 30
0.0
 10
16.6705659666
 20
11.6641040061
 30
0.0
 10
16.671017369
 20
11.6677323915
 30
0.0
 10
16.6715273529
 20
11.6693828618
 30
0.0
  0
SPLINE
  5
2A0
100
AcDbEntity
  8
0
100
AcDbSpline
 62
7
  6
CONTINUOUS
 70
0
 71
3
 72
9
 73
5
 74
0
 42
0.0000001
 43
0.0000001
 44
0.0000000001
 40
0.0
 40
0.0
 40
0.0
 40
0.0
 40
0.4826789452
 40
1.0
 40
1.0
 40
1.0
 40
1.0
 10
15.65956705
 20
11.5674077325
 30
0.0
 10
15.6639638077
 20
11.5816394317
 30
0.0
 10
15.6678667962
 20
11.612933463
 30
0.0
 10
15.6616198293
 20
11.6436547539
 30
0.0
 10
15.6565358776
 20
11.6587880575
 30
0.0
  0
SPLINE
  5
2A1
100
AcDbEntity
  8
0
100
AcDbSpline
 62
7
  6
CONTINUOUS
 70
0
 71
3
 72
9
 73
5
 74
0
 42
0.0000001
 43
0.0000001
 44
0.0000000001
 40
0.0
 40
0.0
 40
0.0
 40
0.0
 40
0.4826734757
 40
1.0
 40
1.0
 40
1.0
 40
1.0
 10
16.6749099824
 20
11.5674077006
 30
0.0
 10
16.6793073225
 20
11.5816390281
 30
0.0
 10
16.6832085554
 20
11.6129333661
 30
0.0
 10
16.6769627062
 20
11.6436546085
 30
0.0
 10
16.6718787056
 20
11.6587880575
 30
0.0
  0
SPLINE
  5
2A2
100
AcDbEntity
  8
0
100
AcDbSpline
 62
7
  6
CONTINUOUS
 70
0
 71
3
 72
9
 73
5
 74
0
 42
0.0000001
 43
0.0000001
 44
0.0000000001
 40
0.0
 40
0.0
 40
0.0
 40
0.0
 40
0.4826789452
 40
1.0
 40
1.0
 40
1.0
 40
1.0
 10
15.151895636
 20
11.5674077325
 30
0.0
 10
15.1562923937
 20
11.5816394317
 30
0.0
 10
15.1601953822
 20
11.612933463
 30
0.0
 10
15.1539484153
 20
11.6436547539
 30
0.0
 10
15.1488644636
 20
11.6587880575
 30
0.0
  0
SPLINE
  5
2A3
100
AcDbEntity
  8
0
100
AcDbSpline
 62
7
  6
CONTINUOUS
 70
0
 71
3
 72
9
 73
5
 74
0
 42
0.0000001
 43
0.0000001
 44
0.0000000001
 40
0.0
 40
0.0
 40
0.0
 40
0.0
 40
0.5171845287
 40
1.0
 40
1.0
 40
1.0
 40
1.0
 10
14.6411930496
 20
11.6587880575
 30
0.0
 10
14.6406037701
 20
11.6605421545
 30
0.0
 10
14.6398803105
 20
11.6641040061
 30
0.0
 10
14.6403317129
 20
11.6677323915
 30
0.0
 10
14.6408416968
 20
11.6693828618
 30
0.0
  0
SPLINE
  5
2A4
100
AcDbEntity
  8
0
100
AcDbSpline
 62
7
  6
CONTINUOUS
 70
0
 71
3
 72
9
 73
5
 74
0
 42
0.0000001
 43
0.0000001
 44
0.0000000001
 40
0.0
 40
0.0
 40
0.0
 40
0.0
 40
0.4826789452
 40
1.0
 40
1.0
 40
1.0
 40
1.0
 10
14.136552808
 20
11.5674077325
 30
0.0
 10
14.1409495657
 20
11.5816394317
 30
0.0
 10
14.1448525541
 20
11.612933463
 30
0.0
 10
14.1386055872
 20
11.6436547539
 30
0.0
 10
14.1335216355
 20
11.6587880575
 30
0.0
  0
SPLINE
  5
2A5
100
AcDbEntity
  8
0
100
AcDbSpline
 62
7
  6
CONTINUOUS
 70
0
 71
3
 72
9
 73
5
 74
0
 42
0.0000001
 43
0.0000001
 44
0.0000000001
 40
0.0
 40
0.0
 40
0.0
 40
0.0
 40
0.5171845287
 40
1.0
 40
1.0
 40
1.0
 40
1.0
 10
15.1488644636
 20
11.6587880575
 30
0.0
 10
15.1482751842
 20
11.6605421545
 30
0.0
 10
15.1475517245
 20
11.6641040061
 30
0.0
 10
15.1480031269
 20
11.6677323915
 30
0.0
 10
15.1485131108
 20
11.6693828618
 30
0.0
  0
ENDSEC
  0
SECTION
  2
OBJECTS
  0
DICTIONARY
  5
C
100
AcDbDictionary
280
0
281
1
  3
ACAD_GROUP
350
D
  3
ACAD_MLINESTYLE
350
17
  3
ACAD_LAYOUT
350
1A
  3
ACAD_PLOTSETTINGS
350
19
  3
ACAD_PLOTSTYLENAME
350
E
  0
DICTIONARY
  5
D
102
{ACAD_REACTORS
330
C
102
}
100
AcDbDictionary
280
0
281
1
  0
ACDBDICTIONARYWDFLT
  5
E
102
{ACAD_REACTORS
330
C
102
}
100
AcDbDictionary
281
1
  3
Normal
350
F
100
AcDbDictionaryWithDefault
340
F
  0
DICTIONARY
  5
17
102
{ACAD_REACTORS
330
C
102
}
100
AcDbDictionary
280
0
281
1
  3
Standard
350
18
  0
DICTIONARY
  5
19
102
{ACAD_REACTORS
330
C
102
}
100
AcDbDictionary
281
1
  0
DICTIONARY
  5
1A
102
{ACAD_REACTORS
330
C
102
}
100
AcDbDictionary
281
1
  3
Model
350
2A6
  3
Layout1
350
2A7
  0
ACDBPLACEHOLDER
  5
F
102
{ACAD_REACTORS
330
E
102
}
  0
MLINESTYLE
  5
18
102
{ACAD_REACTORS
330
17
102
}
100
AcDbMlineStyle
  2
STANDARD
 70
0
  3

 62
256
 51
90.0
 52
90.0
 71
2
 49
0.5
 62
256
  6
BYLAYER
 49
-0.5
 62
256
  6
BYLAYER
  0
LAYOUT
  5
2A6
102
{ACAD_REACTORS
330
1A
102
}
100
AcDbPlotSettings
  1

  2
none_device
  4
ANSI_C_(22.00_x_17.00_Inches)
  6

 40
0.0
 41
0.0
 42
0.0
 43
0.0
 44
558.8
 45
431.8
 46
0.0
 47
0.0
 48
0.0
 49
0.0
140
0.0
141
0.0
142
1.0
143
1.0
 70
1024
 72
0
 73
0
 74
0
  7

 75
0
147
1.0
148
0.0
149
0.0
100
AcDbLayout
  1
Model
 70
0
 71
0
 10
0.0
 20
0.0
 11
22.0
 21
17.0
 12
0.0
 22
0.0
 32
0.0
 14
0.0
 24
0.0
 34
0.0
 15
0.0
 25
0.0
 35
0.0
146
0.0
 13
0.0
 23
0.0
 33
0.0
 16
1.0
 26
0.0
 36
0.0
 17
0.0
 27
1.0
 37
0.0
 76
0
330
216
345
0
346
0
  0
LAYOUT
  5
2A7
102
{ACAD_REACTORS
330
1A
102
}
100
AcDbPlotSettings
  1

  2
none_device
  4
ANSI_C_(22.00_x_17.00_Inches)
  6

 40
0.0
 41
0.0
 42
0.0
 43
0.0
 44
558.8
 45
431.8
 46
0.0
 47
0.0
 48
0.0
 49
0.0
140
0.0
141
0.0
142
1.0
143
1.0
 70
0
 72
0
 73
0
 74
0
  7

 75
0
147
1.0
148
0.0
149
0.0
100
AcDbLayout
  1
Layout1
 70
0
 71
1
 10
0.0
 20
0.0
 11
22.0
 21
17.0
 12
0.0
 22
0.0
 32
0.0
 14
0.0
 24
0.0
 34
0.0
 15
0.0
 25
0.0
 35
0.0
146
0.0
 13
0.0
 23
0.0
 33
0.0
 16
1.0
 26
0.0
 36
0.0
 17
0.0
 27
1.0
 37
0.0
 76
0
330
217
345
0
346
0
  0
ENDSEC
  0
EOF