999
DXF file: _cgs_temp_output.dxf
999
Pro/ENGINEER 2015110 by Parametric Technology Corporation
  0
SECTION
  2
HEADER
  9
$ACADVER
  1
AC1021
  9
$DWGCODEPAGE
  3
ANSI_1252
  9
$EXTMAX
 10
22.0
 20
17.0
 30
0.0
  9
$EXTMIN
 10
0.0
 20
0.0
 30
0.0
  9
$LIMMIN
 10
0.0
 20
0.0
  9
$LIMMAX
 10
22.0
 20
17.0
  9
$VIEWCTR
 10
11.0
 20
8.5
  9
$VIEWSIZE
 40
17.0
  9
$CLAYER
  8
0
  9
$LTSCALE
 40
1.21
  9
$CELTYPE
  6
BYLAYER
  9
$DIMSCALE
 40
1.0
  9
$DIMASZ
 40
0.1875
  9
$DIMEXO
 40
0.0625
  9
$DIMDLI
 40
0.836
  9
$DIMEXE
 40
0.125
  9
$DIMCEN
 40
0.198
  9
$DIMLFAC
 40
1.0
  9
$DIMBLK
  1
_CLOSED
  9
$DIMALT
 70
0
  9
$DIMALTF
 40
25.4
  9
$DIMTXT
 40
0.15625
  9
$DIMTOL
 70
0
  9
$DIMLIM
 70
0
  9
$DIMTFAC
 40
1.0
  9
$DIMGAP
 40
0.09
  9
$DIMDSEP
 70
46
  9
$AUNITS
 70
0
  9
$PDMODE
 70
3
  9
$PDSIZE
 40
0.3125
  9
$HANDSEED
  5
2A8
  9
$TILEMODE
 70
1
  9
$MEASUREMENT
 70
0
  9
$INSUNITS
 70
1
  0
ENDSEC
  0
SECTION
  2
CLASSES
  0
CLASS
  1
ACDBDICTIONARYWDFLT
  2
AcDbDictionaryWithDefault
  3
AutoCAD 2000
 90
0
 91
1
280
0
281
0
  0
CLASS
  1
ACDBPLACEHOLDER
  2
AcDbPlaceHolder
  3
AutoCAD 2000
 90
0
 91
1
280
0
281
0
  0
CLASS
  1
LAYOUT
  2
AcDbLayout
  3
AutoCAD 2000
 90
0
 91
0
280
0
281
0
  0
ENDSEC
  0
SECTION
  2
TABLES
  0
TABLE
  2
VPORT
  5
8
100
AcDbSymbolTable
 70
2
  0
VPORT
  5
1F4
100
AcDbSymbolTableRecord
100
AcDbViewportTableRecord
  2
*ACTIVE
 70
0
 10
0.0
 20
0.0
 11
1.0
 21
1.0
 12
11.0
 22
8.5
 13
0.0
 23
0.0
 14
1.0
 24
1.0
 15
0.0
 25
0.0
 16
0.0
 26
0.0
 36
1.0
 17
0.0
 27
0.0
 37
0.0
 40
17.0
 41
1.2941176471
 42
50.0
 43
0.0
 44
0.0
 50
0.0
 51
0.0
 71
0
 72
100
 73
1
 74
1
 75
0
 76
0
 77
0
 78
0
  0
ENDTAB
  0
TABLE
  2
LTYPE
  5
5
100
AcDbSymbolTable
 70
6
  0
LTYPE
  5
14
100
AcDbSymbolTableRecord
100
AcDbLinetypeTableRecord
  2
BYBLOCK
 70
0
  3

 72
65
 73
0
 40
0.0
  0
LTYPE
  5
15
100
AcDbSymbolTableRecord
100
AcDbLinetypeTableRecord
  2
BYLAYER
 70
0
  3

 72
65
 73
0
 40
0.0
  0
LTYPE
  5
16
100
AcDbSymbolTableRecord
100
AcDbLinetypeTableRecord
  2
CONTINUOUS
 70
64
  3
Solid line
 72
65
 73
0
 40
0.0
  0
LTYPE
  5
1F5
100
AcDbSymbolTableRecord
100
AcDbLinetypeTableRecord
  2
CENTER
 70
64
  3
____ _ ____ _ ____ _ ____ _ ____ _ ____ _ ____
 72
65
 73
4
 40
0.6
 49
0.375
 74
0
 49
-0.075
 74
0
 49
0.075
 74
0
 49
-0.075
 74
0
  0
LTYPE
  5
1F6
100
AcDbSymbolTableRecord
100
AcDbLinetypeTableRecord
  2
HIDDEN
 70
64
  3
- - - - - - - - - - - - - - - - - - - -
 72
65
 73
2
 40
0.2
 49
0.1
 74
0
 49
-0.1
 74
0
  0
LTYPE
  5
1F7
100
AcDbSymbolTableRecord
100
AcDbLinetypeTableRecord
  2
PHANTOM
 70
64
  3
_____ _ _ _____ _ _ _____ _ _ _____
 72
65
 73
6
 40
0.8
 49
0.45
 74
0
 49
-0.05
 74
0
 49
0.1
 74
0
 49
-0.05
 74
0
 49
0.1
 74
0
 49
-0.05
 74
0
  0
LTYPE
  5
1F8
100
AcDbSymbolTableRecord
100
AcDbLinetypeTableRecord
  2
DOT
 70
64
  3
. . . . . . . . . . . . . . . . . . . .
 72
65
 73
2
 40
0.2
 49
0.1
 74
0
 49
-0.1
 74
0
  0
LTYPE
  5
1F9
100
AcDbSymbolTableRecord
100
AcDbLinetypeTableRecord
  2
DASHED
 70
64
  3
- - - - - - - - - - - - - - - - - - - -
 72
65
 73
2
 40
0.2
 49
0.1
 74
0
 49
-0.1
 74
0
  0
ENDTAB
  0
TABLE
  2
LAYER
  5
2
100
AcDbSymbolTable
 70
36
  0
LAYER
  5
10
100
AcDbSymbolTableRecord
100
AcDbLayerTableRecord
  2
0
 70
0
 62
7
  6
CONTINUOUS
370
-3
390
F
  0
LAYER
  5
1FA
100
AcDbSymbolTableRecord
100
AcDbLayerTableRecord
  2
DEFAULT_1
 70
0
 62
7
  6
CENTER
370
-3
390
F
  0
LAYER
  5
1FB
100
AcDbSymbolTableRecord
100
AcDbLayerTableRecord
  2
DEFAULT_2
 70
0
 62
8
  6
HIDDEN
370
-3
390
F
  0
LAYER
  5
1FC
100
AcDbSymbolTableRecord
100
AcDbLayerTableRecord
  2
DEFAULT_3
 70
0
 62
7
  6
PHANTOM
370
-3
390
F
  0
LAYER
  5
1FD
100
AcDbSymbolTableRecord
100
AcDbLayerTableRecord
  2
01_ALL_DTM_PLN
 70
0
 62
7
  6
CONTINUOUS
370
-3
390
F
  0
LAYER
  5
1FE
100
AcDbSymbolTableRecord
100
AcDbLayerTableRecord
  2
01__ASM_ALL_DTM_PLN
 70
0
 62
7
  6
CONTINUOUS
370
-3
390
F
  0
LAYER
  5
1FF
100
AcDbSymbolTableRecord
100
AcDbLayerTableRecord
  2
01__ASM_DEF_DTM_PLN
 70
0
 62
7
  6
CONTINUOUS
370
-3
390
F
  0
LAYER
  5
200
100
AcDbSymbolTableRecord
100
AcDbLayerTableRecord
  2
01___PRT_ALL_DTM_PLN
 70
0
 62
7
  6
CONTINUOUS
370
-3
390
F
  0
LAYER
  5
201
100
AcDbSymbolTableRecord
100
AcDbLayerTableRecord
  2
01___PRT_DEF_DTM_PLN
 70
0
 62
7
  6
CONTINUOUS
370
-3
390
F
  0
LAYER
  5
202
100
AcDbSymbolTableRecord
100
AcDbLayerTableRecord
  2
02_ALL_AXES
 70
0
 62
7
  6
CONTINUOUS
370
-3
390
F
  0
LAYER
  5
203
100
AcDbSymbolTableRecord
100
AcDbLayerTableRecord
  2
02__ASM_ALL_AXES
 70
0
 62
7
  6
CONTINUOUS
370
-3
390
F
  0
LAYER
  5
204
100
AcDbSymbolTableRecord
100
AcDbLayerTableRecord
  2
02___PRT_ALL_AXES
 70
0
 62
7
  6
CONTINUOUS
370
-3
390
F
  0
LAYER
  5
205
100
AcDbSymbolTableRecord
100
AcDbLayerTableRecord
  2
03_ALL_CURVES
 70
0
 62
7
  6
CONTINUOUS
370
-3
390
F
  0
LAYER
  5
206
100
AcDbSymbolTableRecord
100
AcDbLayerTableRecord
  2
03__ASM_ALL_CURVES
 70
0
 62
7
  6
CONTINUOUS
370
-3
390
F
  0
LAYER
  5
207
100
AcDbSymbolTableRecord
100
AcDbLayerTableRecord
  2
03___PRT_ALL_CURVES
 70
0
 62
7
  6
CONTINUOUS
370
-3
390
F
  0
LAYER
  5
208
100
AcDbSymbolTableRecord
100
AcDbLayerTableRecord
  2
04_ALL_DTM_PNT
 70
0
 62
7
  6
CONTINUOUS
370
-3
390
F
  0
LAYER
  5
209
100
AcDbSymbolTableRecord
100
AcDbLayerTableRecord
  2
04__ASM_ALL_DTM_PNT
 70
0
 62
7
  6
CONTINUOUS
370
-3
390
F
  0
LAYER
  5
20A
100
AcDbSymbolTableRecord
100
AcDbLayerTableRecord
  2
04___PRT_ALL_DTM_PNT
 70
0
 62
7
  6
CONTINUOUS
370
-3
390
F
  0
LAYER
  5
20B
100
AcDbSymbolTableRecord
100
AcDbLayerTableRecord
  2
05_ALL_DTM_CSYS
 70
0
 62
7
  6
CONTINUOUS
370
-3
390
F
  0
LAYER
  5
20C
100
AcDbSymbolTableRecord
100
AcDbLayerTableRecord
  2
05__ASM_ALL_DTM_CSYS
 70
0
 62
7
  6
CONTINUOUS
370
-3
390
F
  0
LAYER
  5
20D
100
AcDbSymbolTableRecord
100
AcDbLayerTableRecord
  2
05__ASM_DEF_DTM_CSYS
 70
0
 62
7
  6
CONTINUOUS
370
-3
390
F
  0
LAYER
  5
20E
100
AcDbSymbolTableRecord
100
AcDbLayerTableRecord
  2
05___PRT_ALL_DTM_CSYS
 70
0
 62
7
  6
CONTINUOUS
370
-3
390
F
  0
LAYER
  5
20F
100
AcDbSymbolTableRecord
100
AcDbLayerTableRecord
  2
05___PRT_DEF_DTM_CSYS
 70
0
 62
7
  6
CONTINUOUS
370
-3
390
F
  0
LAYER
  5
210
100
AcDbSymbolTableRecord
100
AcDbLayerTableRecord
  2
06_ALL_SURFS
 70
0
 62
7
  6
CONTINUOUS
370
-3
390
F
  0
LAYER
  5
211
100
AcDbSymbolTableRecord
100
AcDbLayerTableRecord
  2
06__ASM_ALL_SURFS
 70
0
 62
7
  6
CONTINUOUS
370
-3
390
F
  0
LAYER
  5
212
100
AcDbSymbolTableRecord
100
AcDbLayerTableRecord
  2
06___PRT_ALL_SURFS
 70
0
 62
7
  6
CONTINUOUS
370
-3
390
F
  0
LAYER
  5
213
100
AcDbSymbolTableRecord
100
AcDbLayerTableRecord
  2
07__ASM_ALL_SKELETONS
 70
0
 62
7
  6
CONTINUOUS
370
-3
390
F
  0
ENDTAB
  0
TABLE
  2
STYLE
  5
3
100
AcDbSymbolTable
 70
1
  0
STYLE
  5
11
100
AcDbSymbolTableRecord
100
AcDbTextStyleTableRecord
  2
STANDARD
 70
0
 40
0.0
 41
0.8
 50
0.0
 71
0
 42
0.2
  3
txt
  4

  0
STYLE
  5
214
100
AcDbSymbolTableRecord
100
AcDbTextStyleTableRecord
  2
TEXTSTYLE_1
 70
0
 40
0.0
 41
0.8
 50
0.0
 71
0
 42
0.2
  3
gdt
  4

  0
ENDTAB
  0
TABLE
  2
VIEW
  5
6
100
AcDbSymbolTable
 70
0
  0
ENDTAB
  0
TABLE
  2
UCS
  5
7
100
AcDbSymbolTable
 70
0
  0
ENDTAB
  0
TABLE
  2
APPID
  5
9
100
AcDbSymbolTable
 70
1
  0
APPID
  5
215
100
AcDbSymbolTableRecord
100
AcDbRegAppTableRecord
  2
ACAD
 70
0
  0
ENDTAB
  0
TABLE
  2
BLOCK_RECORD
  5
1
100
AcDbSymbolTable
 70
0
  0
BLOCK_RECORD
  5
216
100
AcDbSymbolTableRecord
100
AcDbBlockTableRecord
  2
*Model_Space
  0
BLOCK_RECORD
  5
217
100
AcDbSymbolTableRecord
100
AcDbBlockTableRecord
  2
*Paper_Space
  0
ENDTAB
  0
TABLE
  2
DIMSTYLE
  5
A
100
AcDbSymbolTable
 70
1
100
AcDbDimStyleTable
 71
0
  0
DIMSTYLE
105
218
100
AcDbSymbolTableRecord
100
AcDbDimStyleTableRecord
  2
STANDARD
 70
0
  3

  4

 40
1.0
 41
0.1875
 42
0.0625
 43
0.38
 44
0.125
 45
0.0
 46
0.0
 47
0.0001
 48
0.0001
140
0.15625
141
0.09
142
0.0
143
25.4
144
1.0
145
0.0
146
1.0
147
0.09
 71
0.0
 72
0.0
 73
1
 74
1
 75
0
 76
0
 77
0
 78
4
170
0
171
2
172
0
173
0
174
0
175
0
176
0
177
0
178
0
270
2
271
4
272
4
273
2
274
2
275
0
280
0
281
0
282
0
283
1
284
4
285
0
286
0
287
3
288
0
340
11
278
46
  0
ENDTAB
  0
ENDSEC
  0
SECTION
  2
BLOCKS
  0
BLOCK
  5
20
100
AcDbEntity
  8
0
100
AcDbBlockBegin
  2
*Model_Space
 70
0
 10
0.0
 20
0.0
 30
0.0
  3
*Model_Space
  1

  0
ENDBLK
  5
21
100
AcDbEntity
  8
0
100
AcDbBlockEnd
  0
BLOCK
  5
1C
100
AcDbEntity
  8
0
100
AcDbBlockBegin
  2
*Paper_Space
 70
0
 10
0.0
 20
0.0
 30
0.0
  3
*Paper_Space
  1

  0
ENDBLK
  5
1D
100
AcDbEntity
  8
0
100
AcDbBlockEnd
  0
ENDSEC
  0
SECTION
  2
ENTITIES
  0
MTEXT
  5
219
100
AcDbEntity
  8
0
100
AcDbMText
 62
7
  6
CONTINUOUS
  7
STANDARD
 71
1
 72
1
 10
15.9560215477
 20
0.9479130325
 30
0.0
 11
1.0
 21
0.0
 31
0.0
 44
0.9
  1
SCALE: 1:1.000
 40
0.3
 41
3.36
  0
LINE
  5
21A
100
AcDbEntity
  8
0
100
AcDbLine
 62
7
  6
CONTINUOUS
 10
0.0
 20
0.0
 11
0.0
 21
17.0
  0
LINE
  5
21B
100
AcDbEntity
  8
0
100
AcDbLine
 62
7
  6
CONTINUOUS
 10
0.0
 20
0.0
 11
22.0
 21
0.0
  0
LINE
  5
21C
100
AcDbEntity
  8
0
100
AcDbLine
 62
7
  6
CONTINUOUS
 10
0.0
 20
17.0
 11
22.0
 21
17.0
  0
LINE
  5
21D
100
AcDbEntity
  8
0
100
AcDbLine
 62
7
  6
CONTINUOUS
 10
22.0
 20
0.0
 11
22.0
 21
17.0
  0
LINE
  5
21E
100
AcDbEntity
  8
0
100
AcDbLine
 62
7
  6
CONTINUOUS
 10
4.4768239691
 20
5.7151986369
 11
4.4768239691
 21
5.5549624164
  0
LINE
  5
21F
100
AcDbEntity
  8
0
100
AcDbLine
 62
7
  6
CONTINUOUS
 10
4.6914231305
 20
5.3250411566
 11
4.8134059101
 21
5.3250411566
  0
LINE
  5
220
100
AcDbEntity
  8
0
100
AcDbLine
 62
7
  6
CONTINUOUS
 10
5.2426042328
 20
5.3250411566
 11
5.3645870124
 21
5.3250411566
  0
LINE
  5
221
100
AcDbEntity
  8
0
100
AcDbLine
 62
7
  6
CONTINUOUS
 10
5.7937853352
 20
5.3250411566
 11
5.9157681148
 21
5.3250411566
  0
LINE
  5
222
100
AcDbEntity
  8
0
100
AcDbLine
 62
7
  6
CONTINUOUS
 10
6.3449664376
 20
5.3250411566
 11
6.4669492171
 21
5.3250411566
  0
LINE
  5
223
100
AcDbEntity
  8
0
100
AcDbLine
 62
7
  6
CONTINUOUS
 10
6.8961475399
 20
5.3250411566
 11
7.0181303195
 21
5.3250411566
  0
LINE
  5
224
100
AcDbEntity
  8
0
100
AcDbLine
 62
7
  6
CONTINUOUS
 10
7.4473286423
 20
5.3250411566
 11
7.5693114219
 21
5.3250411566
  0
LINE
  5
225
100
AcDbEntity
  8
0
100
AcDbLine
 62
7
  6
CONTINUOUS
 10
4.4768239691
 20
5.5549624164
 11
4.5366312066
 21
5.5549624164
  0
LINE
  5
226
100
AcDbEntity
  8
0
100
AcDbLine
 62
7
  6
CONTINUOUS
 10
4.9681978339
 20
5.5549624164
 11
5.087812309
 21
5.5549624164
  0
LINE
  5
227
100
AcDbEntity
  8
0
100
AcDbLine
 62
7
  6
CONTINUOUS
 10
5.5193789362
 20
5.5549624164
 11
5.6389934114
 21
5.5549624164
  0
LINE
  5
228
100
AcDbEntity
  8
0
100
AcDbLine
 62
7
  6
CONTINUOUS
 10
6.0705600386
 20
5.5549624164
 11
6.1901745137
 21
5.5549624164
  0
LINE
  5
229
100
AcDbEntity
  8
0
100
AcDbLine
 62
7
  6
CONTINUOUS
 10
6.621741141
 20
5.5549624164
 11
6.7413556161
 21
5.5549624164
  0
LINE
  5
22A
100
AcDbEntity
  8
0
100
AcDbLine
 62
7
  6
CONTINUOUS
 10
7.1729222433
 20
5.5549624164
 11
7.2925367185
 21
5.5549624164
  0
LINE
  5
22B
100
AcDbEntity
  8
0
100
AcDbLine
 62
7
  6
CONTINUOUS
 10
7.7241033457
 20
5.5549624164
 11
7.7839105833
 21
5.5549624164
  0
LINE
  5
22C
100
AcDbEntity
  8
0
100
AcDbLine
 62
7
  6
CONTINUOUS
 10
7.7839105833
 20
5.7151986369
 11
4.4768239691
 21
5.7151986369
  0
LINE
  5
22D
100
AcDbEntity
  8
0
100
AcDbLine
 62
7
  6
CONTINUOUS
 10
7.7839105833
 20
5.5549624164
 11
7.7839105833
 21
5.7151986369
  0
LINE
  5
22E
100
AcDbEntity
  8
0
100
AcDbLine
 62
7
  6
CONTINUOUS
 10
4.4173287768
 20
14.2732761278
 11
4.4173287768
 21
10.9268194349
  0
LINE
  5
22F
100
AcDbEntity
  8
0
100
AcDbLine
 62
7
  6
CONTINUOUS
 10
7.7244153909
 20
10.9268194349
 11
4.4173287768
 21
10.9268194349
  0
LINE
  5
230
100
AcDbEntity
  8
0
100
AcDbLine
 62
7
  6
CONTINUOUS
 10
7.7244153909
 20
14.2732761278
 11
7.7244153909
 21
10.9268194349
  0
LINE
  5
231
100
AcDbEntity
  8
0
100
AcDbLine
 62
7
  6
CONTINUOUS
 10
4.4173287768
 20
14.2732761278
 11
7.7244153909
 21
14.2732761278
  0
LINE
  5
232
100
AcDbEntity
  8
0
100
AcDbLine
 62
7
  6
CONTINUOUS
 10
13.8871269105
 20
5.2655459643
 11
13.8871269105
 21
5.6557034446
  0
LINE
  5
233
100
AcDbEntity
  8
0
100
AcDbLine
 62
7
  6
CONTINUOUS
 10
13.8871269105
 20
5.2655459643
 11
17.2335836034
 21
5.2655459643
  0
LINE
  5
234
100
AcDbEntity
  8
0
100
AcDbLine
 62
7
  6
CONTINUOUS
 10
17.2335836034
 20
5.4954672241
 11
13.8871269105
 21
5.4954672241
  0
LINE
  5
235
100
AcDbEntity
  8
0
100
AcDbLine
 62
7
  6
CONTINUOUS
 10
17.2335836034
 20
5.6557034446
 11
13.8871269105
 21
5.6557034446
  0
LINE
  5
236
100
AcDbEntity
  8
0
100
AcDbLine
 62
7
  6
CONTINUOUS
 10
17.2335836034
 20
5.2655459643
 11
17.2335836034
 21
5.6557034446
  0
LINE
  5
237
100
AcDbEntity
  8
0
100
AcDbLine
 62
7
  6
CONTINUOUS
 10
13.5186266145
 20
11.3213830927
 11
13.5675053703
 21
11.2217786607
  0
LINE
  5
238
100
AcDbEntity
  8
0
100
AcDbLine
 62
7
  6
CONTINUOUS
 10
14.3286910826
 20
13.9427526721
 11
13.5186266145
 21
11.3213830927
  0
LINE
  5
239
100
AcDbEntity
  8
0
100
AcDbLine
 62
7
  6
CONTINUOUS
 10
13.8352998975
 20
11.0788573137
 11
13.9476534777
 21
11.0788573137
  0
LINE
  5
23A
100
AcDbEntity
  8
0
100
AcDbLine
 62
7
  6
CONTINUOUS
 10
14.3429713115
 20
11.0788573137
 11
14.4553248917
 21
11.0788573137
  0
LINE
  5
23B
100
AcDbEntity
  8
0
100
AcDbLine
 62
7
  6
CONTINUOUS
 10
14.8506427255
 20
11.0788573137
 11
14.9629963057
 21
11.0788573137
  0
LINE
  5
23C
100
AcDbEntity
  8
0
100
AcDbLine
 62
7
  6
CONTINUOUS
 10
15.3583141395
 20
11.0788573137
 11
15.4706677197
 21
11.0788573137
  0
LINE
  5
23D
100
AcDbEntity
  8
0
100
AcDbLine
 62
7
  6
CONTINUOUS
 10
15.8659855535
 20
11.0788573137
 11
15.9783391337
 21
11.0788573137
  0
LINE
  5
23E
100
AcDbEntity
  8
0
100
AcDbLine
 62
7
  6
CONTINUOUS
 10
16.3736569675
 20
11.0788573137
 11
16.4860105478
 21
11.0788573137
  0
LINE
  5
23F
100
AcDbEntity
  8
0
100
AcDbLine
 62
7
  6
CONTINUOUS
 10
13.5675053703
 20
11.2217786607
 11
13.622591484
 21
11.2217786607
  0
LINE
  5
240
100
AcDbEntity
  8
0
100
AcDbLine
 62
7
  6
CONTINUOUS
 10
14.0200906706
 20
11.2217786607
 11
14.130262898
 21
11.2217786607
  0
LINE
  5
241
100
AcDbEntity
  8
0
100
AcDbLine
 62
7
  6
CONTINUOUS
 10
14.5277620846
 20
11.2217786607
 11
14.637934312
 21
11.2217786607
  0
LINE
  5
242
100
AcDbEntity
  8
0
100
AcDbLine
 62
7
  6
CONTINUOUS
 10
15.0354334986
 20
11.2217786607
 11
15.145605726
 21
11.2217786607
  0
LINE
  5
243
100
AcDbEntity
  8
0
100
AcDbLine
 62
7
  6
CONTINUOUS
 10
15.5431049127
 20
11.2217786607
 11
15.65327714
 21
11.2217786607
  0
LINE
  5
244
100
AcDbEntity
  8
0
100
AcDbLine
 62
7
  6
CONTINUOUS
 10
16.0507763267
 20
11.2217786607
 11
16.160948554
 21
11.2217786607
  0
LINE
  5
245
100
AcDbEntity
  8
0
100
AcDbLine
 62
7
  6
CONTINUOUS
 10
16.5584477407
 20
11.2217786607
 11
16.6135338544
 21
11.2217786607
  0
LINE
  5
246
100
AcDbEntity
  8
0
100
AcDbLine
 62
7
  6
CONTINUOUS
 10
16.5646550986
 20
11.3213830927
 11
13.5186266145
 21
11.3213830927
  0
LINE
  5
247
100
AcDbEntity
  8
0
100
AcDbLine
 62
7
  6
CONTINUOUS
 10
14.0297455506
 20
11.2217786607
 11
13.9936004411
 21
11.1048130436
  0
LINE
  5
248
100
AcDbEntity
  8
0
100
AcDbLine
 62
7
  6
CONTINUOUS
 10
13.9922236028
 20
11.1006123745
 11
13.9935975957
 21
11.1048139225
  0
LINE
  5
249
100
AcDbEntity
  8
0
100
AcDbLine
 62
7
  6
CONTINUOUS
 10
14.5374169646
 20
11.2217786607
 11
14.5012718552
 21
11.1048130436
  0
LINE
  5
24A
100
AcDbEntity
  8
0
100
AcDbLine
 62
7
  6
CONTINUOUS
 10
14.4998950168
 20
11.1006123745
 11
14.5012690097
 21
11.1048139225
  0
LINE
  5
24B
100
AcDbEntity
  8
0
100
AcDbLine
 62
7
  6
CONTINUOUS
 10
15.0450883787
 20
11.2217786607
 11
15.0089432692
 21
11.1048130436
  0
LINE
  5
24C
100
AcDbEntity
  8
0
100
AcDbLine
 62
7
  6
CONTINUOUS
 10
15.0075664308
 20
11.1006123745
 11
15.0089404238
 21
11.1048139225
  0
LINE
  5
24D
100
AcDbEntity
  8
0
100
AcDbLine
 62
7
  6
CONTINUOUS
 10
15.5527597927
 20
11.2217786607
 11
15.5166146832
 21
11.1048130436
  0
LINE
  5
24E
100
AcDbEntity
  8
0
100
AcDbLine
 62
7
  6
CONTINUOUS
 10
15.5152378448
 20
11.1006123745
 11
15.5166118378
 21
11.1048139225
  0
LINE
  5
24F
100
AcDbEntity
  8
0
100
AcDbLine
 62
7
  6
CONTINUOUS
 10
16.6135338544
 20
11.2217786607
 11
16.5646550986
 21
11.3213830927
  0
LINE
  5
250
100
AcDbEntity
  8
0
100
AcDbLine
 62
7
  6
CONTINUOUS
 10
16.0604312067
 20
11.2217786607
 11
16.0242860972
 21
11.1048130436
  0
LINE
  5
251
100
AcDbEntity
  8
0
100
AcDbLine
 62
7
  6
CONTINUOUS
 10
16.0229092588
 20
11.1006123745
 11
16.0242832518
 21
11.1048139225
  0
LINE
  5
252
100
AcDbEntity
  8
0
100
AcDbLine
 62
7
  6
CONTINUOUS
 10
17.3747195667
 20
13.9427526721
 11
16.5646550986
 21
11.3213830927
  0
LINE
  5
253
100
AcDbEntity
  8
0
100
AcDbLine
 62
7
  6
CONTINUOUS
 10
16.5681026207
 20
11.2217786607
 11
16.5319575112
 21
11.1048130436
  0
LINE
  5
254
100
AcDbEntity
  8
0
100
AcDbLine
 62
7
  6
CONTINUOUS
 10
17.4235983225
 20
13.8431482402
 11
16.6135338544
 21
11.2217786607
  0
LINE
  5
255
100
AcDbEntity
  8
0
100
AcDbLine
 62
7
  6
CONTINUOUS
 10
16.5305806728
 20
11.1006123745
 11
16.5319563324
 21
11.1048134078
  0
LINE
  5
256
100
AcDbEntity
  8
0
100
AcDbLine
 62
7
  6
CONTINUOUS
 10
14.3286910826
 20
13.9427526721
 11
17.3747195667
 21
13.9427526721
  0
LINE
  5
257
100
AcDbEntity
  8
0
100
AcDbLine
 62
7
  6
CONTINUOUS
 10
17.4235983225
 20
13.8431482402
 11
17.3747195667
 21
13.9427526721
  0
ARC
  5
258
100
AcDbEntity
  8
0
100
AcDbCircle
 62
7
  6
CONTINUOUS
 10
4.5284971974
 20
5.5549624164
 40
0.3961614173
100
AcDbArc
 50
330.5258999203
 51
354.0364298817
  0
ARC
  5
259
100
AcDbEntity
  8
0
100
AcDbCircle
 62
7
  6
CONTINUOUS
 10
5.5275129455
 20
5.5549624164
 40
0.3961614173
100
AcDbArc
 50
185.9635701183
 51
209.4741000797
  0
ARC
  5
25A
100
AcDbEntity
  8
0
100
AcDbCircle
 62
7
  6
CONTINUOUS
 10
5.0796782998
 20
5.5549624164
 40
0.3961614173
100
AcDbArc
 50
330.5258999203
 51
354.0364298817
  0
ARC
  5
25B
100
AcDbEntity
  8
0
100
AcDbCircle
 62
7
  6
CONTINUOUS
 10
6.0786940478
 20
5.5549624164
 40
0.3961614173
100
AcDbArc
 50
185.9635701183
 51
209.4741000797
  0
ARC
  5
25C
100
AcDbEntity
  8
0
100
AcDbCircle
 62
7
  6
CONTINUOUS
 10
5.6308594022
 20
5.5549624164
 40
0.3961614173
100
AcDbArc
 50
330.5258999203
 51
354.0364298817
  0
ARC
  5
25D
100
AcDbEntity
  8
0
100
AcDbCircle
 62
7
  6
CONTINUOUS
 10
6.6298751502
 20
5.5549624164
 40
0.3961614173
100
AcDbArc
 50
185.9635701183
 51
209.4741000797
  0
ARC
  5
25E
100
AcDbEntity
  8
0
100
AcDbCircle
 62
7
  6
CONTINUOUS
 10
4.9763318431
 20
5.5549624164
 40
0.3961614173
100
AcDbArc
 50
185.9635701183
 51
209.4741000797
  0
ARC
  5
25F
100
AcDbEntity
  8
0
100
AcDbCircle
 62
7
  6
CONTINUOUS
 10
7.2844027092
 20
5.5549624164
 40
0.3961614173
100
AcDbArc
 50
330.5258999203
 51
354.0364298817
  0
ARC
  5
260
100
AcDbEntity
  8
0
100
AcDbCircle
 62
7
  6
CONTINUOUS
 10
7.7322373549
 20
5.5549624164
 40
0.3961614173
100
AcDbArc
 50
185.9635701183
 51
209.4741000797
  0
ARC
  5
261
100
AcDbEntity
  8
0
100
AcDbCircle
 62
7
  6
CONTINUOUS
 10
6.7332216069
 20
5.5549624164
 40
0.3961614173
100
AcDbArc
 50
330.5258999203
 51
354.0364298817
  0
ARC
  5
262
100
AcDbEntity
  8
0
100
AcDbCircle
 62
7
  6
CONTINUOUS
 10
7.1810562525
 20
5.5549624164
 40
0.3961614173
100
AcDbArc
 50
185.9635701183
 51
209.4741000797
  0
ARC
  5
263
100
AcDbEntity
  8
0
100
AcDbCircle
 62
7
  6
CONTINUOUS
 10
6.1820405045
 20
5.5549624164
 40
0.3961614173
100
AcDbArc
 50
330.5258999203
 51
354.0364298817
  0
ARC
  5
264
100
AcDbEntity
  8
0
100
AcDbCircle
 62
7
  6
CONTINUOUS
 10
4.6914231305
 20
5.3939387944
 40
0.0688976378
100
AcDbArc
 50
209.4741000797
 51
270.0
  0
ARC
  5
265
100
AcDbEntity
  8
0
100
AcDbCircle
 62
7
  6
CONTINUOUS
 10
4.8134059101
 20
5.3939387944
 40
0.0688976378
100
AcDbArc
 50
270.0
 51
330.5258999203
  0
ARC
  5
266
100
AcDbEntity
  8
0
100
AcDbCircle
 62
7
  6
CONTINUOUS
 10
5.2426042328
 20
5.3939387944
 40
0.0688976378
100
AcDbArc
 50
209.4741000797
 51
270.0
  0
ARC
  5
267
100
AcDbEntity
  8
0
100
AcDbCircle
 62
7
  6
CONTINUOUS
 10
5.3645870124
 20
5.3939387944
 40
0.0688976378
100
AcDbArc
 50
270.0
 51
330.5258999203
  0
ARC
  5
268
100
AcDbEntity
  8
0
100
AcDbCircle
 62
7
  6
CONTINUOUS
 10
5.7937853352
 20
5.3939387944
 40
0.0688976378
100
AcDbArc
 50
209.4741000797
 51
270.0
  0
ARC
  5
269
100
AcDbEntity
  8
0
100
AcDbCircle
 62
7
  6
CONTINUOUS
 10
5.9157681148
 20
5.3939387944
 40
0.0688976378
100
AcDbArc
 50
270.0
 51
330.5258999203
  0
ARC
  5
26A
100
AcDbEntity
  8
0
100
AcDbCircle
 62
7
  6
CONTINUOUS
 10
6.3449664376
 20
5.3939387944
 40
0.0688976378
100
AcDbArc
 50
209.4741000797
 51
270.0
  0
ARC
  5
26B
100
AcDbEntity
  8
0
100
AcDbCircle
 62
7
  6
CONTINUOUS
 10
7.5693114219
 20
5.3939387944
 40
0.0688976378
100
AcDbArc
 50
270.0
 51
330.5258999203
  0
ARC
  5
26C
100
AcDbEntity
  8
0
100
AcDbCircle
 62
7
  6
CONTINUOUS
 10
7.4473286423
 20
5.3939387944
 40
0.0688976378
100
AcDbArc
 50
209.4741000797
 51
270.0
  0
ARC
  5
26D
100
AcDbEntity
  8
0
100
AcDbCircle
 62
7
  6
CONTINUOUS
 10
7.0181303195
 20
5.3939387944
 40
0.0688976378
100
AcDbArc
 50
270.0
 51
330.5258999203
  0
ARC
  5
26E
100
AcDbEntity
  8
0
100
AcDbCircle
 62
7
  6
CONTINUOUS
 10
6.8961475399
 20
5.3939387944
 40
0.0688976378
100
AcDbArc
 50
209.4741000797
 51
270.0
  0
ARC
  5
26F
100
AcDbEntity
  8
0
100
AcDbCircle
 62
7
  6
CONTINUOUS
 10
6.4669492171
 20
5.3939387944
 40
0.0688976378
100
AcDbArc
 50
270.0
 51
330.5258999203
  0
ARC
  5
270
100
AcDbEntity
  8
0
100
AcDbCircle
 62
7
  6
CONTINUOUS
 10
4.5366312066
 20
5.5090306579
 40
0.0459317585
100
AcDbArc
 50
5.9635701183
 51
90.0
  0
ARC
  5
271
100
AcDbEntity
  8
0
100
AcDbCircle
 62
7
  6
CONTINUOUS
 10
4.9681978339
 20
5.5090306579
 40
0.0459317585
100
AcDbArc
 50
90.0
 51
174.0364298817
  0
ARC
  5
272
100
AcDbEntity
  8
0
100
AcDbCircle
 62
7
  6
CONTINUOUS
 10
5.087812309
 20
5.5090306579
 40
0.0459317585
100
AcDbArc
 50
5.9635701183
 51
90.0
  0
ARC
  5
273
100
AcDbEntity
  8
0
100
AcDbCircle
 62
7
  6
CONTINUOUS
 10
5.5193789362
 20
5.5090306579
 40
0.0459317585
100
AcDbArc
 50
90.0
 51
174.0364298817
  0
ARC
  5
274
100
AcDbEntity
  8
0
100
AcDbCircle
 62
7
  6
CONTINUOUS
 10
5.6389934114
 20
5.5090306579
 40
0.0459317585
100
AcDbArc
 50
5.9635701183
 51
90.0
  0
ARC
  5
275
100
AcDbEntity
  8
0
100
AcDbCircle
 62
7
  6
CONTINUOUS
 10
6.0705600386
 20
5.5090306579
 40
0.0459317585
100
AcDbArc
 50
90.0
 51
174.0364298817
  0
ARC
  5
276
100
AcDbEntity
  8
0
100
AcDbCircle
 62
7
  6
CONTINUOUS
 10
6.1901745137
 20
5.5090306579
 40
0.0459317585
100
AcDbArc
 50
5.9635701183
 51
90.0
  0
ARC
  5
277
100
AcDbEntity
  8
0
100
AcDbCircle
 62
7
  6
CONTINUOUS
 10
6.621741141
 20
5.5090306579
 40
0.0459317585
100
AcDbArc
 50
90.0
 51
174.0364298817
  0
ARC
  5
278
100
AcDbEntity
  8
0
100
AcDbCircle
 62
7
  6
CONTINUOUS
 10
6.7413556161
 20
5.5090306579
 40
0.0459317585
100
AcDbArc
 50
5.9635701183
 51
90.0
  0
ARC
  5
279
100
AcDbEntity
  8
0
100
AcDbCircle
 62
7
  6
CONTINUOUS
 10
7.1729222433
 20
5.5090306579
 40
0.0459317585
100
AcDbArc
 50
90.0
 51
174.0364298817
  0
ARC
  5
27A
100
AcDbEntity
  8
0
100
AcDbCircle
 62
7
  6
CONTINUOUS
 10
7.2925367185
 20
5.5090306579
 40
0.0459317585
100
AcDbArc
 50
5.9635701183
 51
90.0
  0
ARC
  5
27B
100
AcDbEntity
  8
0
100
AcDbCircle
 62
7
  6
CONTINUOUS
 10
7.7241033457
 20
5.5090306579
 40
0.0459317585
100
AcDbArc
 50
90.0
 51
174.0364298817
  0
SPLINE
  5
27C
100
AcDbEntity
  8
0
100
AcDbSpline
 62
7
  6
CONTINUOUS
 70
0
 71
3
 72
11
 73
7
 74
0
 42
0.0000001
 43
0.0000001
 44
0.0000000001
 40
0.0
 40
0.0
 40
0.0
 40
0.0
 40
0.2022134897
 40
0.4300346355
 40
0.6962215373
 40
1.0
 40
1.0
 40
1.0
 40
1.0
 10
13.9902175227
 20
11.2067882666
 30
0.0
 10
13.9909244644
 20
11.209074821
 30
0.0
 10
13.9936870285
 20
11.2135964423
 30
0.0
 10
14.0006230593
 20
11.2183482624
 30
0.0
 10
14.0097230162
 20
11.2212079568
 30
0.0
 10
14.0164952305
 20
11.2217786607
 30
0.0
 10
14.0200906706
 20
11.2217786607
 30
0.0
  0
SPLINE
  5
27D
100
AcDbEntity
  8
0
100
AcDbSpline
 62
7
  6
CONTINUOUS
 70
0
 71
3
 72
11
 73
7
 74
0
 42
0.0000001
 43
0.0000001
 44
0.0000000001
 40
0.0
 40
0.0
 40
0.0
 40
0.0
 40
0.2022134897
 40
0.4300346355
 40
0.6962215373
 40
1.0
 40
1.0
 40
1.0
 40
1.0
 10
14.4978889367
 20
11.2067882666
 30
0.0
 10
14.4985958784
 20
11.209074821
 30
0.0
 10
14.5013584426
 20
11.2135964423
 30
0.0
 10
14.5082944734
 20
11.2183482624
 30
0.0
 10
14.5173944303
 20
11.2212079568
 30
0.0
 10
14.5241666445
 20
11.2217786607
 30
0.0
 10
14.5277620846
 20
11.2217786607
 30
0.0
  0
SPLINE
  5
27E
100
AcDbEntity
  8
0
100
AcDbSpline
 62
7
  6
CONTINUOUS
 70
0
 71
3
 72
11
 73
7
 74
0
 42
0.0000001
 43
0.0000001
 44
0.0000000001
 40
0.0
 40
0.0
 40
0.0
 40
0.0
 40
0.2022134897
 40
0.4300346355
 40
0.6962215373
 40
1.0
 40
1.0
 40
1.0
 40
1.0
 10
15.0055603507
 20
11.2067882666
 30
0.0
 10
15.0062672924
 20
11.209074821
 30
0.0
 10
15.0090298566
 20
11.2135964423
 30
0.0
 10
15.0159658874
 20
11.2183482624
 30
0.0
 10
15.0250658443
 20
11.2212079568
 30
0.0
 10
15.0318380585
 20
11.2217786607
 30
0.0
 10
15.0354334986
 20
11.2217786607
 30
0.0
  0
SPLINE
  5
27F
100
AcDbEntity
  8
0
100
AcDbSpline
 62
7
  6
CONTINUOUS
 70
0
 71
3
 72
11
 73
7
 74
0
 42
0.0000001
 43
0.0000001
 44
0.0000000001
 40
0.0
 40
0.0
 40
0.0
 40
0.0
 40
0.2022134897
 40
0.4300346355
 40
0.6962215373
 40
1.0
 40
1.0
 40
1.0
 40
1.0
 10
15.5132317647
 20
11.2067882666
 30
0.0
 10
15.5139387064
 20
11.209074821
 30
0.0
 10
15.5167012706
 20
11.2135964423
 30
0.0
 10
15.5236373014
 20
11.2183482624
 30
0.0
 10
15.5327372583
 20
11.2212079568
 30
0.0
 10
15.5395094725
 20
11.2217786607
 30
0.0
 10
15.5431049127
 20
11.2217786607
 30
0.0
  0
SPLINE
  5
280
100
AcDbEntity
  8
0
100
AcDbSpline
 62
7
  6
CONTINUOUS
 70
0
 71
3
 72
11
 73
7
 74
0
 42
0.0000001
 43
0.0000001
 44
0.0000000001
 40
0.0
 40
0.0
 40
0.0
 40
0.0
 40
0.2022134897
 40
0.4300346355
 40
0.6962215373
 40
1.0
 40
1.0
 40
1.0
 40
1.0
 10
16.0209031788
 20
11.2067882666
 30
0.0
 10
16.0216101204
 20
11.209074821
 30
0.0
 10
16.0243726846
 20
11.2135964423
 30
0.0
 10
16.0313087154
 20
11.2183482624
 30
0.0
 10
16.0404086723
 20
11.2212079568
 30
0.0
 10
16.0471808865
 20
11.2217786607
 30
0.0
 10
16.0507763267
 20
11.2217786607
 30
0.0
  0
SPLINE
  5
281
100
AcDbEntity
  8
0
100
AcDbSpline
 62
7
  6
CONTINUOUS
 70
0
 71
3
 72
11
 73
7
 74
0
 42
0.0000001
 43
0.0000001
 44
0.0000000001
 40
0.0
 40
0.0
 40
0.0
 40
0.0
 40
0.2022134897
 40
0.4300346355
 40
0.6962215373
 40
1.0
 40
1.0
 40
1.0
 40
1.0
 10
16.5285745928
 20
11.2067882666
 30
0.0
 10
16.5292815345
 20
11.209074821
 30
0.0
 10
16.5320440986
 20
11.2135964423
 30
0.0
 10
16.5389801294
 20
11.2183482624
 30
0.0
 10
16.5480800863
 20
11.2212079568
 30
0.0
 10
16.5548523005
 20
11.2217786607
 30
0.0
 10
16.5584477407
 20
11.2217786607
 30
0.0
  0
SPLINE
  5
282
100
AcDbEntity
  8
0
100
AcDbSpline
 62
7
  6
CONTINUOUS
 70
0
 71
3
 72
11
 73
7
 74
0
 42
0.0000001
 43
0.0000001
 44
0.0000000001
 40
0.0
 40
0.0
 40
0.0
 40
0.0
 40
0.2600401149
 40
0.5283846092
 40
0.7814278398
 40
1.0
 40
1.0
 40
1.0
 40
1.0
 10
13.622591484
 20
11.2217786607
 30
0.0
 10
13.6279953567
 20
11.2217786607
 30
0.0
 10
13.6389964905
 20
11.2203913479
 30
0.0
 10
13.6544600544
 20
11.2150869684
 30
0.0
 10
13.6677534838
 20
11.2071446713
 30
0.0
 10
13.6747605334
 20
11.2000095516
 30
0.0
 10
13.6772238916
 20
11.1961934258
 30
0.0
  0
SPLINE
  5
283
100
AcDbEntity
  8
0
100
AcDbSpline
 62
7
  6
CONTINUOUS
 70
0
 71
3
 72
11
 73
7
 74
0
 42
0.0000001
 43
0.0000001
 44
0.0000000001
 40
0.0
 40
0.0
 40
0.0
 40
0.0
 40
0.2600401149
 40
0.5283846092
 40
0.7814278398
 40
1.0
 40
1.0
 40
1.0
 40
1.0
 10
14.130262898
 20
11.2217786607
 30
0.0
 10
14.1356667707
 20
11.2217786607
 30
0.0
 10
14.1466679046
 20
11.2203913479
 30
0.0
 10
14.1621314684
 20
11.2150869684
 30
0.0
 10
14.1754248978
 20
11.2071446713
 30
0.0
 10
14.1824319474
 20
11.2000095516
 30
0.0
 10
14.1848953056
 20
11.1961934258
 30
0.0
  0
SPLINE
  5
284
100
AcDbEntity
  8
0
100
AcDbSpline
 62
7
  6
CONTINUOUS
 70
0
 71
3
 72
9
 73
5
 74
0
 42
0.0000001
 43
0.0000001
 44
0.0000000001
 40
0.0
 40
0.0
 40
0.0
 40
0.0
 40
0.4746386337
 40
1.0
 40
1.0
 40
1.0
 40
1.0
 10
13.6772238916
 20
11.1961934258
 30
0.0
 10
13.6886595024
 20
11.1784778824
 30
0.0
 10
13.7170099713
 20
11.1438530699
 30
0.0
 10
13.7507328525
 20
11.1146506796
 30
0.0
 10
13.7693781059
 20
11.1006123745
 30
0.0
  0
SPLINE
  5
285
100
AcDbEntity
  8
0
100
AcDbSpline
 62
7
  6
CONTINUOUS
 70
0
 71
3
 72
11
 73
7
 74
0
 42
0.0000001
 43
0.0000001
 44
0.0000000001
 40
0.0
 40
0.0
 40
0.0
 40
0.0
 40
0.3029373566
 40
0.5690852537
 40
0.7975950218
 40
1.0
 40
1.0
 40
1.0
 40
1.0
 10
16.4860105478
 20
11.0788573137
 30
0.0
 10
16.4913126922
 20
11.0788573137
 30
0.0
 10
16.5013105635
 20
11.0796847451
 30
0.0
 10
16.5147819983
 20
11.0838318392
 30
0.0
 10
16.5251420256
 20
11.0907009594
 30
0.0
 10
16.5294201875
 20
11.0972652622
 30
0.0
 10
16.5305806728
 20
11.1006123745
 30
0.0
  0
SPLINE
  5
286
100
AcDbEntity
  8
0
100
AcDbSpline
 62
7
  6
CONTINUOUS
 70
0
 71
3
 72
9
 73
5
 74
0
 42
0.0000001
 43
0.0000001
 44
0.0000000001
 40
0.0
 40
0.0
 40
0.0
 40
0.0
 40
0.4970491118
 40
1.0
 40
1.0
 40
1.0
 40
1.0
 10
16.307735176
 20
11.1006123745
 30
0.0
 10
16.3170331293
 20
11.093611799
 30
0.0
 10
16.3384313846
 20
11.0830664389
 30
0.0
 10
16.3618800454
 20
11.0788573137
 30
0.0
 10
16.3736569675
 20
11.0788573137
 30
0.0
  0
SPLINE
  5
287
100
AcDbEntity
  8
0
100
AcDbSpline
 62
7
  6
CONTINUOUS
 70
0
 71
3
 72
9
 73
5
 74
0
 42
0.0000001
 43
0.0000001
 44
0.0000000001
 40
0.0
 40
0.0
 40
0.0
 40
0.0
 40
0.474639384
 40
1.0
 40
1.0
 40
1.0
 40
1.0
 10
16.2155809617
 20
11.1961934258
 30
0.0
 10
16.2270165869
 20
11.1784778601
 30
0.0
 10
16.2553674226
 20
11.1438533832
 30
0.0
 10
16.2890899552
 20
11.114650655
 30
0.0
 10
16.307735176
 20
11.1006123745
 30
0.0
  0
SPLINE
  5
288
100
AcDbEntity
  8
0
100
AcDbSpline
 62
7
  6
CONTINUOUS
 70
0
 71
3
 72
11
 73
7
 74
0
 42
0.0000001
 43
0.0000001
 44
0.0000000001
 40
0.0
 40
0.0
 40
0.0
 40
0.0
 40
0.3029373566
 40
0.5690852537
 40
0.7975950218
 40
1.0
 40
1.0
 40
1.0
 40
1.0
 10
15.9783391337
 20
11.0788573137
 30
0.0
 10
15.9836412782
 20
11.0788573137
 30
0.0
 10
15.9936391495
 20
11.0796847451
 30
0.0
 10
16.0071105843
 20
11.0838318392
 30
0.0
 10
16.0174706116
 20
11.0907009594
 30
0.0
 10
16.0217487735
 20
11.0972652622
 30
0.0
 10
16.0229092588
 20
11.1006123745
 30
0.0
  0
SPLINE
  5
289
100
AcDbEntity
  8
0
100
AcDbSpline
 62
7
  6
CONTINUOUS
 70
0
 71
3
 72
9
 73
5
 74
0
 42
0.0000001
 43
0.0000001
 44
0.0000000001
 40
0.0
 40
0.0
 40
0.0
 40
0.0
 40
0.4970491118
 40
1.0
 40
1.0
 40
1.0
 40
1.0
 10
15.8000637619
 20
11.1006123745
 30
0.0
 10
15.8093617152
 20
11.093611799
 30
0.0
 10
15.8307599706
 20
11.0830664389
 30
0.0
 10
15.8542086314
 20
11.0788573137
 30
0.0
 10
15.8659855535
 20
11.0788573137
 30
0.0
  0
SPLINE
  5
28A
100
AcDbEntity
  8
0
100
AcDbSpline
 62
7
  6
CONTINUOUS
 70
0
 71
3
 72
9
 73
5
 74
0
 42
0.0000001
 43
0.0000001
 44
0.0000000001
 40
0.0
 40
0.0
 40
0.0
 40
0.0
 40
0.4746386337
 40
1.0
 40
1.0
 40
1.0
 40
1.0
 10
15.7079095477
 20
11.1961934258
 30
0.0
 10
15.7193451584
 20
11.1784778824
 30
0.0
 10
15.7476956274
 20
11.1438530699
 30
0.0
 10
15.7814185085
 20
11.1146506796
 30
0.0
 10
15.8000637619
 20
11.1006123745
 30
0.0
  0
SPLINE
  5
28B
100
AcDbEntity
  8
0
100
AcDbSpline
 62
7
  6
CONTINUOUS
 70
0
 71
3
 72
11
 73
7
 74
0
 42
0.0000001
 43
0.0000001
 44
0.0000000001
 40
0.0
 40
0.0
 40
0.0
 40
0.0
 40
0.3029373566
 40
0.5690852537
 40
0.7975950218
 40
1.0
 40
1.0
 40
1.0
 40
1.0
 10
15.4706677197
 20
11.0788573137
 30
0.0
 10
15.4759698642
 20
11.0788573137
 30
0.0
 10
15.4859677354
 20
11.0796847451
 30
0.0
 10
15.4994391702
 20
11.0838318392
 30
0.0
 10
15.5097991976
 20
11.0907009594
 30
0.0
 10
15.5140773595
 20
11.0972652622
 30
0.0
 10
15.5152378448
 20
11.1006123745
 30
0.0
  0
SPLINE
  5
28C
100
AcDbEntity
  8
0
100
AcDbSpline
 62
7
  6
CONTINUOUS
 70
0
 71
3
 72
9
 73
5
 74
0
 42
0.0000001
 43
0.0000001
 44
0.0000000001
 40
0.0
 40
0.0
 40
0.0
 40
0.0
 40
0.4970491118
 40
1.0
 40
1.0
 40
1.0
 40
1.0
 10
15.2923923479
 20
11.1006123745
 30
0.0
 10
15.3016903012
 20
11.093611799
 30
0.0
 10
15.3230885565
 20
11.0830664389
 30
0.0
 10
15.3465372174
 20
11.0788573137
 30
0.0
 10
15.3583141395
 20
11.0788573137
 30
0.0
  0
SPLINE
  5
28D
100
AcDbEntity
  8
0
100
AcDbSpline
 62
7
  6
CONTINUOUS
 70
0
 71
3
 72
9
 73
5
 74
0
 42
0.0000001
 43
0.0000001
 44
0.0000000001
 40
0.0
 40
0.0
 40
0.0
 40
0.0
 40
0.4746386337
 40
1.0
 40
1.0
 40
1.0
 40
1.0
 10
15.2002381336
 20
11.1961934258
 30
0.0
 10
15.2116737444
 20
11.1784778824
 30
0.0
 10
15.2400242133
 20
11.1438530699
 30
0.0
 10
15.2737470945
 20
11.1146506796
 30
0.0
 10
15.2923923479
 20
11.1006123745
 30
0.0
  0
SPLINE
  5
28E
100
AcDbEntity
  8
0
100
AcDbSpline
 62
7
  6
CONTINUOUS
 70
0
 71
3
 72
11
 73
7
 74
0
 42
0.0000001
 43
0.0000001
 44
0.0000000001
 40
0.0
 40
0.0
 40
0.0
 40
0.0
 40
0.3029373566
 40
0.5690852537
 40
0.7975950218
 40
1.0
 40
1.0
 40
1.0
 40
1.0
 10
14.9629963057
 20
11.0788573137
 30
0.0
 10
14.9682984501
 20
11.0788573137
 30
0.0
 10
14.9782963214
 20
11.0796847451
 30
0.0
 10
14.9917677562
 20
11.0838318392
 30
0.0
 10
15.0021277836
 20
11.0907009594
 30
0.0
 10
15.0064059454
 20
11.0972652622
 30
0.0
 10
15.0075664308
 20
11.1006123745
 30
0.0
  0
SPLINE
  5
28F
100
AcDbEntity
  8
0
100
AcDbSpline
 62
7
  6
CONTINUOUS
 70
0
 71
3
 72
9
 73
5
 74
0
 42
0.0000001
 43
0.0000001
 44
0.0000000001
 40
0.0
 40
0.0
 40
0.0
 40
0.0
 40
0.4970491118
 40
1.0
 40
1.0
 40
1.0
 40
1.0
 10
14.7847209339
 20
11.1006123745
 30
0.0
 10
14.7940188872
 20
11.093611799
 30
0.0
 10
14.8154171425
 20
11.0830664389
 30
0.0
 10
14.8388658034
 20
11.0788573137
 30
0.0
 10
14.8506427255
 20
11.0788573137
 30
0.0
  0
SPLINE
  5
290
100
AcDbEntity
  8
0
100
AcDbSpline
 62
7
  6
CONTINUOUS
 70
0
 71
3
 72
9
 73
5
 74
0
 42
0.0000001
 43
0.0000001
 44
0.0000000001
 40
0.0
 40
0.0
 40
0.0
 40
0.0
 40
0.4746386337
 40
1.0
 40
1.0
 40
1.0
 40
1.0
 10
14.6925667196
 20
11.1961934258
 30
0.0
 10
14.7040023304
 20
11.1784778824
 30
0.0
 10
14.7323527993
 20
11.1438530699
 30
0.0
 10
14.7660756805
 20
11.1146506796
 30
0.0
 10
14.7847209339
 20
11.1006123745
 30
0.0
  0
SPLINE
  5
291
100
AcDbEntity
  8
0
100
AcDbSpline
 62
7
  6
CONTINUOUS
 70
0
 71
3
 72
11
 73
7
 74
0
 42
0.0000001
 43
0.0000001
 44
0.0000000001
 40
0.0
 40
0.0
 40
0.0
 40
0.0
 40
0.3029373566
 40
0.5690852537
 40
0.7975950218
 40
1.0
 40
1.0
 40
1.0
 40
1.0
 10
14.4553248917
 20
11.0788573137
 30
0.0
 10
14.4606270361
 20
11.0788573137
 30
0.0
 10
14.4706249074
 20
11.0796847451
 30
0.0
 10
14.4840963422
 20
11.0838318392
 30
0.0
 10
14.4944563695
 20
11.0907009594
 30
0.0
 10
14.4987345314
 20
11.0972652622
 30
0.0
 10
14.4998950168
 20
11.1006123745
 30
0.0
  0
SPLINE
  5
292
100
AcDbEntity
  8
0
100
AcDbSpline
 62
7
  6
CONTINUOUS
 70
0
 71
3
 72
9
 73
5
 74
0
 42
0.0000001
 43
0.0000001
 44
0.0000000001
 40
0.0
 40
0.0
 40
0.0
 40
0.0
 40
0.4970491118
 40
1.0
 40
1.0
 40
1.0
 40
1.0
 10
14.2770495199
 20
11.1006123745
 30
0.0
 10
14.2863474732
 20
11.093611799
 30
0.0
 10
14.3077457285
 20
11.0830664389
 30
0.0
 10
14.3311943894
 20
11.0788573137
 30
0.0
 10
14.3429713115
 20
11.0788573137
 30
0.0
  0
SPLINE
  5
293
100
AcDbEntity
  8
0
100
AcDbSpline
 62
7
  6
CONTINUOUS
 70
0
 71
3
 72
9
 73
5
 74
0
 42
0.0000001
 43
0.0000001
 44
0.0000000001
 40
0.0
 40
0.0
 40
0.0
 40
0.0
 40
0.4746386337
 40
1.0
 40
1.0
 40
1.0
 40
1.0
 10
14.1848953056
 20
11.1961934258
 30
0.0
 10
14.1963309164
 20
11.1784778824
 30
0.0
 10
14.2246813853
 20
11.1438530699
 30
0.0
 10
14.2584042665
 20
11.1146506796
 30
0.0
 10
14.2770495199
 20
11.1006123745
 30
0.0
  0
SPLINE
  5
294
100
AcDbEntity
  8
0
100
AcDbSpline
 62
7
  6
CONTINUOUS
 70
0
 71
3
 72
11
 73
7
 74
0
 42
0.0000001
 43
0.0000001
 44
0.0000000001
 40
0.0
 40
0.0
 40
0.0
 40
0.0
 40
0.3029373566
 40
0.5690852537
 40
0.7975950218
 40
1.0
 40
1.0
 40
1.0
 40
1.0
 10
13.9476534777
 20
11.0788573137
 30
0.0
 10
13.9529556221
 20
11.0788573137
 30
0.0
 10
13.9629534934
 20
11.0796847451
 30
0.0
 10
13.9764249282
 20
11.0838318392
 30
0.0
 10
13.9867849555
 20
11.0907009594
 30
0.0
 10
13.9910631174
 20
11.0972652622
 30
0.0
 10
13.9922236028
 20
11.1006123745
 30
0.0
  0
SPLINE
  5
295
100
AcDbEntity
  8
0
100
AcDbSpline
 62
7
  6
CONTINUOUS
 70
0
 71
3
 72
9
 73
5
 74
0
 42
0.0000001
 43
0.0000001
 44
0.0000000001
 40
0.0
 40
0.0
 40
0.0
 40
0.0
 40
0.4970491118
 40
1.0
 40
1.0
 40
1.0
 40
1.0
 10
13.7693781059
 20
11.1006123745
 30
0.0
 10
13.7786760592
 20
11.093611799
 30
0.0
 10
13.8000743145
 20
11.0830664389
 30
0.0
 10
13.8235229754
 20
11.0788573137
 30
0.0
 10
13.8352998975
 20
11.0788573137
 30
0.0
  0
SPLINE
  5
296
100
AcDbEntity
  8
0
100
AcDbSpline
 62
7
  6
CONTINUOUS
 70
0
 71
3
 72
11
 73
7
 74
0
 42
0.0000001
 43
0.0000001
 44
0.0000000001
 40
0.0
 40
0.0
 40
0.0
 40
0.0
 40
0.2600401149
 40
0.5283846092
 40
0.7814278398
 40
1.0
 40
1.0
 40
1.0
 40
1.0
 10
14.637934312
 20
11.2217786607
 30
0.0
 10
14.6433381847
 20
11.2217786607
 30
0.0
 10
14.6543393186
 20
11.2203913479
 30
0.0
 10
14.6698028824
 20
11.2150869684
 30
0.0
 10
14.6830963118
 20
11.2071446713
 30
0.0
 10
14.6901033614
 20
11.2000095516
 30
0.0
 10
14.6925667196
 20
11.1961934258
 30
0.0
  0
SPLINE
  5
297
100
AcDbEntity
  8
0
100
AcDbSpline
 62
7
  6
CONTINUOUS
 70
0
 71
3
 72
11
 73
7
 74
0
 42
0.0000001
 43
0.0000001
 44
0.0000000001
 40
0.0
 40
0.0
 40
0.0
 40
0.0
 40
0.2600401149
 40
0.5283846092
 40
0.7814278398
 40
1.0
 40
1.0
 40
1.0
 40
1.0
 10
15.145605726
 20
11.2217786607
 30
0.0
 10
15.1510095987
 20
11.2217786607
 30
0.0
 10
15.1620107326
 20
11.2203913479
 30
0.0
 10
15.1774742964
 20
11.2150869684
 30
0.0
 10
15.1907677259
 20
11.2071446713
 30
0.0
 10
15.1977747755
 20
11.2000095516
 30
0.0
 10
15.2002381336
 20
11.1961934258
 30
0.0
  0
SPLINE
  5
298
100
AcDbEntity
  8
0
100
AcDbSpline
 62
7
  6
CONTINUOUS
 70
0
 71
3
 72
11
 73
7
 74
0
 42
0.0000001
 43
0.0000001
 44
0.0000000001
 40
0.0
 40
0.0
 40
0.0
 40
0.0
 40
0.2600401149
 40
0.5283846092
 40
0.7814278398
 40
1.0
 40
1.0
 40
1.0
 40
1.0
 10
15.65327714
 20
11.2217786607
 30
0.0
 10
15.6586810127
 20
11.2217786607
 30
0.0
 10
15.6696821466
 20
11.2203913479
 30
0.0
 10
15.6851457105
 20
11.2150869684
 30
0.0
 10
15.6984391399
 20
11.2071446713
 30
0.0
 10
15.7054461895
 20
11.2000095516
 30
0.0
 10
15.7079095477
 20
11.1961934258
 30
0.0
  0
SPLINE
  5
299
100
AcDbEntity
  8
0
100
AcDbSpline
 62
7
  6
CONTINUOUS
 70
0
 71
3
 72
11
 73
7
 74
0
 42
0.0000001
 43
0.0000001
 44
0.0000000001
 40
0.0
 40
0.0
 40
0.0
 40
0.0
 40
0.2600401149
 40
0.5283846092
 40
0.7814278398
 40
1.0
 40
1.0
 40
1.0
 40
1.0
 10
16.160948554
 20
11.2217786607
 30
0.0
 10
16.1663524267
 20
11.2217786607
 30
0.0
 10
16.1773535606
 20
11.2203913479
 30
0.0
 10
16.1928171245
 20
11.2150869684
 30
0.0
 10
16.2061105539
 20
11.2071446713
 30
0.0
 10
16.2131176035
 20
11.2000095516
 30
0.0
 10
16.2155809617
 20
11.1961934258
 30
0.0
  0
SPLINE
  5
29A
100
AcDbEntity
  8
0
100
AcDbSpline
 62
7
  6
CONTINUOUS
 70
0
 71
3
 72
9
 73
5
 74
0
 42
0.0000001
 43
0.0000001
 44
0.0000000001
 40
0.0
 40
0.0
 40
0.0
 40
0.0
 40
0.4826789452
 40
1.0
 40
1.0
 40
1.0
 40
1.0
 10
16.0242859108
 20
11.1048131009
 30
0.0
 10
16.0286826685
 20
11.1190448
 30
0.0
 10
16.032585657
 20
11.1503388314
 30
0.0
 10
16.0263386901
 20
11.1810601222
 30
0.0
 10
16.0212547384
 20
11.1961934258
 30
0.0
  0
SPLINE
  5
29B
100
AcDbEntity
  8
0
100
AcDbSpline
 62
7
  6
CONTINUOUS
 70
0
 71
3
 72
9
 73
5
 74
0
 42
0.0000001
 43
0.0000001
 44
0.0000000001
 40
0.0
 40
0.0
 40
0.0
 40
0.0
 40
0.5169539182
 40
1.0
 40
1.0
 40
1.0
 40
1.0
 10
15.5135833244
 20
11.1961934258
 30
0.0
 10
15.5129943282
 20
11.1979466797
 30
0.0
 10
15.5122733026
 20
11.201508464
 30
0.0
 10
15.5127212833
 20
11.2051371494
 30
0.0
 10
15.5132317647
 20
11.2067882666
 30
0.0
  0
SPLINE
  5
29C
100
AcDbEntity
  8
0
100
AcDbSpline
 62
7
  6
CONTINUOUS
 70
0
 71
3
 72
9
 73
5
 74
0
 42
0.0000001
 43
0.0000001
 44
0.0000000001
 40
0.0
 40
0.0
 40
0.0
 40
0.0
 40
0.5169539182
 40
1.0
 40
1.0
 40
1.0
 40
1.0
 10
13.9905690823
 20
11.1961934258
 30
0.0
 10
13.9899800862
 20
11.1979466797
 30
0.0
 10
13.9892590605
 20
11.201508464
 30
0.0
 10
13.9897070413
 20
11.2051371494
 30
0.0
 10
13.9902175227
 20
11.2067882666
 30
0.0
  0
SPLINE
  5
29D
100
AcDbEntity
  8
0
100
AcDbSpline
 62
7
  6
CONTINUOUS
 70
0
 71
3
 72
9
 73
5
 74
0
 42
0.0000001
 43
0.0000001
 44
0.0000000001
 40
0.0
 40
0.0
 40
0.0
 40
0.0
 40
0.5169539182
 40
1.0
 40
1.0
 40
1.0
 40
1.0
 10
16.0212547384
 20
11.1961934258
 30
0.0
 10
16.0206657422
 20
11.1979466797
 30
0.0
 10
16.0199447166
 20
11.201508464
 30
0.0
 10
16.0203926973
 20
11.2051371494
 30
0.0
 10
16.0209031788
 20
11.2067882666
 30
0.0
  0
SPLINE
  5
29E
100
AcDbEntity
  8
0
100
AcDbSpline
 62
7
  6
CONTINUOUS
 70
0
 71
3
 72
9
 73
5
 74
0
 42
0.0000001
 43
0.0000001
 44
0.0000000001
 40
0.0
 40
0.0
 40
0.0
 40
0.0
 40
0.4826789452
 40
1.0
 40
1.0
 40
1.0
 40
1.0
 10
14.5012716688
 20
11.1048131009
 30
0.0
 10
14.5056684265
 20
11.1190448
 30
0.0
 10
14.509571415
 20
11.1503388314
 30
0.0
 10
14.5033244481
 20
11.1810601222
 30
0.0
 10
14.4982404964
 20
11.1961934258
 30
0.0
  0
SPLINE
  5
29F
100
AcDbEntity
  8
0
100
AcDbSpline
 62
7
  6
CONTINUOUS
 70
0
 71
3
 72
9
 73
5
 74
0
 42
0.0000001
 43
0.0000001
 44
0.0000000001
 40
0.0
 40
0.0
 40
0.0
 40
0.0
 40
0.5169539182
 40
1.0
 40
1.0
 40
1.0
 40
1.0
 10
16.5289261524
 20
11.1961934258
 30
0.0
 10
16.5283371563
 20
11.1979466797
 30
0.0
 10
16.5276161306
 20
11.201508464
 30
0.0
 10
16.5280641113
 20
11.2051371494
 30
0.0
 10
16.5285745928
 20
11.2067882666
 30
0.0
  0
SPLINE
  5
2A0
100
AcDbEntity
  8
0
100
AcDbSpline
 62
7
  6
CONTINUOUS
 70
0
 71
3
 72
9
 73
5
 74
0
 42
0.0000001
 43
0.0000001
 44
0.0000000001
 40
0.0
 40
0.0
 40
0.0
 40
0.0
 40
0.4826789452
 40
1.0
 40
1.0
 40
1.0
 40
1.0
 10
15.5166144968
 20
11.1048131009
 30
0.0
 10
15.5210112545
 20
11.1190448
 30
0.0
 10
15.524914243
 20
11.1503388314
 30
0.0
 10
15.5186672761
 20
11.1810601222
 30
0.0
 10
15.5135833244
 20
11.1961934258
 30
0.0
  0
SPLINE
  5
2A1
100
AcDbEntity
  8
0
100
AcDbSpline
 62
7
  6
CONTINUOUS
 70
0
 71
3
 72
9
 73
5
 74
0
 42
0.0000001
 43
0.0000001
 44
0.0000000001
 40
0.0
 40
0.0
 40
0.0
 40
0.0
 40
0.4826734757
 40
1.0
 40
1.0
 40
1.0
 40
1.0
 10
16.5319574292
 20
11.1048130689
 30
0.0
 10
16.5363547693
 20
11.1190443964
 30
0.0
 10
16.5402560022
 20
11.1503387344
 30
0.0
 10
16.534010153
 20
11.1810599768
 30
0.0
 10
16.5289261524
 20
11.1961934258
 30
0.0
  0
SPLINE
  5
2A2
100
AcDbEntity
  8
0
100
AcDbSpline
 62
7
  6
CONTINUOUS
 70
0
 71
3
 72
9
 73
5
 74
0
 42
0.0000001
 43
0.0000001
 44
0.0000000001
 40
0.0
 40
0.0
 40
0.0
 40
0.0
 40
0.4826789452
 40
1.0
 40
1.0
 40
1.0
 40
1.0
 10
15.0089430828
 20
11.1048131009
 30
0.0
 10
15.0133398405
 20
11.1190448
 30
0.0
 10
15.017242829
 20
11.1503388314
 30
0.0
 10
15.0109958621
 20
11.1810601222
 30
0.0
 10
15.0059119104
 20
11.1961934258
 30
0.0
  0
SPLINE
  5
2A3
100
AcDbEntity
  8
0
100
AcDbSpline
 62
7
  6
CONTINUOUS
 70
0
 71
3
 72
9
 73
5
 74
0
 42
0.0000001
 43
0.0000001
 44
0.0000000001
 40
0.0
 40
0.0
 40
0.0
 40
0.0
 40
0.5169539182
 40
1.0
 40
1.0
 40
1.0
 40
1.0
 10
14.4982404964
 20
11.1961934258
 30
0.0
 10
14.4976515002
 20
11.1979466797
 30
0.0
 10
14.4969304745
 20
11.201508464
 30
0.0
 10
14.4973784553
 20
11.2051371494
 30
0.0
 10
14.4978889367
 20
11.2067882666
 30
0.0
  0
SPLINE
  5
2A4
100
AcDbEntity
  8
0
100
AcDbSpline
 62
7
  6
CONTINUOUS
 70
0
 71
3
 72
9
 73
5
 74
0
 42
0.0000001
 43
0.0000001
 44
0.0000000001
 40
0.0
 40
0.0
 40
0.0
 40
0.0
 40
0.4826789452
 40
1.0
 40
1.0
 40
1.0
 40
1.0
 10
13.9936002548
 20
11.1048131009
 30
0.0
 10
13.9979970125
 20
11.1190448
 30
0.0
 10
14.001900001
 20
11.1503388314
 30
0.0
 10
13.995653034
 20
11.1810601222
 30
0.0
 10
13.9905690823
 20
11.1961934258
 30
0.0
  0
SPLINE
  5
2A5
100
AcDbEntity
  8
0
100
AcDbSpline
 62
7
  6
CONTINUOUS
 70
0
 71
3
 72
9
 73
5
 74
0
 42
0.0000001
 43
0.0000001
 44
0.0000000001
 40
0.0
 40
0.0
 40
0.0
 40
0.0
 40
0.5169539182
 40
1.0
 40
1.0
 40
1.0
 40
1.0
 10
15.0059119104
 20
11.1961934258
 30
0.0
 10
15.0053229142
 20
11.1979466797
 30
0.0
 10
15.0046018886
 20
11.201508464
 30
0.0
 10
15.0050498693
 20
11.2051371494
 30
0.0
 10
15.0055603507
 20
11.2067882666
 30
0.0
  0
ENDSEC
  0
SECTION
  2
OBJECTS
  0
DICTIONARY
  5
C
100
AcDbDictionary
280
0
281
1
  3
ACAD_GROUP
350
D
  3
ACAD_MLINESTYLE
350
17
  3
ACAD_LAYOUT
350
1A
  3
ACAD_PLOTSETTINGS
350
19
  3
ACAD_PLOTSTYLENAME
350
E
  0
DICTIONARY
  5
D
102
{ACAD_REACTORS
330
C
102
}
100
AcDbDictionary
280
0
281
1
  0
ACDBDICTIONARYWDFLT
  5
E
102
{ACAD_REACTORS
330
C
102
}
100
AcDbDictionary
281
1
  3
Normal
350
F
100
AcDbDictionaryWithDefault
340
F
  0
DICTIONARY
  5
17
102
{ACAD_REACTORS
330
C
102
}
100
AcDbDictionary
280
0
281
1
  3
Standard
350
18
  0
DICTIONARY
  5
19
102
{ACAD_REACTORS
330
C
102
}
100
AcDbDictionary
281
1
  0
DICTIONARY
  5
1A
102
{ACAD_REACTORS
330
C
102
}
100
AcDbDictionary
281
1
  3
Model
350
2A6
  3
Layout1
350
2A7
  0
ACDBPLACEHOLDER
  5
F
102
{ACAD_REACTORS
330
E
102
}
  0
MLINESTYLE
  5
18
102
{ACAD_REACTORS
330
17
102
}
100
AcDbMlineStyle
  2
STANDARD
 70
0
  3

 62
256
 51
90.0
 52
90.0
 71
2
 49
0.5
 62
256
  6
BYLAYER
 49
-0.5
 62
256
  6
BYLAYER
  0
LAYOUT
  5
2A6
102
{ACAD_REACTORS
330
1A
102
}
100
AcDbPlotSettings
  1

  2
none_device
  4
ANSI_C_(22.00_x_17.00_Inches)
  6

 40
0.0
 41
0.0
 42
0.0
 43
0.0
 44
558.8
 45
431.8
 46
0.0
 47
0.0
 48
0.0
 49
0.0
140
0.0
141
0.0
142
1.0
143
1.0
 70
1024
 72
0
 73
0
 74
0
  7

 75
0
147
1.0
148
0.0
149
0.0
100
AcDbLayout
  1
Model
 70
0
 71
0
 10
0.0
 20
0.0
 11
22.0
 21
17.0
 12
0.0
 22
0.0
 32
0.0
 14
0.0
 24
0.0
 34
0.0
 15
0.0
 25
0.0
 35
0.0
146
0.0
 13
0.0
 23
0.0
 33
0.0
 16
1.0
 26
0.0
 36
0.0
 17
0.0
 27
1.0
 37
0.0
 76
0
330
216
345
0
346
0
  0
LAYOUT
  5
2A7
102
{ACAD_REACTORS
330
1A
102
}
100
AcDbPlotSettings
  1

  2
none_device
  4
ANSI_C_(22.00_x_17.00_Inches)
  6

 40
0.0
 41
0.0
 42
0.0
 43
0.0
 44
558.8
 45
431.8
 46
0.0
 47
0.0
 48
0.0
 49
0.0
140
0.0
141
0.0
142
1.0
143
1.0
 70
0
 72
0
 73
0
 74
0
  7

 75
0
147
1.0
148
0.0
149
0.0
100
AcDbLayout
  1
Layout1
 70
0
 71
1
 10
0.0
 20
0.0
 11
22.0
 21
17.0
 12
0.0
 22
0.0
 32
0.0
 14
0.0
 24
0.0
 34
0.0
 15
0.0
 25
0.0
 35
0.0
146
0.0
 13
0.0
 23
0.0
 33
0.0
 16
1.0
 26
0.0
 36
0.0
 17
0.0
 27
1.0
 37
0.0
 76
0
330
217
345
0
346
0
  0
ENDSEC
  0
EOF