999
DXF file: _cgs_temp_output.dxf
999
Pro/ENGINEER 2016360 by Parametric Technology Corporation
  0
SECTION
  2
HEADER
  9
$ACADVER
  1
AC1021
  9
$DWGCODEPAGE
  3
ANSI_1252
  9
$EXTMAX
 10
22.0
 20
17.0
 30
0.0
  9
$EXTMIN
 10
0.0
 20
0.0
 30
0.0
  9
$LIMMIN
 10
0.0
 20
0.0
  9
$LIMMAX
 10
22.0
 20
17.0
  9
$VIEWCTR
 10
11.0
 20
8.5
  9
$VIEWSIZE
 40
17.0
  9
$CLAYER
  8
0
  9
$LTSCALE
 40
1.21
  9
$CELTYPE
  6
BYLAYER
  9
$DIMSCALE
 40
1.0
  9
$DIMASZ
 40
0.1875
  9
$DIMEXO
 40
0.0625
  9
$DIMDLI
 40
0.836
  9
$DIMEXE
 40
0.125
  9
$DIMCEN
 40
0.198
  9
$DIMLFAC
 40
1.0
  9
$DIMBLK
  1
_CLOSED
  9
$DIMALT
 70
0
  9
$DIMALTF
 40
25.4
  9
$DIMTXT
 40
0.15625
  9
$DIMTOL
 70
0
  9
$DIMLIM
 70
0
  9
$DIMTFAC
 40
1.0
  9
$DIMGAP
 40
0.09
  9
$DIMDSEP
 70
46
  9
$AUNITS
 70
0
  9
$PDMODE
 70
3
  9
$PDSIZE
 40
0.3125
  9
$HANDSEED
  5
2FF
  9
$TILEMODE
 70
1
  9
$MEASUREMENT
 70
0
  9
$INSUNITS
 70
1
  0
ENDSEC
  0
SECTION
  2
CLASSES
  0
CLASS
  1
ACDBDICTIONARYWDFLT
  2
AcDbDictionaryWithDefault
  3
AutoCAD 2000
 90
0
 91
1
280
0
281
0
  0
CLASS
  1
ACDBPLACEHOLDER
  2
AcDbPlaceHolder
  3
AutoCAD 2000
 90
0
 91
1
280
0
281
0
  0
CLASS
  1
LAYOUT
  2
AcDbLayout
  3
AutoCAD 2000
 90
0
 91
0
280
0
281
0
  0
ENDSEC
  0
SECTION
  2
TABLES
  0
TABLE
  2
VPORT
  5
8
100
AcDbSymbolTable
 70
2
  0
VPORT
  5
1F4
100
AcDbSymbolTableRecord
100
AcDbViewportTableRecord
  2
*ACTIVE
 70
0
 10
0.0
 20
0.0
 11
1.0
 21
1.0
 12
11.0
 22
8.5
 13
0.0
 23
0.0
 14
1.0
 24
1.0
 15
0.0
 25
0.0
 16
0.0
 26
0.0
 36
1.0
 17
0.0
 27
0.0
 37
0.0
 40
17.0
 41
1.2941176471
 42
50.0
 43
0.0
 44
0.0
 50
0.0
 51
0.0
 71
0
 72
100
 73
1
 74
1
 75
0
 76
0
 77
0
 78
0
  0
ENDTAB
  0
TABLE
  2
LTYPE
  5
5
100
AcDbSymbolTable
 70
6
  0
LTYPE
  5
14
100
AcDbSymbolTableRecord
100
AcDbLinetypeTableRecord
  2
BYBLOCK
 70
0
  3

 72
65
 73
0
 40
0.0
  0
LTYPE
  5
15
100
AcDbSymbolTableRecord
100
AcDbLinetypeTableRecord
  2
BYLAYER
 70
0
  3

 72
65
 73
0
 40
0.0
  0
LTYPE
  5
16
100
AcDbSymbolTableRecord
100
AcDbLinetypeTableRecord
  2
CONTINUOUS
 70
64
  3
Solid line
 72
65
 73
0
 40
0.0
  0
LTYPE
  5
1F5
100
AcDbSymbolTableRecord
100
AcDbLinetypeTableRecord
  2
CENTER
 70
64
  3
____ _ ____ _ ____ _ ____ _ ____ _ ____ _ ____
 72
65
 73
4
 40
0.6
 49
0.375
 74
0
 49
-0.075
 74
0
 49
0.075
 74
0
 49
-0.075
 74
0
  0
LTYPE
  5
1F6
100
AcDbSymbolTableRecord
100
AcDbLinetypeTableRecord
  2
HIDDEN
 70
64
  3
- - - - - - - - - - - - - - - - - - - -
 72
65
 73
2
 40
0.2
 49
0.1
 74
0
 49
-0.1
 74
0
  0
LTYPE
  5
1F7
100
AcDbSymbolTableRecord
100
AcDbLinetypeTableRecord
  2
PHANTOM
 70
64
  3
_____ _ _ _____ _ _ _____ _ _ _____
 72
65
 73
6
 40
0.8
 49
0.45
 74
0
 49
-0.05
 74
0
 49
0.1
 74
0
 49
-0.05
 74
0
 49
0.1
 74
0
 49
-0.05
 74
0
  0
LTYPE
  5
1F8
100
AcDbSymbolTableRecord
100
AcDbLinetypeTableRecord
  2
DOT
 70
64
  3
. . . . . . . . . . . . . . . . . . . .
 72
65
 73
2
 40
0.2
 49
0.1
 74
0
 49
-0.1
 74
0
  0
LTYPE
  5
1F9
100
AcDbSymbolTableRecord
100
AcDbLinetypeTableRecord
  2
DASHED
 70
64
  3
- - - - - - - - - - - - - - - - - - - -
 72
65
 73
2
 40
0.2
 49
0.1
 74
0
 49
-0.1
 74
0
  0
ENDTAB
  0
TABLE
  2
LAYER
  5
2
100
AcDbSymbolTable
 70
36
  0
LAYER
  5
10
100
AcDbSymbolTableRecord
100
AcDbLayerTableRecord
  2
0
 70
0
 62
7
  6
CONTINUOUS
370
-3
390
F
  0
LAYER
  5
1FA
100
AcDbSymbolTableRecord
100
AcDbLayerTableRecord
  2
DEFAULT_1
 70
0
 62
7
  6
CENTER
370
-3
390
F
  0
LAYER
  5
1FB
100
AcDbSymbolTableRecord
100
AcDbLayerTableRecord
  2
DEFAULT_2
 70
0
 62
8
  6
HIDDEN
370
-3
390
F
  0
LAYER
  5
1FC
100
AcDbSymbolTableRecord
100
AcDbLayerTableRecord
  2
DEFAULT_3
 70
0
 62
7
  6
PHANTOM
370
-3
390
F
  0
LAYER
  5
1FD
100
AcDbSymbolTableRecord
100
AcDbLayerTableRecord
  2
01_ALL_DTM_PLN
 70
0
 62
7
  6
CONTINUOUS
370
-3
390
F
  0
LAYER
  5
1FE
100
AcDbSymbolTableRecord
100
AcDbLayerTableRecord
  2
01__ASM_ALL_DTM_PLN
 70
0
 62
7
  6
CONTINUOUS
370
-3
390
F
  0
LAYER
  5
1FF
100
AcDbSymbolTableRecord
100
AcDbLayerTableRecord
  2
01__ASM_DEF_DTM_PLN
 70
0
 62
7
  6
CONTINUOUS
370
-3
390
F
  0
LAYER
  5
200
100
AcDbSymbolTableRecord
100
AcDbLayerTableRecord
  2
01___PRT_ALL_DTM_PLN
 70
0
 62
7
  6
CONTINUOUS
370
-3
390
F
  0
LAYER
  5
201
100
AcDbSymbolTableRecord
100
AcDbLayerTableRecord
  2
01___PRT_DEF_DTM_PLN
 70
0
 62
7
  6
CONTINUOUS
370
-3
390
F
  0
LAYER
  5
202
100
AcDbSymbolTableRecord
100
AcDbLayerTableRecord
  2
02_ALL_AXES
 70
0
 62
7
  6
CONTINUOUS
370
-3
390
F
  0
LAYER
  5
203
100
AcDbSymbolTableRecord
100
AcDbLayerTableRecord
  2
02__ASM_ALL_AXES
 70
0
 62
7
  6
CONTINUOUS
370
-3
390
F
  0
LAYER
  5
204
100
AcDbSymbolTableRecord
100
AcDbLayerTableRecord
  2
02___PRT_ALL_AXES
 70
0
 62
7
  6
CONTINUOUS
370
-3
390
F
  0
LAYER
  5
205
100
AcDbSymbolTableRecord
100
AcDbLayerTableRecord
  2
03_ALL_CURVES
 70
0
 62
7
  6
CONTINUOUS
370
-3
390
F
  0
LAYER
  5
206
100
AcDbSymbolTableRecord
100
AcDbLayerTableRecord
  2
03__ASM_ALL_CURVES
 70
0
 62
7
  6
CONTINUOUS
370
-3
390
F
  0
LAYER
  5
207
100
AcDbSymbolTableRecord
100
AcDbLayerTableRecord
  2
03___PRT_ALL_CURVES
 70
0
 62
7
  6
CONTINUOUS
370
-3
390
F
  0
LAYER
  5
208
100
AcDbSymbolTableRecord
100
AcDbLayerTableRecord
  2
04_ALL_DTM_PNT
 70
0
 62
7
  6
CONTINUOUS
370
-3
390
F
  0
LAYER
  5
209
100
AcDbSymbolTableRecord
100
AcDbLayerTableRecord
  2
04__ASM_ALL_DTM_PNT
 70
0
 62
7
  6
CONTINUOUS
370
-3
390
F
  0
LAYER
  5
20A
100
AcDbSymbolTableRecord
100
AcDbLayerTableRecord
  2
04___PRT_ALL_DTM_PNT
 70
0
 62
7
  6
CONTINUOUS
370
-3
390
F
  0
LAYER
  5
20B
100
AcDbSymbolTableRecord
100
AcDbLayerTableRecord
  2
05_ALL_DTM_CSYS
 70
0
 62
7
  6
CONTINUOUS
370
-3
390
F
  0
LAYER
  5
20C
100
AcDbSymbolTableRecord
100
AcDbLayerTableRecord
  2
05__ASM_ALL_DTM_CSYS
 70
0
 62
7
  6
CONTINUOUS
370
-3
390
F
  0
LAYER
  5
20D
100
AcDbSymbolTableRecord
100
AcDbLayerTableRecord
  2
05__ASM_DEF_DTM_CSYS
 70
0
 62
7
  6
CONTINUOUS
370
-3
390
F
  0
LAYER
  5
20E
100
AcDbSymbolTableRecord
100
AcDbLayerTableRecord
  2
05___PRT_ALL_DTM_CSYS
 70
0
 62
7
  6
CONTINUOUS
370
-3
390
F
  0
LAYER
  5
20F
100
AcDbSymbolTableRecord
100
AcDbLayerTableRecord
  2
05___PRT_DEF_DTM_CSYS
 70
0
 62
7
  6
CONTINUOUS
370
-3
390
F
  0
LAYER
  5
210
100
AcDbSymbolTableRecord
100
AcDbLayerTableRecord
  2
06_ALL_SURFS
 70
0
 62
7
  6
CONTINUOUS
370
-3
390
F
  0
LAYER
  5
211
100
AcDbSymbolTableRecord
100
AcDbLayerTableRecord
  2
06__ASM_ALL_SURFS
 70
0
 62
7
  6
CONTINUOUS
370
-3
390
F
  0
LAYER
  5
212
100
AcDbSymbolTableRecord
100
AcDbLayerTableRecord
  2
06___PRT_ALL_SURFS
 70
0
 62
7
  6
CONTINUOUS
370
-3
390
F
  0
LAYER
  5
213
100
AcDbSymbolTableRecord
100
AcDbLayerTableRecord
  2
07__ASM_ALL_SKELETONS
 70
0
 62
7
  6
CONTINUOUS
370
-3
390
F
  0
ENDTAB
  0
TABLE
  2
STYLE
  5
3
100
AcDbSymbolTable
 70
1
  0
STYLE
  5
11
100
AcDbSymbolTableRecord
100
AcDbTextStyleTableRecord
  2
STANDARD
 70
0
 40
0.0
 41
0.8
 50
0.0
 71
0
 42
0.2
  3
txt
  4

  0
STYLE
  5
214
100
AcDbSymbolTableRecord
100
AcDbTextStyleTableRecord
  2
TEXTSTYLE_1
 70
0
 40
0.0
 41
0.8
 50
0.0
 71
0
 42
0.2
  3
gdt
  4

  0
ENDTAB
  0
TABLE
  2
VIEW
  5
6
100
AcDbSymbolTable
 70
0
  0
ENDTAB
  0
TABLE
  2
UCS
  5
7
100
AcDbSymbolTable
 70
0
  0
ENDTAB
  0
TABLE
  2
APPID
  5
9
100
AcDbSymbolTable
 70
1
  0
APPID
  5
215
100
AcDbSymbolTableRecord
100
AcDbRegAppTableRecord
  2
ACAD
 70
0
  0
ENDTAB
  0
TABLE
  2
BLOCK_RECORD
  5
1
100
AcDbSymbolTable
 70
0
  0
BLOCK_RECORD
  5
216
100
AcDbSymbolTableRecord
100
AcDbBlockTableRecord
  2
*Model_Space
  0
BLOCK_RECORD
  5
217
100
AcDbSymbolTableRecord
100
AcDbBlockTableRecord
  2
*Paper_Space
  0
ENDTAB
  0
TABLE
  2
DIMSTYLE
  5
A
100
AcDbSymbolTable
 70
1
100
AcDbDimStyleTable
 71
0
  0
DIMSTYLE
105
218
100
AcDbSymbolTableRecord
100
AcDbDimStyleTableRecord
  2
STANDARD
 70
0
  3

  4

 40
1.0
 41
0.1875
 42
0.0625
 43
0.38
 44
0.125
 45
0.0
 46
0.0
 47
0.0001
 48
0.0001
140
0.15625
141
0.09
142
0.0
143
25.4
144
1.0
145
0.0
146
1.0
147
0.09
 71
0.0
 72
0.0
 73
1
 74
1
 75
0
 76
0
 77
0
 78
4
 79
1
170
0
171
3
172
0
173
0
174
0
175
0
176
0
177
0
178
0
270
2
179
4
271
4
272
4
273
2
274
2
275
0
280
0
281
0
282
0
283
1
284
4
285
0
286
0
287
3
288
0
340
11
278
46
  0
ENDTAB
  0
ENDSEC
  0
SECTION
  2
BLOCKS
  0
BLOCK
  5
20
100
AcDbEntity
  8
0
100
AcDbBlockBegin
  2
*Model_Space
 70
0
 10
0.0
 20
0.0
 30
0.0
  3
*Model_Space
  1

  0
ENDBLK
  5
21
100
AcDbEntity
  8
0
100
AcDbBlockEnd
  0
BLOCK
  5
1C
100
AcDbEntity
  8
0
100
AcDbBlockBegin
  2
*Paper_Space
 70
0
 10
0.0
 20
0.0
 30
0.0
  3
*Paper_Space
  1

  0
ENDBLK
  5
1D
100
AcDbEntity
  8
0
100
AcDbBlockEnd
  0
ENDSEC
  0
SECTION
  2
ENTITIES
  0
MTEXT
  5
219
100
AcDbEntity
  8
0
100
AcDbMText
 62
7
  6
CONTINUOUS
  7
STANDARD
 71
1
 72
1
 10
15.9560215477
 20
0.9479130325
 30
0.0
 11
1.0
 21
0.0
 31
0.0
 44
0.9
  1
SCALE: 1:1.000
 40
0.3
 41
3.36
  0
LINE
  5
21A
100
AcDbEntity
  8
0
100
AcDbLine
 62
7
  6
CONTINUOUS
 10
0.0
 20
0.0
 11
0.0
 21
17.0
  0
LINE
  5
21B
100
AcDbEntity
  8
0
100
AcDbLine
 62
7
  6
CONTINUOUS
 10
0.0
 20
0.0
 11
22.0
 21
0.0
  0
LINE
  5
21C
100
AcDbEntity
  8
0
100
AcDbLine
 62
7
  6
CONTINUOUS
 10
0.0
 20
17.0
 11
22.0
 21
17.0
  0
LINE
  5
21D
100
AcDbEntity
  8
0
100
AcDbLine
 62
7
  6
CONTINUOUS
 10
22.0
 20
0.0
 11
22.0
 21
17.0
  0
LINE
  5
21E
100
AcDbEntity
  8
0
100
AcDbLine
 62
7
  6
CONTINUOUS
 10
5.4353672762
 20
5.7701198977
 11
5.4353672762
 21
5.6698983538
  0
LINE
  5
21F
100
AcDbEntity
  8
0
100
AcDbLine
 62
7
  6
CONTINUOUS
 10
5.5334898248
 20
5.2640718503
 11
5.4383377035
 21
5.6457061642
  0
LINE
  5
220
100
AcDbEntity
  8
0
100
AcDbLine
 62
7
  6
CONTINUOUS
 10
5.557747218
 20
5.2451198977
 11
6.7029873343
 21
5.2451198977
  0
LINE
  5
221
100
AcDbEntity
  8
0
100
AcDbLine
 62
7
  6
CONTINUOUS
 10
5.5120370841
 20
5.428453231
 11
6.7486974682
 21
5.428453231
  0
LINE
  5
222
100
AcDbEntity
  8
0
100
AcDbLine
 62
7
  6
CONTINUOUS
 10
6.8003672762
 20
5.7951198977
 11
5.4603672762
 21
5.7951198977
  0
LINE
  5
223
100
AcDbEntity
  8
0
100
AcDbLine
 62
7
  6
CONTINUOUS
 10
6.7272447275
 20
5.2640718503
 11
6.8223968488
 21
5.6457061642
  0
LINE
  5
224
100
AcDbEntity
  8
0
100
AcDbLine
 62
7
  6
CONTINUOUS
 10
6.8253672762
 20
5.6698983538
 11
6.8253672762
 21
5.7701198977
  0
LINE
  5
225
100
AcDbEntity
  8
0
100
AcDbLine
 62
7
  6
CONTINUOUS
 10
6.7658720839
 20
10.6000477814
 11
5.3758720839
 21
10.6000477814
  0
LINE
  5
226
100
AcDbEntity
  8
0
100
AcDbLine
 62
7
  6
CONTINUOUS
 10
5.3758720839
 20
10.6000477814
 11
5.3758720839
 21
14.6000477814
  0
LINE
  5
227
100
AcDbEntity
  8
0
100
AcDbLine
 62
7
  6
CONTINUOUS
 10
6.7658720839
 20
10.6000477814
 11
6.7658720839
 21
14.6000477814
  0
LINE
  5
228
100
AcDbEntity
  8
0
100
AcDbLine
 62
7
  6
CONTINUOUS
 10
5.3758720839
 20
14.6000477814
 11
6.7658720839
 21
14.6000477814
  0
LINE
  5
229
100
AcDbEntity
  8
0
100
AcDbLine
 62
7
  6
CONTINUOUS
 10
13.5603552569
 20
5.3689580387
 11
13.5603552569
 21
5.7356247054
  0
LINE
  5
22A
100
AcDbEntity
  8
0
100
AcDbLine
 62
7
  6
CONTINUOUS
 10
13.6723934879
 20
5.333434962
 11
13.698317026
 21
5.221147782
  0
LINE
  5
22B
100
AcDbEntity
  8
0
100
AcDbLine
 62
7
  6
CONTINUOUS
 10
13.9223934879
 20
5.221147782
 11
13.948317026
 21
5.333434962
  0
LINE
  5
22C
100
AcDbEntity
  8
0
100
AcDbLine
 62
7
  6
CONTINUOUS
 10
14.1723934879
 20
5.333434962
 11
14.198317026
 21
5.221147782
  0
LINE
  5
22D
100
AcDbEntity
  8
0
100
AcDbLine
 62
7
  6
CONTINUOUS
 10
14.4223934879
 20
5.221147782
 11
14.448317026
 21
5.333434962
  0
LINE
  5
22E
100
AcDbEntity
  8
0
100
AcDbLine
 62
7
  6
CONTINUOUS
 10
14.6723934879
 20
5.333434962
 11
14.698317026
 21
5.221147782
  0
LINE
  5
22F
100
AcDbEntity
  8
0
100
AcDbLine
 62
7
  6
CONTINUOUS
 10
14.9223934879
 20
5.221147782
 11
14.948317026
 21
5.333434962
  0
LINE
  5
230
100
AcDbEntity
  8
0
100
AcDbLine
 62
7
  6
CONTINUOUS
 10
15.1723934879
 20
5.333434962
 11
15.198317026
 21
5.221147782
  0
LINE
  5
231
100
AcDbEntity
  8
0
100
AcDbLine
 62
7
  6
CONTINUOUS
 10
13.742975654
 20
5.1856247054
 11
13.8777348599
 21
5.1856247054
  0
LINE
  5
232
100
AcDbEntity
  8
0
100
AcDbLine
 62
7
  6
CONTINUOUS
 10
14.242975654
 20
5.1856247054
 11
14.3777348599
 21
5.1856247054
  0
LINE
  5
233
100
AcDbEntity
  8
0
100
AcDbLine
 62
7
  6
CONTINUOUS
 10
14.742975654
 20
5.1856247054
 11
14.8777348599
 21
5.1856247054
  0
LINE
  5
234
100
AcDbEntity
  8
0
100
AcDbLine
 62
7
  6
CONTINUOUS
 10
15.242975654
 20
5.1856247054
 11
15.3777348599
 21
5.1856247054
  0
LINE
  5
235
100
AcDbEntity
  8
0
100
AcDbLine
 62
7
  6
CONTINUOUS
 10
15.742975654
 20
5.1856247054
 11
15.8777348599
 21
5.1856247054
  0
LINE
  5
236
100
AcDbEntity
  8
0
100
AcDbLine
 62
7
  6
CONTINUOUS
 10
16.242975654
 20
5.1856247054
 11
16.3777348599
 21
5.1856247054
  0
LINE
  5
237
100
AcDbEntity
  8
0
100
AcDbLine
 62
7
  6
CONTINUOUS
 10
16.742975654
 20
5.1856247054
 11
16.8777348599
 21
5.1856247054
  0
LINE
  5
238
100
AcDbEntity
  8
0
100
AcDbLine
 62
7
  6
CONTINUOUS
 10
17.242975654
 20
5.1856247054
 11
17.3777348599
 21
5.1856247054
  0
LINE
  5
239
100
AcDbEntity
  8
0
100
AcDbLine
 62
7
  6
CONTINUOUS
 10
15.4223934879
 20
5.221147782
 11
15.448317026
 21
5.333434962
  0
LINE
  5
23A
100
AcDbEntity
  8
0
100
AcDbLine
 62
7
  6
CONTINUOUS
 10
13.5603552569
 20
5.3689580387
 11
13.6277348599
 21
5.3689580387
  0
LINE
  5
23B
100
AcDbEntity
  8
0
100
AcDbLine
 62
7
  6
CONTINUOUS
 10
13.992975654
 20
5.3689580387
 11
14.1277348599
 21
5.3689580387
  0
LINE
  5
23C
100
AcDbEntity
  8
0
100
AcDbLine
 62
7
  6
CONTINUOUS
 10
14.492975654
 20
5.3689580387
 11
14.6277348599
 21
5.3689580387
  0
LINE
  5
23D
100
AcDbEntity
  8
0
100
AcDbLine
 62
7
  6
CONTINUOUS
 10
14.992975654
 20
5.3689580387
 11
15.1277348599
 21
5.3689580387
  0
LINE
  5
23E
100
AcDbEntity
  8
0
100
AcDbLine
 62
7
  6
CONTINUOUS
 10
15.492975654
 20
5.3689580387
 11
15.6277348599
 21
5.3689580387
  0
LINE
  5
23F
100
AcDbEntity
  8
0
100
AcDbLine
 62
7
  6
CONTINUOUS
 10
15.992975654
 20
5.3689580387
 11
16.1277348599
 21
5.3689580387
  0
LINE
  5
240
100
AcDbEntity
  8
0
100
AcDbLine
 62
7
  6
CONTINUOUS
 10
16.492975654
 20
5.3689580387
 11
16.6277348599
 21
5.3689580387
  0
LINE
  5
241
100
AcDbEntity
  8
0
100
AcDbLine
 62
7
  6
CONTINUOUS
 10
16.992975654
 20
5.3689580387
 11
17.1277348599
 21
5.3689580387
  0
LINE
  5
242
100
AcDbEntity
  8
0
100
AcDbLine
 62
7
  6
CONTINUOUS
 10
17.492975654
 20
5.3689580387
 11
17.5603552569
 21
5.3689580387
  0
LINE
  5
243
100
AcDbEntity
  8
0
100
AcDbLine
 62
7
  6
CONTINUOUS
 10
15.6723934879
 20
5.333434962
 11
15.698317026
 21
5.221147782
  0
LINE
  5
244
100
AcDbEntity
  8
0
100
AcDbLine
 62
7
  6
CONTINUOUS
 10
13.5603552569
 20
5.7356247054
 11
17.5603552569
 21
5.7356247054
  0
LINE
  5
245
100
AcDbEntity
  8
0
100
AcDbLine
 62
7
  6
CONTINUOUS
 10
15.9223934879
 20
5.221147782
 11
15.948317026
 21
5.333434962
  0
LINE
  5
246
100
AcDbEntity
  8
0
100
AcDbLine
 62
7
  6
CONTINUOUS
 10
16.1723934879
 20
5.333434962
 11
16.198317026
 21
5.221147782
  0
LINE
  5
247
100
AcDbEntity
  8
0
100
AcDbLine
 62
7
  6
CONTINUOUS
 10
16.4223934879
 20
5.221147782
 11
16.448317026
 21
5.333434962
  0
LINE
  5
248
100
AcDbEntity
  8
0
100
AcDbLine
 62
7
  6
CONTINUOUS
 10
16.6723934879
 20
5.333434962
 11
16.698317026
 21
5.221147782
  0
LINE
  5
249
100
AcDbEntity
  8
0
100
AcDbLine
 62
7
  6
CONTINUOUS
 10
16.9223934879
 20
5.221147782
 11
16.948317026
 21
5.333434962
  0
LINE
  5
24A
100
AcDbEntity
  8
0
100
AcDbLine
 62
7
  6
CONTINUOUS
 10
17.1723934879
 20
5.333434962
 11
17.198317026
 21
5.221147782
  0
LINE
  5
24B
100
AcDbEntity
  8
0
100
AcDbLine
 62
7
  6
CONTINUOUS
 10
17.5603552569
 20
5.3689580387
 11
17.5603552569
 21
5.7356247054
  0
LINE
  5
24C
100
AcDbEntity
  8
0
100
AcDbLine
 62
7
  6
CONTINUOUS
 10
17.4223934879
 20
5.221147782
 11
17.448317026
 21
5.333434962
  0
LINE
  5
24D
100
AcDbEntity
  8
0
100
AcDbLine
 62
7
  6
CONTINUOUS
 10
14.3630613124
 20
10.965235935
 11
14.4690904997
 21
10.8419700688
  0
LWPOLYLINE
  5
24E
100
AcDbEntity
  8
0
100
AcDbPolyline
 62
7
  6
CONTINUOUS
 90
5
 70
0
 10
15.6821064432
 20
10.841936159
 10
15.6930049394
 20
10.8443255725
 10
15.7011375706
 20
10.8500833414
 10
15.7064118669
 20
10.8573206384
 10
15.7095607025
 20
10.8644817923
  0
LINE
  5
24F
100
AcDbEntity
  8
0
100
AcDbLine
 62
7
  6
CONTINUOUS
 10
14.4972141774
 20
10.8301893461
 11
15.63625382
 21
10.8301893461
  0
LINE
  5
250
100
AcDbEntity
  8
0
100
AcDbLine
 62
7
  6
CONTINUOUS
 10
15.6536219783
 20
10.8419361134
 11
15.6821116837
 21
10.8419361134
  0
LINE
  5
251
100
AcDbEntity
  8
0
100
AcDbLine
 62
7
  6
CONTINUOUS
 10
14.3223739701
 20
11.042572752
 11
14.3529457369
 21
10.9802740412
  0
LINE
  5
252
100
AcDbEntity
  8
0
100
AcDbLine
 62
7
  6
CONTINUOUS
 10
15.5719961802
 20
11.0581130012
 11
14.3377744483
 21
11.0581130012
  0
LWPOLYLINE
  5
253
100
AcDbEntity
  8
0
100
AcDbPolyline
 62
7
  6
CONTINUOUS
 90
5
 70
0
 10
15.8031396049
 20
11.2335996138
 10
15.8140381011
 20
11.2359890273
 10
15.8221707323
 20
11.2417467962
 10
15.8274450286
 20
11.2489840932
 10
15.8305938642
 20
11.2561452471
  0
LINE
  5
254
100
AcDbEntity
  8
0
100
AcDbLine
 62
7
  6
CONTINUOUS
 10
15.77465514
 20
11.2335995682
 11
15.8031448454
 21
11.2335995682
  0
LWPOLYLINE
  5
255
100
AcDbEntity
  8
0
100
AcDbPolyline
 62
7
  6
CONTINUOUS
 90
5
 70
0
 10
15.9241727666
 20
11.6252630686
 10
15.9350712629
 20
11.6276524821
 10
15.943203894
 20
11.633410251
 10
15.9484781903
 20
11.640647548
 10
15.9516270259
 20
11.6478087019
  0
LINE
  5
256
100
AcDbEntity
  8
0
100
AcDbLine
 62
7
  6
CONTINUOUS
 10
15.8956883017
 20
11.625263023
 11
15.9241780071
 21
11.625263023
  0
LINE
  5
257
100
AcDbEntity
  8
0
100
AcDbLine
 62
7
  6
CONTINUOUS
 10
14.3215149738
 20
11.0499539362
 11
15.2897802674
 21
14.1832615748
  0
LWPOLYLINE
  5
258
100
AcDbEntity
  8
0
100
AcDbPolyline
 62
7
  6
CONTINUOUS
 90
5
 70
0
 10
16.0452059283
 20
12.0169265234
 10
16.0561044246
 20
12.0193159369
 10
16.0642370557
 20
12.0250737058
 10
16.069511352
 20
12.0323110028
 10
16.0726601876
 20
12.0394721568
  0
LINE
  5
259
100
AcDbEntity
  8
0
100
AcDbLine
 62
7
  6
CONTINUOUS
 10
15.6332205186
 20
10.9802740412
 11
15.6026487517
 21
11.042572752
  0
LINE
  5
25A
100
AcDbEntity
  8
0
100
AcDbLine
 62
7
  6
CONTINUOUS
 10
16.0167214634
 20
12.0169264778
 11
16.0452111688
 21
12.0169264778
  0
LWPOLYLINE
  5
25B
100
AcDbEntity
  8
0
100
AcDbPolyline
 62
7
  6
CONTINUOUS
 90
5
 70
0
 10
16.16623909
 20
12.4085899782
 10
16.1771375863
 20
12.4109793917
 10
16.1852702174
 20
12.4167371606
 10
16.1905445137
 20
12.4239744577
 10
16.1936933493
 20
12.4311356116
  0
LINE
  5
25C
100
AcDbEntity
  8
0
100
AcDbLine
 62
7
  6
CONTINUOUS
 10
16.1377546251
 20
12.4085899327
 11
16.1662443305
 21
12.4085899327
  0
LINE
  5
25D
100
AcDbEntity
  8
0
100
AcDbLine
 62
7
  6
CONTINUOUS
 10
15.6528152196
 20
10.8419700688
 11
15.6378642044
 21
10.965235935
  0
LWPOLYLINE
  5
25E
100
AcDbEntity
  8
0
100
AcDbPolyline
 62
7
  6
CONTINUOUS
 90
5
 70
0
 10
16.2872722517
 20
12.8002534331
 10
16.298170748
 20
12.8026428465
 10
16.3063033791
 20
12.8084006154
 10
16.3115776754
 20
12.8156379125
 10
16.314726511
 20
12.8227990664
  0
LINE
  5
25F
100
AcDbEntity
  8
0
100
AcDbLine
 62
7
  6
CONTINUOUS
 10
15.7479662162
 20
11.0069254912
 11
15.745775476
 21
11.0970309261
  0
LWPOLYLINE
  5
260
100
AcDbEntity
  8
0
100
AcDbPolyline
 62
7
  6
CONTINUOUS
 90
7
 70
0
 10
15.7457743668
 20
11.0970551213
 10
15.7457625991
 20
11.1039383571
 10
15.7465938541
 20
11.1194979238
 10
15.7485912591
 20
11.1369989875
 10
15.751589738
 20
11.1545281995
 10
15.7552032903
 20
11.1701376435
 10
15.7572307327
 20
11.177218386
  0
LINE
  5
261
100
AcDbEntity
  8
0
100
AcDbLine
 62
7
  6
CONTINUOUS
 10
16.2587877868
 20
12.8002533875
 11
16.2872774922
 21
12.8002533875
  0
LINE
  5
262
100
AcDbEntity
  8
0
100
AcDbLine
 62
7
  6
CONTINUOUS
 10
15.8689993779
 20
11.3985889461
 11
15.8668086377
 21
11.488694381
  0
LWPOLYLINE
  5
263
100
AcDbEntity
  8
0
100
AcDbPolyline
 62
7
  6
CONTINUOUS
 90
7
 70
0
 10
15.8668075285
 20
11.4887185761
 10
15.8667957608
 20
11.4956018119
 10
15.8676270158
 20
11.5111613786
 10
15.8696244208
 20
11.5286624423
 10
15.8726228997
 20
11.5461916543
 10
15.876236452
 20
11.5618010983
 10
15.8782638944
 20
11.5688818408
  0
LINE
  5
264
100
AcDbEntity
  8
0
100
AcDbLine
 62
7
  6
CONTINUOUS
 10
15.7478850748
 20
11.0008109023
 11
15.7479646597
 21
11.0069829272
  0
LINE
  5
265
100
AcDbEntity
  8
0
100
AcDbLine
 62
7
  6
CONTINUOUS
 10
15.8689182365
 20
11.3924743571
 11
15.8689978214
 21
11.398646382
  0
LINE
  5
266
100
AcDbEntity
  8
0
100
AcDbLine
 62
7
  6
CONTINUOUS
 10
15.6525111356
 20
10.8383490754
 11
15.6528152196
 21
10.8419700688
  0
LINE
  5
267
100
AcDbEntity
  8
0
100
AcDbLine
 62
7
  6
CONTINUOUS
 10
16.5213143256
 20
13.6464935491
 11
16.5220216568
 21
13.6477614988
  0
LINE
  5
268
100
AcDbEntity
  8
0
100
AcDbLine
 62
7
  6
CONTINUOUS
 10
16.287271829
 20
12.8002533913
 11
16.2872776112
 21
12.8002533875
  0
LINE
  5
269
100
AcDbEntity
  8
0
100
AcDbLine
 62
7
  6
CONTINUOUS
 10
15.9900325396
 20
11.7902524009
 11
15.9878417995
 21
11.8803578358
  0
LWPOLYLINE
  5
26A
100
AcDbEntity
  8
0
100
AcDbPolyline
 62
7
  6
CONTINUOUS
 90
7
 70
0
 10
15.9878406902
 20
11.8803820309
 10
15.9878289225
 20
11.8872652667
 10
15.9886601775
 20
11.9028248334
 10
15.9906575825
 20
11.9203258972
 10
15.9936560614
 20
11.9378551091
 10
15.9972696137
 20
11.9534645531
 10
15.9992970561
 20
11.9605452956
  0
LINE
  5
26B
100
AcDbEntity
  8
0
100
AcDbLine
 62
7
  6
CONTINUOUS
 10
15.9899513982
 20
11.7841378119
 11
15.9900309831
 21
11.7903098368
  0
LWPOLYLINE
  5
26C
100
AcDbEntity
  8
0
100
AcDbPolyline
 62
7
  6
CONTINUOUS
 90
3
 70
0
 10
15.7446845007
 20
10.9785623757
 10
15.7467993766
 20
10.9896477538
 10
15.7478850748
 20
11.0008109023
  0
LINE
  5
26D
100
AcDbEntity
  8
0
100
AcDbLine
 62
7
  6
CONTINUOUS
 10
16.4002811639
 20
13.2548300943
 11
16.4009884951
 21
13.256098044
  0
LINE
  5
26E
100
AcDbEntity
  8
0
100
AcDbLine
 62
7
  6
CONTINUOUS
 10
16.2792480022
 20
12.8631666395
 11
16.2799553334
 21
12.8644345892
  0
LWPOLYLINE
  5
26F
100
AcDbEntity
  8
0
100
AcDbPolyline
 62
7
  6
CONTINUOUS
 90
5
 70
0
 10
16.4083054134
 20
13.1919168879
 10
16.4192039097
 20
13.1943063013
 10
16.4273365408
 20
13.2000640702
 10
16.4326108371
 20
13.2073013673
 10
16.4357596727
 20
13.2144625212
  0
LINE
  5
270
100
AcDbEntity
  8
0
100
AcDbLine
 62
7
  6
CONTINUOUS
 10
16.1110657013
 20
12.1819158557
 11
16.1088749612
 21
12.2720212906
  0
LWPOLYLINE
  5
271
100
AcDbEntity
  8
0
100
AcDbPolyline
 62
7
  6
CONTINUOUS
 90
7
 70
0
 10
16.1088738519
 20
12.2720454857
 10
16.1088620842
 20
12.2789287215
 10
16.1096933392
 20
12.2944882882
 10
16.1116907442
 20
12.311989352
 10
16.1146892231
 20
12.3295185639
 10
16.1183027754
 20
12.3451280079
 10
16.1203302178
 20
12.3522087504
  0
LINE
  5
272
100
AcDbEntity
  8
0
100
AcDbLine
 62
7
  6
CONTINUOUS
 10
16.1109845599
 20
12.1758012667
 11
16.1110641448
 21
12.1819732916
  0
LWPOLYLINE
  5
273
100
AcDbEntity
  8
0
100
AcDbPolyline
 62
7
  6
CONTINUOUS
 90
3
 70
0
 10
15.8657176624
 20
11.3702258305
 10
15.8678325383
 20
11.3813112086
 10
15.8689182365
 20
11.3924743571
  0
LWPOLYLINE
  5
274
100
AcDbEntity
  8
0
100
AcDbPolyline
 62
7
  6
CONTINUOUS
 90
3
 70
0
 10
15.9867508242
 20
11.7618892853
 10
15.9888657
 20
11.7729746635
 10
15.9899513982
 20
11.7841378119
  0
LWPOLYLINE
  5
275
100
AcDbEntity
  8
0
100
AcDbPolyline
 62
7
  6
CONTINUOUS
 90
3
 70
0
 10
16.1077839859
 20
12.1535527401
 10
16.1098988617
 20
12.1646381183
 10
16.1109845599
 20
12.1758012667
  0
LINE
  5
276
100
AcDbEntity
  8
0
100
AcDbLine
 62
7
  6
CONTINUOUS
 10
15.7431506257
 20
10.9729597583
 11
15.7446845007
 21
10.9785623757
  0
LINE
  5
277
100
AcDbEntity
  8
0
100
AcDbLine
 62
7
  6
CONTINUOUS
 10
15.8641837874
 20
11.3646232131
 11
15.8657176624
 21
11.3702258305
  0
LINE
  5
278
100
AcDbEntity
  8
0
100
AcDbLine
 62
7
  6
CONTINUOUS
 10
15.9852169491
 20
11.7562866679
 11
15.9867508242
 21
11.7618892853
  0
LINE
  5
279
100
AcDbEntity
  8
0
100
AcDbLine
 62
7
  6
CONTINUOUS
 10
15.6535612306
 20
10.841739534
 11
15.6688236281
 21
10.8911286703
  0
LINE
  5
27A
100
AcDbEntity
  8
0
100
AcDbLine
 62
7
  6
CONTINUOUS
 10
15.7572361233
 20
11.1772316097
 11
15.7898567898
 21
11.2827921252
  0
LINE
  5
27B
100
AcDbEntity
  8
0
100
AcDbLine
 62
7
  6
CONTINUOUS
 10
15.878269285
 20
11.5688950645
 11
15.9108899515
 21
11.67445558
  0
LINE
  5
27C
100
AcDbEntity
  8
0
100
AcDbLine
 62
7
  6
CONTINUOUS
 10
15.9993024467
 20
11.9605585193
 11
16.0319231132
 21
12.0661190348
  0
LINE
  5
27D
100
AcDbEntity
  8
0
100
AcDbLine
 62
7
  6
CONTINUOUS
 10
16.1203356084
 20
12.3522219741
 11
16.1529562749
 21
12.4577824896
  0
LINE
  5
27E
100
AcDbEntity
  8
0
100
AcDbLine
 62
7
  6
CONTINUOUS
 10
16.2413687702
 20
12.743885429
 11
16.2739894366
 21
12.8494459444
  0
LINE
  5
27F
100
AcDbEntity
  8
0
100
AcDbLine
 62
7
  6
CONTINUOUS
 10
16.3624019319
 20
13.1355488838
 11
16.3950225983
 21
13.2411093992
  0
LINE
  5
280
100
AcDbEntity
  8
0
100
AcDbLine
 62
7
  6
CONTINUOUS
 10
16.4834350936
 20
13.5272123386
 11
16.51605576
 21
13.632772854
  0
LINE
  5
281
100
AcDbEntity
  8
0
100
AcDbLine
 62
7
  6
CONTINUOUS
 10
16.6044682553
 20
13.9188757934
 11
16.620778588
 21
13.9716560496
  0
LINE
  5
282
100
AcDbEntity
  8
0
100
AcDbLine
 62
7
  6
CONTINUOUS
 10
16.5160556546
 20
13.6327754385
 11
16.5168342609
 21
13.6352204228
  0
LINE
  5
283
100
AcDbEntity
  8
0
100
AcDbLine
 62
7
  6
CONTINUOUS
 10
16.3950224929
 20
13.2411119837
 11
16.3958010992
 21
13.243556968
  0
LINE
  5
284
100
AcDbEntity
  8
0
100
AcDbLine
 62
7
  6
CONTINUOUS
 10
16.2739893312
 20
12.8494485289
 11
16.2747679375
 21
12.8518935132
  0
LINE
  5
285
100
AcDbEntity
  8
0
100
AcDbLine
 62
7
  6
CONTINUOUS
 10
16.1529561695
 20
12.457785074
 11
16.1537347758
 21
12.4602300584
  0
LINE
  5
286
100
AcDbEntity
  8
0
100
AcDbLine
 62
7
  6
CONTINUOUS
 10
16.0319230078
 20
12.0661216192
 11
16.0327016141
 21
12.0685666036
  0
LINE
  5
287
100
AcDbEntity
  8
0
100
AcDbLine
 62
7
  6
CONTINUOUS
 10
15.9108898461
 20
11.6744581644
 11
15.9116684524
 21
11.6769031488
  0
LINE
  5
288
100
AcDbEntity
  8
0
100
AcDbLine
 62
7
  6
CONTINUOUS
 10
15.7898566844
 20
11.2827947096
 11
15.7906352907
 21
11.285239694
  0
LINE
  5
289
100
AcDbEntity
  8
0
100
AcDbLine
 62
7
  6
CONTINUOUS
 10
15.6688235227
 20
10.8911312548
 11
15.669602129
 21
10.8935762391
  0
LINE
  5
28A
100
AcDbEntity
  8
0
100
AcDbLine
 62
7
  6
CONTINUOUS
 10
16.5567928344
 20
13.606125976
 11
16.5577889385
 21
13.6091304732
  0
LINE
  5
28B
100
AcDbEntity
  8
0
100
AcDbLine
 62
7
  6
CONTINUOUS
 10
16.4357596727
 20
13.2144625212
 11
16.4367557768
 21
13.2174670184
  0
LWPOLYLINE
  5
28C
100
AcDbEntity
  8
0
100
AcDbPolyline
 62
7
  6
CONTINUOUS
 90
3
 70
0
 10
16.5168342609
 20
13.6352204228
 10
16.5193054363
 20
13.642048281
 10
16.5213143256
 20
13.6464935491
  0
LWPOLYLINE
  5
28D
100
AcDbEntity
  8
0
100
AcDbPolyline
 62
7
  6
CONTINUOUS
 90
3
 70
0
 10
16.3958010992
 20
13.243556968
 10
16.3982722746
 20
13.2503848261
 10
16.4002811639
 20
13.2548300943
  0
LWPOLYLINE
  5
28E
100
AcDbEntity
  8
0
100
AcDbPolyline
 62
7
  6
CONTINUOUS
 90
3
 70
0
 10
16.2747679375
 20
12.8518935132
 10
16.2772391129
 20
12.8587213713
 10
16.2792480022
 20
12.8631666395
  0
LWPOLYLINE
  5
28F
100
AcDbEntity
  8
0
100
AcDbPolyline
 62
7
  6
CONTINUOUS
 90
3
 70
0
 10
16.1537347758
 20
12.4602300584
 10
16.1562059512
 20
12.4670579165
 10
16.1582148405
 20
12.4715031847
  0
LWPOLYLINE
  5
290
100
AcDbEntity
  8
0
100
AcDbPolyline
 62
7
  6
CONTINUOUS
 90
3
 70
0
 10
16.0327016141
 20
12.0685666036
 10
16.0351727895
 20
12.0753944617
 10
16.0371816788
 20
12.0798397298
  0
LINE
  5
291
100
AcDbEntity
  8
0
100
AcDbLine
 62
7
  6
CONTINUOUS
 10
16.1582148405
 20
12.4715031847
 11
16.1589221717
 21
12.4727711344
  0
LINE
  5
292
100
AcDbEntity
  8
0
100
AcDbLine
 62
7
  6
CONTINUOUS
 10
16.3798209485
 20
13.1919168423
 11
16.4083106539
 21
13.1919168423
  0
LINE
  5
293
100
AcDbEntity
  8
0
100
AcDbLine
 62
7
  6
CONTINUOUS
 10
16.2320988631
 20
12.5735793105
 11
16.2299081229
 21
12.6636847454
  0
LWPOLYLINE
  5
294
100
AcDbEntity
  8
0
100
AcDbPolyline
 62
7
  6
CONTINUOUS
 90
7
 70
0
 10
16.2299070136
 20
12.6637089405
 10
16.2298952459
 20
12.6705921763
 10
16.2307265009
 20
12.686151743
 10
16.2327239059
 20
12.7036528068
 10
16.2357223848
 20
12.7211820187
 10
16.2393359371
 20
12.7367914627
 10
16.2413633795
 20
12.7438722052
  0
LINE
  5
295
100
AcDbEntity
  8
0
100
AcDbLine
 62
7
  6
CONTINUOUS
 10
16.2320177216
 20
12.5674647215
 11
16.2320973065
 21
12.5736367464
  0
LWPOLYLINE
  5
296
100
AcDbEntity
  8
0
100
AcDbPolyline
 62
7
  6
CONTINUOUS
 90
3
 70
0
 10
16.2288171476
 20
12.5452161949
 10
16.2309320234
 20
12.5563015731
 10
16.2320177216
 20
12.5674647215
  0
LWPOLYLINE
  5
297
100
AcDbEntity
  8
0
100
AcDbPolyline
 62
7
  6
CONTINUOUS
 90
3
 70
0
 10
16.3498503093
 20
12.9368796497
 10
16.3519651851
 20
12.9479650279
 10
16.3530508833
 20
12.9591281763
  0
LWPOLYLINE
  5
298
100
AcDbEntity
  8
0
100
AcDbPolyline
 62
7
  6
CONTINUOUS
 90
3
 70
0
 10
16.470883471
 20
13.3285431045
 10
16.4729983468
 20
13.3396284827
 10
16.474084045
 20
13.3507916312
  0
LINE
  5
299
100
AcDbEntity
  8
0
100
AcDbLine
 62
7
  6
CONTINUOUS
 10
16.1062501108
 20
12.1479501227
 11
16.1077839859
 21
12.1535527401
  0
LINE
  5
29A
100
AcDbEntity
  8
0
100
AcDbLine
 62
7
  6
CONTINUOUS
 10
16.2272832725
 20
12.5396135775
 11
16.2288171476
 21
12.5452161949
  0
LINE
  5
29B
100
AcDbEntity
  8
0
100
AcDbLine
 62
7
  6
CONTINUOUS
 10
16.3483164343
 20
12.9312770323
 11
16.3498503093
 21
12.9368796497
  0
LINE
  5
29C
100
AcDbEntity
  8
0
100
AcDbLine
 62
7
  6
CONTINUOUS
 10
16.469349596
 20
13.3229404872
 11
16.470883471
 21
13.3285431045
  0
LINE
  5
29D
100
AcDbEntity
  8
0
100
AcDbLine
 62
7
  6
CONTINUOUS
 10
16.5903827577
 20
13.714603942
 11
16.5919166327
 21
13.7202065594
  0
LINE
  5
29E
100
AcDbEntity
  8
0
100
AcDbLine
 62
7
  6
CONTINUOUS
 10
15.7105420634
 20
10.8674380548
 11
15.7431627289
 21
10.9729985672
  0
LINE
  5
29F
100
AcDbEntity
  8
0
100
AcDbLine
 62
7
  6
CONTINUOUS
 10
15.8315752251
 20
11.2591015096
 11
15.8641958906
 21
11.364662022
  0
LINE
  5
2A0
100
AcDbEntity
  8
0
100
AcDbLine
 62
7
  6
CONTINUOUS
 10
15.9526083868
 20
11.6507649644
 11
15.9852290523
 21
11.7563254768
  0
LINE
  5
2A1
100
AcDbEntity
  8
0
100
AcDbLine
 62
7
  6
CONTINUOUS
 10
16.0736415485
 20
12.0424284192
 11
16.106262214
 21
12.1479889317
  0
LINE
  5
2A2
100
AcDbEntity
  8
0
100
AcDbLine
 62
7
  6
CONTINUOUS
 10
16.1946747102
 20
12.434091874
 11
16.2272953757
 21
12.5396523865
  0
LINE
  5
2A3
100
AcDbEntity
  8
0
100
AcDbLine
 62
7
  6
CONTINUOUS
 10
16.3157078719
 20
12.8257553289
 11
16.3483285375
 21
12.9313158413
  0
LINE
  5
2A4
100
AcDbEntity
  8
0
100
AcDbLine
 62
7
  6
CONTINUOUS
 10
16.4367410336
 20
13.2174187837
 11
16.4693616992
 21
13.3229792961
  0
LINE
  5
2A5
100
AcDbEntity
  8
0
100
AcDbLine
 62
7
  6
CONTINUOUS
 10
16.5577741953
 20
13.6090822385
 11
16.5903948609
 21
13.7146427509
  0
LINE
  5
2A6
100
AcDbEntity
  8
0
100
AcDbLine
 62
7
  6
CONTINUOUS
 10
16.5903948609
 20
13.7146427509
 11
16.5903827621
 21
13.7146039408
  0
LINE
  5
2A7
100
AcDbEntity
  8
0
100
AcDbLine
 62
7
  6
CONTINUOUS
 10
16.4693616992
 20
13.3229792961
 11
16.4693496004
 21
13.322940486
  0
LINE
  5
2A8
100
AcDbEntity
  8
0
100
AcDbLine
 62
7
  6
CONTINUOUS
 10
16.3483285375
 20
12.9313158413
 11
16.3483164387
 21
12.9312770312
  0
LINE
  5
2A9
100
AcDbEntity
  8
0
100
AcDbLine
 62
7
  6
CONTINUOUS
 10
16.2272953757
 20
12.5396523865
 11
16.227283277
 21
12.5396135763
  0
LINE
  5
2AA
100
AcDbEntity
  8
0
100
AcDbLine
 62
7
  6
CONTINUOUS
 10
16.106262214
 20
12.1479889317
 11
16.1062501153
 21
12.1479501215
  0
LINE
  5
2AB
100
AcDbEntity
  8
0
100
AcDbLine
 62
7
  6
CONTINUOUS
 10
15.9852290523
 20
11.7563254768
 11
15.9852169536
 21
11.7562866667
  0
LINE
  5
2AC
100
AcDbEntity
  8
0
100
AcDbLine
 62
7
  6
CONTINUOUS
 10
15.8641958906
 20
11.364662022
 11
15.8641837919
 21
11.3646232119
  0
LINE
  5
2AD
100
AcDbEntity
  8
0
100
AcDbLine
 62
7
  6
CONTINUOUS
 10
15.7431627289
 20
10.9729985672
 11
15.7431506302
 21
10.9729597571
  0
LINE
  5
2AE
100
AcDbEntity
  8
0
100
AcDbLine
 62
7
  6
CONTINUOUS
 10
16.314726511
 20
12.8227990664
 11
16.3157226151
 21
12.8258035636
  0
LINE
  5
2AF
100
AcDbEntity
  8
0
100
AcDbLine
 62
7
  6
CONTINUOUS
 10
16.1936933493
 20
12.4311356116
 11
16.1946894534
 21
12.4341401087
  0
LINE
  5
2B0
100
AcDbEntity
  8
0
100
AcDbLine
 62
7
  6
CONTINUOUS
 10
16.0726601876
 20
12.0394721568
 11
16.0736562917
 21
12.0424766539
  0
LINE
  5
2B1
100
AcDbEntity
  8
0
100
AcDbLine
 62
7
  6
CONTINUOUS
 10
15.9516270259
 20
11.6478087019
 11
15.95262313
 21
11.6508131991
  0
LINE
  5
2B2
100
AcDbEntity
  8
0
100
AcDbLine
 62
7
  6
CONTINUOUS
 10
15.8305938642
 20
11.2561452471
 11
15.8315899683
 21
11.2591497443
  0
LINE
  5
2B3
100
AcDbEntity
  8
0
100
AcDbLine
 62
7
  6
CONTINUOUS
 10
15.7095607025
 20
10.8644817923
 11
15.7105568066
 21
10.8674862895
  0
LWPOLYLINE
  5
2B4
100
AcDbEntity
  8
0
100
AcDbPolyline
 62
7
  6
CONTINUOUS
 90
3
 70
0
 10
15.9116684524
 20
11.6769031488
 10
15.9141396278
 20
11.6837310069
 10
15.9161485171
 20
11.688176275
  0
LWPOLYLINE
  5
2B5
100
AcDbEntity
  8
0
100
AcDbPolyline
 62
7
  6
CONTINUOUS
 90
3
 70
0
 10
15.7906352907
 20
11.285239694
 10
15.7931064661
 20
11.2920675521
 10
15.7951153554
 20
11.2965128202
  0
LWPOLYLINE
  5
2B6
100
AcDbEntity
  8
0
100
AcDbPolyline
 62
7
  6
CONTINUOUS
 90
3
 70
0
 10
15.669602129
 20
10.8935762391
 10
15.6720733044
 20
10.9004040973
 10
15.6740821937
 20
10.9048493654
  0
LINE
  5
2B7
100
AcDbEntity
  8
0
100
AcDbLine
 62
7
  6
CONTINUOUS
 10
16.0371816788
 20
12.0798397298
 11
16.03788901
 21
12.0811076796
  0
LINE
  5
2B8
100
AcDbEntity
  8
0
100
AcDbLine
 62
7
  6
CONTINUOUS
 10
15.9161485171
 20
11.688176275
 11
15.9168558483
 21
11.6894442248
  0
LWPOLYLINE
  5
2B9
100
AcDbEntity
  8
0
100
AcDbPolyline
 62
7
  6
CONTINUOUS
 90
5
 70
0
 10
16.5293385751
 20
13.5835803427
 10
16.5402370714
 20
13.5859697562
 10
16.5483697025
 20
13.5917275251
 10
16.5536439988
 20
13.5989648221
 10
16.5567928344
 20
13.606125976
  0
LINE
  5
2BA
100
AcDbEntity
  8
0
100
AcDbLine
 62
7
  6
CONTINUOUS
 10
16.3531320248
 20
12.9652427653
 11
16.3509412846
 21
13.0553482002
  0
LWPOLYLINE
  5
2BB
100
AcDbEntity
  8
0
100
AcDbPolyline
 62
7
  6
CONTINUOUS
 90
7
 70
0
 10
16.3509401753
 20
13.0553723953
 10
16.3509284076
 20
13.0622556311
 10
16.3517596627
 20
13.0778151978
 10
16.3537570676
 20
13.0953162616
 10
16.3567555465
 20
13.1128454735
 10
16.3603690988
 20
13.1284549175
 10
16.3623965412
 20
13.13553566
  0
LINE
  5
2BC
100
AcDbEntity
  8
0
100
AcDbLine
 62
7
  6
CONTINUOUS
 10
16.3530508833
 20
12.9591281763
 11
16.3531304682
 21
12.9653002013
  0
LWPOLYLINE
  5
2BD
100
AcDbEntity
  8
0
100
AcDbPolyline
 62
7
  6
CONTINUOUS
 90
3
 70
0
 10
16.5919166327
 20
13.7202065594
 10
16.5940315085
 20
13.7312919375
 10
16.5951172067
 20
13.742455086
  0
LINE
  5
2BE
100
AcDbEntity
  8
0
100
AcDbLine
 62
7
  6
CONTINUOUS
 10
15.7951153554
 20
11.2965128202
 11
15.7958226866
 21
11.29778077
  0
LINE
  5
2BF
100
AcDbEntity
  8
0
100
AcDbLine
 62
7
  6
CONTINUOUS
 10
15.6740821937
 20
10.9048493654
 11
15.6747895249
 21
10.9061173151
  0
LINE
  5
2C0
100
AcDbEntity
  8
0
100
AcDbLine
 62
7
  6
CONTINUOUS
 10
16.4741651865
 20
13.3569062201
 11
16.4719744463
 21
13.447011655
  0
LWPOLYLINE
  5
2C1
100
AcDbEntity
  8
0
100
AcDbPolyline
 62
7
  6
CONTINUOUS
 90
7
 70
0
 10
16.471973337
 20
13.4470358502
 10
16.4719615693
 20
13.4539190859
 10
16.4727928244
 20
13.4694786527
 10
16.4747902293
 20
13.4869797164
 10
16.4777887082
 20
13.5045089284
 10
16.4814022605
 20
13.5201183724
 10
16.4834297029
 20
13.5271991149
  0
LINE
  5
2C2
100
AcDbEntity
  8
0
100
AcDbLine
 62
7
  6
CONTINUOUS
 10
16.474084045
 20
13.3507916312
 11
16.4741636299
 21
13.3569636561
  0
LINE
  5
2C3
100
AcDbEntity
  8
0
100
AcDbLine
 62
7
  6
CONTINUOUS
 10
16.6210805132
 20
13.9752777073
 11
16.6207764292
 21
13.9716567139
  0
LINE
  5
2C4
100
AcDbEntity
  8
0
100
AcDbLine
 62
7
  6
CONTINUOUS
 10
16.5008541102
 20
13.5835802971
 11
16.5293438156
 21
13.5835802971
  0
LINE
  5
2C5
100
AcDbEntity
  8
0
100
AcDbLine
 62
7
  6
CONTINUOUS
 10
16.5951983482
 20
13.7485696749
 11
16.593007608
 21
13.8386751098
  0
LWPOLYLINE
  5
2C6
100
AcDbEntity
  8
0
100
AcDbPolyline
 62
7
  6
CONTINUOUS
 90
7
 70
0
 10
16.5930064987
 20
13.838699305
 10
16.592994731
 20
13.8455825408
 10
16.5938259861
 20
13.8611421075
 10
16.595823391
 20
13.8786431712
 10
16.5988218699
 20
13.8961723832
 10
16.6024354222
 20
13.9117818272
 10
16.6044628646
 20
13.9188625697
  0
LINE
  5
2C7
100
AcDbEntity
  8
0
100
AcDbLine
 62
7
  6
CONTINUOUS
 10
16.5951172067
 20
13.742455086
 11
16.5951967916
 21
13.7486271109
  0
LINE
  5
2C8
100
AcDbEntity
  8
0
100
AcDbLine
 62
7
  6
CONTINUOUS
 10
16.6210805132
 20
13.9752777073
 11
16.6061294981
 21
14.0985435736
  0
LINE
  5
2C9
100
AcDbEntity
  8
0
100
AcDbLine
 62
7
  6
CONTINUOUS
 10
16.5402614739
 20
14.1914206397
 11
15.3060397419
 21
14.1914206397
  0
LINE
  5
2CA
100
AcDbEntity
  8
0
100
AcDbLine
 62
7
  6
CONTINUOUS
 10
16.6014858122
 20
14.1135816797
 11
16.5709140454
 21
14.1758803905
  0
ARC
  5
2CB
100
AcDbEntity
  8
0
100
AcDbCircle
 62
7
  6
CONTINUOUS
 10
5.5120370841
 20
5.453453231
 40
0.025
100
AcDbArc
 50
194.0
 51
270.0
  0
ARC
  5
2CC
100
AcDbEntity
  8
0
100
AcDbCircle
 62
7
  6
CONTINUOUS
 10
5.5577472182
 20
5.2701198968
 40
0.025
100
AcDbArc
 50
193.9999979866
 51
269.9999995129
  0
ARC
  5
2CD
100
AcDbEntity
  8
0
100
AcDbCircle
 62
7
  6
CONTINUOUS
 10
5.5353672762
 20
5.6698983538
 40
0.1
100
AcDbArc
 50
180.0
 51
194.0
  0
ARC
  5
2CE
100
AcDbEntity
  8
0
100
AcDbCircle
 62
7
  6
CONTINUOUS
 10
5.4603672762
 20
5.7701198977
 40
0.025
100
AcDbArc
 50
90.0
 51
180.0
  0
ARC
  5
2CF
100
AcDbEntity
  8
0
100
AcDbCircle
 62
7
  6
CONTINUOUS
 10
6.7029873343
 20
5.2701198977
 40
0.025
100
AcDbArc
 50
270.0
 51
346.0
  0
ARC
  5
2D0
100
AcDbEntity
  8
0
100
AcDbCircle
 62
7
  6
CONTINUOUS
 10
6.7486974682
 20
5.453453231
 40
0.025
100
AcDbArc
 50
270.0
 51
346.0
  0
ARC
  5
2D1
100
AcDbEntity
  8
0
100
AcDbCircle
 62
7
  6
CONTINUOUS
 10
6.7253672762
 20
5.6698983538
 40
0.1
100
AcDbArc
 50
346.0
 51
360.0
  0
ARC
  5
2D2
100
AcDbEntity
  8
0
100
AcDbCircle
 62
7
  6
CONTINUOUS
 10
6.8003672762
 20
5.7701198977
 40
0.025
100
AcDbArc
 50
0.0
 51
90.0
  0
ARC
  5
2D3
100
AcDbEntity
  8
0
100
AcDbCircle
 62
7
  6
CONTINUOUS
 10
13.742975654
 20
5.2314580387
 40
0.0458333333
100
AcDbArc
 50
193.0
 51
270.0
  0
ARC
  5
2D4
100
AcDbEntity
  8
0
100
AcDbCircle
 62
7
  6
CONTINUOUS
 10
13.8777348599
 20
5.2314580387
 40
0.0458333333
100
AcDbArc
 50
270.0
 51
347.0
  0
ARC
  5
2D5
100
AcDbEntity
  8
0
100
AcDbCircle
 62
7
  6
CONTINUOUS
 10
14.242975654
 20
5.2314580387
 40
0.0458333333
100
AcDbArc
 50
193.0
 51
270.0
  0
ARC
  5
2D6
100
AcDbEntity
  8
0
100
AcDbCircle
 62
7
  6
CONTINUOUS
 10
14.3777348599
 20
5.2314580387
 40
0.0458333333
100
AcDbArc
 50
270.0
 51
347.0
  0
ARC
  5
2D7
100
AcDbEntity
  8
0
100
AcDbCircle
 62
7
  6
CONTINUOUS
 10
14.742975654
 20
5.2314580387
 40
0.0458333333
100
AcDbArc
 50
193.0
 51
270.0
  0
ARC
  5
2D8
100
AcDbEntity
  8
0
100
AcDbCircle
 62
7
  6
CONTINUOUS
 10
14.8777348599
 20
5.2314580387
 40
0.0458333333
100
AcDbArc
 50
270.0
 51
347.0
  0
ARC
  5
2D9
100
AcDbEntity
  8
0
100
AcDbCircle
 62
7
  6
CONTINUOUS
 10
15.242975654
 20
5.2314580387
 40
0.0458333333
100
AcDbArc
 50
193.0
 51
270.0
  0
ARC
  5
2DA
100
AcDbEntity
  8
0
100
AcDbCircle
 62
7
  6
CONTINUOUS
 10
15.3777348599
 20
5.2314580387
 40
0.0458333333
100
AcDbArc
 50
270.0
 51
347.0
  0
ARC
  5
2DB
100
AcDbEntity
  8
0
100
AcDbCircle
 62
7
  6
CONTINUOUS
 10
13.6277348599
 20
5.3231247054
 40
0.0458333333
100
AcDbArc
 50
13.0
 51
90.0
  0
ARC
  5
2DC
100
AcDbEntity
  8
0
100
AcDbCircle
 62
7
  6
CONTINUOUS
 10
13.992975654
 20
5.3231247054
 40
0.0458333333
100
AcDbArc
 50
90.0
 51
167.0
  0
ARC
  5
2DD
100
AcDbEntity
  8
0
100
AcDbCircle
 62
7
  6
CONTINUOUS
 10
14.1277348599
 20
5.3231247054
 40
0.0458333333
100
AcDbArc
 50
13.0
 51
90.0
  0
ARC
  5
2DE
100
AcDbEntity
  8
0
100
AcDbCircle
 62
7
  6
CONTINUOUS
 10
14.492975654
 20
5.3231247054
 40
0.0458333333
100
AcDbArc
 50
90.0
 51
167.0
  0
ARC
  5
2DF
100
AcDbEntity
  8
0
100
AcDbCircle
 62
7
  6
CONTINUOUS
 10
14.6277348599
 20
5.3231247054
 40
0.0458333333
100
AcDbArc
 50
13.0
 51
90.0
  0
ARC
  5
2E0
100
AcDbEntity
  8
0
100
AcDbCircle
 62
7
  6
CONTINUOUS
 10
14.992975654
 20
5.3231247054
 40
0.0458333333
100
AcDbArc
 50
90.0
 51
167.0
  0
ARC
  5
2E1
100
AcDbEntity
  8
0
100
AcDbCircle
 62
7
  6
CONTINUOUS
 10
15.1277348599
 20
5.3231247054
 40
0.0458333333
100
AcDbArc
 50
13.0
 51
90.0
  0
ARC
  5
2E2
100
AcDbEntity
  8
0
100
AcDbCircle
 62
7
  6
CONTINUOUS
 10
15.492975654
 20
5.3231247054
 40
0.0458333333
100
AcDbArc
 50
90.0
 51
167.0
  0
ARC
  5
2E3
100
AcDbEntity
  8
0
100
AcDbCircle
 62
7
  6
CONTINUOUS
 10
17.3777348599
 20
5.2314580387
 40
0.0458333333
100
AcDbArc
 50
270.0
 51
347.0
  0
ARC
  5
2E4
100
AcDbEntity
  8
0
100
AcDbCircle
 62
7
  6
CONTINUOUS
 10
17.242975654
 20
5.2314580387
 40
0.0458333333
100
AcDbArc
 50
193.0
 51
270.0
  0
ARC
  5
2E5
100
AcDbEntity
  8
0
100
AcDbCircle
 62
7
  6
CONTINUOUS
 10
16.8777348599
 20
5.2314580387
 40
0.0458333333
100
AcDbArc
 50
270.0
 51
347.0
  0
ARC
  5
2E6
100
AcDbEntity
  8
0
100
AcDbCircle
 62
7
  6
CONTINUOUS
 10
16.742975654
 20
5.2314580387
 40
0.0458333333
100
AcDbArc
 50
193.0
 51
270.0
  0
ARC
  5
2E7
100
AcDbEntity
  8
0
100
AcDbCircle
 62
7
  6
CONTINUOUS
 10
16.3777348599
 20
5.2314580387
 40
0.0458333333
100
AcDbArc
 50
270.0
 51
347.0
  0
ARC
  5
2E8
100
AcDbEntity
  8
0
100
AcDbCircle
 62
7
  6
CONTINUOUS
 10
16.242975654
 20
5.2314580387
 40
0.0458333333
100
AcDbArc
 50
193.0
 51
270.0
  0
ARC
  5
2E9
100
AcDbEntity
  8
0
100
AcDbCircle
 62
7
  6
CONTINUOUS
 10
15.8777348599
 20
5.2314580387
 40
0.0458333333
100
AcDbArc
 50
270.0
 51
347.0
  0
ARC
  5
2EA
100
AcDbEntity
  8
0
100
AcDbCircle
 62
7
  6
CONTINUOUS
 10
15.742975654
 20
5.2314580387
 40
0.0458333333
100
AcDbArc
 50
193.0
 51
270.0
  0
ARC
  5
2EB
100
AcDbEntity
  8
0
100
AcDbCircle
 62
7
  6
CONTINUOUS
 10
17.492975654
 20
5.3231247054
 40
0.0458333333
100
AcDbArc
 50
90.0
 51
167.0
  0
ARC
  5
2EC
100
AcDbEntity
  8
0
100
AcDbCircle
 62
7
  6
CONTINUOUS
 10
17.1277348599
 20
5.3231247054
 40
0.0458333333
100
AcDbArc
 50
13.0
 51
90.0
  0
ARC
  5
2ED
100
AcDbEntity
  8
0
100
AcDbCircle
 62
7
  6
CONTINUOUS
 10
16.992975654
 20
5.3231247054
 40
0.0458333333
100
AcDbArc
 50
90.0
 51
167.0
  0
ARC
  5
2EE
100
AcDbEntity
  8
0
100
AcDbCircle
 62
7
  6
CONTINUOUS
 10
16.6277348599
 20
5.3231247054
 40
0.0458333333
100
AcDbArc
 50
13.0
 51
90.0
  0
ARC
  5
2EF
100
AcDbEntity
  8
0
100
AcDbCircle
 62
7
  6
CONTINUOUS
 10
16.492975654
 20
5.3231247054
 40
0.0458333333
100
AcDbArc
 50
90.0
 51
167.0
  0
ARC
  5
2F0
100
AcDbEntity
  8
0
100
AcDbCircle
 62
7
  6
CONTINUOUS
 10
16.1277348599
 20
5.3231247054
 40
0.0458333333
100
AcDbArc
 50
13.0
 51
90.0
  0
ARC
  5
2F1
100
AcDbEntity
  8
0
100
AcDbCircle
 62
7
  6
CONTINUOUS
 10
15.992975654
 20
5.3231247054
 40
0.0458333333
100
AcDbArc
 50
90.0
 51
167.0
  0
ARC
  5
2F2
100
AcDbEntity
  8
0
100
AcDbCircle
 62
7
  6
CONTINUOUS
 10
15.6277348599
 20
5.3231247054
 40
0.0458333333
100
AcDbArc
 50
13.0
 51
90.0
  0
SPLINE
  5
2F3
100
AcDbEntity
  8
0
100
AcDbSpline
 62
7
  6
CONTINUOUS
 70
0
 71
3
 72
15
 73
11
 74
0
 42
0.0000001
 43
0.0000001
 44
0.0000000001
 40
0.0
 40
0.0
 40
0.0
 40
0.0
 40
0.1295684938
 40
0.2645756278
 40
0.401266003
 40
0.5362717015
 40
0.6662157489
 40
0.7881011246
 40
0.8998143854
 40
1.0
 40
1.0
 40
1.0
 40
1.0
 10
16.5402614739
 20
14.1914206397
 30
0.0
 10
16.5418097321
 20
14.1914206397
 30
0.0
 10
16.5449736833
 20
14.1912054115
 30
0.0
 10
16.5496961989
 20
14.1903215201
 30
0.0
 10
16.5543525067
 20
14.1888940679
 30
0.0
 10
16.5587643744
 20
14.1869787484
 30
0.0
 10
16.5627705637
 20
14.1846500631
 30
0.0
 10
16.5662226463
 20
14.1819887298
 30
0.0
 10
16.5689884986
 20
14.1790926837
 30
0.0
 10
16.5703866487
 20
14.1769551119
 30
0.0
 10
16.5709140454
 20
14.1758803905
 30
0.0
  0
SPLINE
  5
2F4
100
AcDbEntity
  8
0
100
AcDbSpline
 62
7
  6
CONTINUOUS
 70
0
 71
3
 72
15
 73
11
 74
0
 42
0.0000001
 43
0.0000001
 44
0.0000000001
 40
0.0
 40
0.0
 40
0.0
 40
0.0
 40
0.0996460751
 40
0.2028720403
 40
0.3125943417
 40
0.4308573098
 40
0.5588154568
 40
0.6968314751
 40
0.8443984458
 40
1.0
 40
1.0
 40
1.0
 40
1.0
 10
15.289780252
 20
14.183261583
 30
0.0
 10
15.2899703672
 20
14.1838768244
 30
0.0
 10
15.2905090065
 20
14.1850877677
 30
0.0
 10
15.2917399953
 20
14.1867087129
 30
0.0
 10
15.2933633834
 20
14.1881238798
 30
0.0
 10
15.2953475491
 20
14.1893079385
 30
0.0
 10
15.297655092
 20
14.1902465695
 30
0.0
 10
15.3002467059
 20
14.1909252956
 30
0.0
 10
15.303073581
 20
14.191332957
 30
0.0
 10
15.3050341939
 20
14.1914206397
 30
0.0
 10
15.3060397419
 20
14.1914206397
 30
0.0
  0
SPLINE
  5
2F5
100
AcDbEntity
  8
0
100
AcDbSpline
 62
7
  6
CONTINUOUS
 70
0
 71
3
 72
11
 73
7
 74
0
 42
0.0000001
 43
0.0000001
 44
0.0000000001
 40
0.0
 40
0.0
 40
0.0
 40
0.0
 40
0.233694567
 40
0.4747280886
 40
0.7289544341
 40
1.0
 40
1.0
 40
1.0
 40
1.0
 10
14.3215149584
 20
11.0499539445
 30
0.0
 10
14.3213401037
 20
11.0493880884
 30
0.0
 10
14.321109792
 20
11.0481959407
 30
0.0
 10
14.3211520825
 20
11.0463366624
 30
0.0
 10
14.3215698903
 20
11.0444294875
 30
0.0
 10
14.3220713545
 20
11.0431894176
 30
0.0
 10
14.3223739701
 20
11.042572752
 30
0.0
  0
SPLINE
  5
2F6
100
AcDbEntity
  8
0
100
AcDbSpline
 62
7
  6
CONTINUOUS
 70
0
 71
3
 72
9
 73
5
 74
0
 42
0.0000001
 43
0.0000001
 44
0.0000000001
 40
0.0
 40
0.0
 40
0.0
 40
0.0
 40
0.5166047309
 40
1.0
 40
1.0
 40
1.0
 40
1.0
 10
16.6014858122
 20
14.1135816797
 30
0.0
 10
16.6026839962
 20
14.1111400375
 30
0.0
 10
16.6046762745
 20
14.1062418662
 30
0.0
 10
16.6058230647
 20
14.1010700091
 30
0.0
 10
16.6061294981
 20
14.0985435736
 30
0.0
  0
SPLINE
  5
2F7
100
AcDbEntity
  8
0
100
AcDbSpline
 62
7
  6
CONTINUOUS
 70
0
 71
3
 72
14
 73
10
 74
0
 42
0.0000001
 43
0.0000001
 44
0.0000000001
 40
0.0
 40
0.0
 40
0.0
 40
0.0
 40
0.1556189739
 40
0.303257363
 40
0.5688333646
 40
0.6871444534
 40
0.7968769785
 40
0.9001669528
 40
1.0
 40
1.0
 40
1.0
 40
1.0
 10
15.63625382
 20
10.8301893461
 30
0.0
 10
15.637258903
 20
10.8301893461
 30
0.0
 10
15.639219839
 20
10.8302772023
 30
0.0
 10
15.642857747
 20
10.8308018966
 30
0.0
 10
15.6461784923
 20
10.8318460141
 30
0.0
 10
15.6489288405
 20
10.8334846676
 30
0.0
 10
15.6505526125
 20
10.8348990779
 30
0.0
 10
15.6517838523
 20
10.8365204785
 30
0.0
 10
15.6523224578
 20
10.8377325137
 30
0.0
 10
15.652512219
 20
10.838348741
 30
0.0
  0
SPLINE
  5
2F8
100
AcDbEntity
  8
0
100
AcDbSpline
 62
7
  6
CONTINUOUS
 70
0
 71
3
 72
15
 73
11
 74
0
 42
0.0000001
 43
0.0000001
 44
0.0000000001
 40
0.0
 40
0.0
 40
0.0
 40
0.0
 40
0.1095608739
 40
0.2276766161
 40
0.352429112
 40
0.4818022783
 40
0.6136293031
 40
0.7455987487
 40
0.8752995018
 40
1.0
 40
1.0
 40
1.0
 40
1.0
 10
14.4690904997
 20
10.8419700688
 30
0.0
 10
14.4698363689
 20
10.8411029471
 30
0.0
 10
14.4715286736
 20
10.8394211996
 30
0.0
 10
14.4744467762
 20
10.8371676793
 30
0.0
 10
14.47777567
 20
10.8351481199
 30
0.0
 10
14.4814192815
 20
10.8334131408
 30
0.0
 10
14.4852834574
 20
10.8320111287
 30
0.0
 10
14.4892653914
 20
10.8309759912
 30
0.0
 10
14.4932549928
 20
10.8303424809
 30
0.0
 10
14.4959123505
 20
10.8301893461
 30
0.0
 10
14.4972141774
 20
10.8301893461
 30
0.0
  0
SPLINE
  5
2F9
100
AcDbEntity
  8
0
100
AcDbSpline
 62
7
  6
CONTINUOUS
 70
0
 71
3
 72
9
 73
5
 74
0
 42
0.0000001
 43
0.0000001
 44
0.0000000001
 40
0.0
 40
0.0
 40
0.0
 40
0.0
 40
0.4825233808
 40
1.0
 40
1.0
 40
1.0
 40
1.0
 10
14.3529457369
 20
10.9802740412
 30
0.0
 10
14.3542325131
 20
10.9776518669
 30
0.0
 10
14.3573108727
 20
10.9724145086
 30
0.0
 10
14.3610185892
 20
10.9676107343
 30
0.0
 10
14.3630613124
 20
10.965235935
 30
0.0
  0
SPLINE
  5
2FA
100
AcDbEntity
  8
0
100
AcDbSpline
 62
7
  6
CONTINUOUS
 70
0
 71
3
 72
9
 73
5
 74
0
 42
0.0000001
 43
0.0000001
 44
0.0000000001
 40
0.0
 40
0.0
 40
0.0
 40
0.0
 40
0.4833952691
 40
1.0
 40
1.0
 40
1.0
 40
1.0
 10
15.6378642044
 20
10.965235935
 30
0.0
 10
15.6375577711
 20
10.9677623706
 30
0.0
 10
15.6364109808
 20
10.9729342276
 30
0.0
 10
15.6344187026
 20
10.977832399
 30
0.0
 10
15.6332205186
 20
10.9802740412
 30
0.0
  0
SPLINE
  5
2FB
100
AcDbEntity
  8
0
100
AcDbSpline
 62
7
  6
CONTINUOUS
 70
0
 71
3
 72
15
 73
11
 74
0
 42
0.0000001
 43
0.0000001
 44
0.0000000001
 40
0.0
 40
0.0
 40
0.0
 40
0.0
 40
0.1001856146
 40
0.2118988754
 40
0.3337842511
 40
0.4637282985
 40
0.598733997
 40
0.7354243722
 40
0.8704315062
 40
1.0
 40
1.0
 40
1.0
 40
1.0
 10
15.6026487517
 20
11.042572752
 30
0.0
 10
15.6021213551
 20
11.0436474733
 30
0.0
 10
15.6007232049
 20
11.0457850452
 30
0.0
 10
15.5979573527
 20
11.0486810913
 30
0.0
 10
15.5945052701
 20
11.0513424246
 30
0.0
 10
15.5904990808
 20
11.0536711099
 30
0.0
 10
15.5860872131
 20
11.0555864294
 30
0.0
 10
15.5814309053
 20
11.0570138816
 30
0.0
 10
15.5767083897
 20
11.057897773
 30
0.0
 10
15.5735444384
 20
11.0581130012
 30
0.0
 10
15.5719961802
 20
11.0581130012
 30
0.0
  0
SPLINE
  5
2FC
100
AcDbEntity
  8
0
100
AcDbSpline
 62
7
  6
CONTINUOUS
 70
0
 71
3
 72
15
 73
11
 74
0
 42
0.0000001
 43
0.0000001
 44
0.0000000001
 40
0.0
 40
0.0
 40
0.0
 40
0.0
 40
0.1556015542
 40
0.3031685249
 40
0.4411845432
 40
0.5691426902
 40
0.6874056583
 40
0.7971279597
 40
0.9003539249
 40
1.0
 40
1.0
 40
1.0
 40
1.0
 10
14.3377744483
 20
11.0581130012
 30
0.0
 10
14.3367689003
 20
11.0581130012
 30
0.0
 10
14.3348082874
 20
11.0580253185
 30
0.0
 10
14.3319814123
 20
11.057617657
 30
0.0
 10
14.3293897983
 20
11.056938931
 30
0.0
 10
14.3270822554
 20
11.0560003
 30
0.0
 10
14.3250980898
 20
11.0548162413
 30
0.0
 10
14.3234747017
 20
11.0534010744
 30
0.0
 10
14.3222437129
 20
11.0517801292
 30
0.0
 10
14.3217050736
 20
11.0505691859
 30
0.0
 10
14.3215149584
 20
11.0499539445
 30
0.0
  0
ENDSEC
  0
SECTION
  2
OBJECTS
  0
DICTIONARY
  5
C
100
AcDbDictionary
280
0
281
1
  3
ACAD_GROUP
350
D
  3
ACAD_MLINESTYLE
350
17
  3
ACAD_LAYOUT
350
1A
  3
ACAD_PLOTSETTINGS
350
19
  3
ACAD_PLOTSTYLENAME
350
E
  0
DICTIONARY
  5
D
102
{ACAD_REACTORS
330
C
102
}
100
AcDbDictionary
280
0
281
1
  0
ACDBDICTIONARYWDFLT
  5
E
102
{ACAD_REACTORS
330
C
102
}
100
AcDbDictionary
281
1
  3
Normal
350
F
100
AcDbDictionaryWithDefault
340
F
  0
DICTIONARY
  5
17
102
{ACAD_REACTORS
330
C
102
}
100
AcDbDictionary
280
0
281
1
  3
Standard
350
18
  0
DICTIONARY
  5
19
102
{ACAD_REACTORS
330
C
102
}
100
AcDbDictionary
281
1
  0
DICTIONARY
  5
1A
102
{ACAD_REACTORS
330
C
102
}
100
AcDbDictionary
281
1
  3
Model
350
2FD
  3
Layout1
350
2FE
  0
ACDBPLACEHOLDER
  5
F
102
{ACAD_REACTORS
330
E
102
}
  0
MLINESTYLE
  5
18
102
{ACAD_REACTORS
330
17
102
}
100
AcDbMlineStyle
  2
STANDARD
 70
0
  3

 62
256
 51
90.0
 52
90.0
 71
2
 49
0.5
 62
256
  6
BYLAYER
 49
-0.5
 62
256
  6
BYLAYER
  0
LAYOUT
  5
2FD
102
{ACAD_REACTORS
330
1A
102
}
100
AcDbPlotSettings
  1

  2
none_device
  4
ANSI_C_(22.00_x_17.00_Inches)
  6

 40
0.0
 41
0.0
 42
0.0
 43
0.0
 44
558.8
 45
431.8
 46
0.0
 47
0.0
 48
0.0
 49
0.0
140
0.0
141
0.0
142
1.0
143
1.0
 70
1024
 72
0
 73
0
 74
0
  7

 75
0
147
1.0
148
0.0
149
0.0
100
AcDbLayout
  1
Model
 70
0
 71
0
 10
0.0
 20
0.0
 11
22.0
 21
17.0
 12
0.0
 22
0.0
 32
0.0
 14
0.0
 24
0.0
 34
0.0
 15
0.0
 25
0.0
 35
0.0
146
0.0
 13
0.0
 23
0.0
 33
0.0
 16
1.0
 26
0.0
 36
0.0
 17
0.0
 27
1.0
 37
0.0
 76
0
330
216
345
0
346
0
  0
LAYOUT
  5
2FE
102
{ACAD_REACTORS
330
1A
102
}
100
AcDbPlotSettings
  1

  2
none_device
  4
ANSI_C_(22.00_x_17.00_Inches)
  6

 40
0.0
 41
0.0
 42
0.0
 43
0.0
 44
558.8
 45
431.8
 46
0.0
 47
0.0
 48
0.0
 49
0.0
140
0.0
141
0.0
142
1.0
143
1.0
 70
0
 72
0
 73
0
 74
0
  7

 75
0
147
1.0
148
0.0
149
0.0
100
AcDbLayout
  1
Layout1
 70
0
 71
1
 10
0.0
 20
0.0
 11
22.0
 21
17.0
 12
0.0
 22
0.0
 32
0.0
 14
0.0
 24
0.0
 34
0.0
 15
0.0
 25
0.0
 35
0.0
146
0.0
 13
0.0
 23
0.0
 33
0.0
 16
1.0
 26
0.0
 36
0.0
 17
0.0
 27
1.0
 37
0.0
 76
0
330
217
345
0
346
0
  0
ENDSEC
  0
EOF