999
DXF file: _cgs_temp_output.dxf
999
Pro/ENGINEER 2016360 by Parametric Technology Corporation
  0
SECTION
  2
HEADER
  9
$ACADVER
  1
AC1021
  9
$DWGCODEPAGE
  3
ANSI_1252
  9
$EXTMAX
 10
22.0
 20
17.0
 30
0.0
  9
$EXTMIN
 10
0.0
 20
0.0
 30
0.0
  9
$LIMMIN
 10
0.0
 20
0.0
  9
$LIMMAX
 10
22.0
 20
17.0
  9
$VIEWCTR
 10
11.0
 20
8.5
  9
$VIEWSIZE
 40
17.0
  9
$CLAYER
  8
0
  9
$LTSCALE
 40
1.21
  9
$CELTYPE
  6
BYLAYER
  9
$DIMSCALE
 40
1.0
  9
$DIMASZ
 40
0.1875
  9
$DIMEXO
 40
0.0625
  9
$DIMDLI
 40
0.836
  9
$DIMEXE
 40
0.125
  9
$DIMCEN
 40
0.198
  9
$DIMLFAC
 40
1.0
  9
$DIMBLK
  1
_CLOSED
  9
$DIMALT
 70
0
  9
$DIMALTF
 40
25.4
  9
$DIMTXT
 40
0.15625
  9
$DIMTOL
 70
0
  9
$DIMLIM
 70
0
  9
$DIMTFAC
 40
1.0
  9
$DIMGAP
 40
0.09
  9
$DIMDSEP
 70
46
  9
$AUNITS
 70
0
  9
$PDMODE
 70
3
  9
$PDSIZE
 40
0.3125
  9
$HANDSEED
  5
307
  9
$TILEMODE
 70
1
  9
$MEASUREMENT
 70
0
  9
$INSUNITS
 70
1
  0
ENDSEC
  0
SECTION
  2
CLASSES
  0
CLASS
  1
ACDBDICTIONARYWDFLT
  2
AcDbDictionaryWithDefault
  3
AutoCAD 2000
 90
0
 91
1
280
0
281
0
  0
CLASS
  1
ACDBPLACEHOLDER
  2
AcDbPlaceHolder
  3
AutoCAD 2000
 90
0
 91
1
280
0
281
0
  0
CLASS
  1
LAYOUT
  2
AcDbLayout
  3
AutoCAD 2000
 90
0
 91
0
280
0
281
0
  0
ENDSEC
  0
SECTION
  2
TABLES
  0
TABLE
  2
VPORT
  5
8
100
AcDbSymbolTable
 70
2
  0
VPORT
  5
1F4
100
AcDbSymbolTableRecord
100
AcDbViewportTableRecord
  2
*ACTIVE
 70
0
 10
0.0
 20
0.0
 11
1.0
 21
1.0
 12
11.0
 22
8.5
 13
0.0
 23
0.0
 14
1.0
 24
1.0
 15
0.0
 25
0.0
 16
0.0
 26
0.0
 36
1.0
 17
0.0
 27
0.0
 37
0.0
 40
17.0
 41
1.2941176471
 42
50.0
 43
0.0
 44
0.0
 50
0.0
 51
0.0
 71
0
 72
100
 73
1
 74
1
 75
0
 76
0
 77
0
 78
0
  0
ENDTAB
  0
TABLE
  2
LTYPE
  5
5
100
AcDbSymbolTable
 70
6
  0
LTYPE
  5
14
100
AcDbSymbolTableRecord
100
AcDbLinetypeTableRecord
  2
BYBLOCK
 70
0
  3

 72
65
 73
0
 40
0.0
  0
LTYPE
  5
15
100
AcDbSymbolTableRecord
100
AcDbLinetypeTableRecord
  2
BYLAYER
 70
0
  3

 72
65
 73
0
 40
0.0
  0
LTYPE
  5
16
100
AcDbSymbolTableRecord
100
AcDbLinetypeTableRecord
  2
CONTINUOUS
 70
64
  3
Solid line
 72
65
 73
0
 40
0.0
  0
LTYPE
  5
1F5
100
AcDbSymbolTableRecord
100
AcDbLinetypeTableRecord
  2
CENTER
 70
64
  3
____ _ ____ _ ____ _ ____ _ ____ _ ____ _ ____
 72
65
 73
4
 40
0.6
 49
0.375
 74
0
 49
-0.075
 74
0
 49
0.075
 74
0
 49
-0.075
 74
0
  0
LTYPE
  5
1F6
100
AcDbSymbolTableRecord
100
AcDbLinetypeTableRecord
  2
HIDDEN
 70
64
  3
- - - - - - - - - - - - - - - - - - - -
 72
65
 73
2
 40
0.2
 49
0.1
 74
0
 49
-0.1
 74
0
  0
LTYPE
  5
1F7
100
AcDbSymbolTableRecord
100
AcDbLinetypeTableRecord
  2
PHANTOM
 70
64
  3
_____ _ _ _____ _ _ _____ _ _ _____
 72
65
 73
6
 40
0.8
 49
0.45
 74
0
 49
-0.05
 74
0
 49
0.1
 74
0
 49
-0.05
 74
0
 49
0.1
 74
0
 49
-0.05
 74
0
  0
LTYPE
  5
1F8
100
AcDbSymbolTableRecord
100
AcDbLinetypeTableRecord
  2
DOT
 70
64
  3
. . . . . . . . . . . . . . . . . . . .
 72
65
 73
2
 40
0.2
 49
0.1
 74
0
 49
-0.1
 74
0
  0
LTYPE
  5
1F9
100
AcDbSymbolTableRecord
100
AcDbLinetypeTableRecord
  2
DASHED
 70
64
  3
- - - - - - - - - - - - - - - - - - - -
 72
65
 73
2
 40
0.2
 49
0.1
 74
0
 49
-0.1
 74
0
  0
ENDTAB
  0
TABLE
  2
LAYER
  5
2
100
AcDbSymbolTable
 70
36
  0
LAYER
  5
10
100
AcDbSymbolTableRecord
100
AcDbLayerTableRecord
  2
0
 70
0
 62
7
  6
CONTINUOUS
370
-3
390
F
  0
LAYER
  5
1FA
100
AcDbSymbolTableRecord
100
AcDbLayerTableRecord
  2
DEFAULT_1
 70
0
 62
7
  6
CENTER
370
-3
390
F
  0
LAYER
  5
1FB
100
AcDbSymbolTableRecord
100
AcDbLayerTableRecord
  2
DEFAULT_2
 70
0
 62
8
  6
HIDDEN
370
-3
390
F
  0
LAYER
  5
1FC
100
AcDbSymbolTableRecord
100
AcDbLayerTableRecord
  2
DEFAULT_3
 70
0
 62
7
  6
PHANTOM
370
-3
390
F
  0
LAYER
  5
1FD
100
AcDbSymbolTableRecord
100
AcDbLayerTableRecord
  2
01_ALL_DTM_PLN
 70
0
 62
7
  6
CONTINUOUS
370
-3
390
F
  0
LAYER
  5
1FE
100
AcDbSymbolTableRecord
100
AcDbLayerTableRecord
  2
01__ASM_ALL_DTM_PLN
 70
0
 62
7
  6
CONTINUOUS
370
-3
390
F
  0
LAYER
  5
1FF
100
AcDbSymbolTableRecord
100
AcDbLayerTableRecord
  2
01__ASM_DEF_DTM_PLN
 70
0
 62
7
  6
CONTINUOUS
370
-3
390
F
  0
LAYER
  5
200
100
AcDbSymbolTableRecord
100
AcDbLayerTableRecord
  2
01___PRT_ALL_DTM_PLN
 70
0
 62
7
  6
CONTINUOUS
370
-3
390
F
  0
LAYER
  5
201
100
AcDbSymbolTableRecord
100
AcDbLayerTableRecord
  2
01___PRT_DEF_DTM_PLN
 70
0
 62
7
  6
CONTINUOUS
370
-3
390
F
  0
LAYER
  5
202
100
AcDbSymbolTableRecord
100
AcDbLayerTableRecord
  2
02_ALL_AXES
 70
0
 62
7
  6
CONTINUOUS
370
-3
390
F
  0
LAYER
  5
203
100
AcDbSymbolTableRecord
100
AcDbLayerTableRecord
  2
02__ASM_ALL_AXES
 70
0
 62
7
  6
CONTINUOUS
370
-3
390
F
  0
LAYER
  5
204
100
AcDbSymbolTableRecord
100
AcDbLayerTableRecord
  2
02___PRT_ALL_AXES
 70
0
 62
7
  6
CONTINUOUS
370
-3
390
F
  0
LAYER
  5
205
100
AcDbSymbolTableRecord
100
AcDbLayerTableRecord
  2
03_ALL_CURVES
 70
0
 62
7
  6
CONTINUOUS
370
-3
390
F
  0
LAYER
  5
206
100
AcDbSymbolTableRecord
100
AcDbLayerTableRecord
  2
03__ASM_ALL_CURVES
 70
0
 62
7
  6
CONTINUOUS
370
-3
390
F
  0
LAYER
  5
207
100
AcDbSymbolTableRecord
100
AcDbLayerTableRecord
  2
03___PRT_ALL_CURVES
 70
0
 62
7
  6
CONTINUOUS
370
-3
390
F
  0
LAYER
  5
208
100
AcDbSymbolTableRecord
100
AcDbLayerTableRecord
  2
04_ALL_DTM_PNT
 70
0
 62
7
  6
CONTINUOUS
370
-3
390
F
  0
LAYER
  5
209
100
AcDbSymbolTableRecord
100
AcDbLayerTableRecord
  2
04__ASM_ALL_DTM_PNT
 70
0
 62
7
  6
CONTINUOUS
370
-3
390
F
  0
LAYER
  5
20A
100
AcDbSymbolTableRecord
100
AcDbLayerTableRecord
  2
04___PRT_ALL_DTM_PNT
 70
0
 62
7
  6
CONTINUOUS
370
-3
390
F
  0
LAYER
  5
20B
100
AcDbSymbolTableRecord
100
AcDbLayerTableRecord
  2
05_ALL_DTM_CSYS
 70
0
 62
7
  6
CONTINUOUS
370
-3
390
F
  0
LAYER
  5
20C
100
AcDbSymbolTableRecord
100
AcDbLayerTableRecord
  2
05__ASM_ALL_DTM_CSYS
 70
0
 62
7
  6
CONTINUOUS
370
-3
390
F
  0
LAYER
  5
20D
100
AcDbSymbolTableRecord
100
AcDbLayerTableRecord
  2
05__ASM_DEF_DTM_CSYS
 70
0
 62
7
  6
CONTINUOUS
370
-3
390
F
  0
LAYER
  5
20E
100
AcDbSymbolTableRecord
100
AcDbLayerTableRecord
  2
05___PRT_ALL_DTM_CSYS
 70
0
 62
7
  6
CONTINUOUS
370
-3
390
F
  0
LAYER
  5
20F
100
AcDbSymbolTableRecord
100
AcDbLayerTableRecord
  2
05___PRT_DEF_DTM_CSYS
 70
0
 62
7
  6
CONTINUOUS
370
-3
390
F
  0
LAYER
  5
210
100
AcDbSymbolTableRecord
100
AcDbLayerTableRecord
  2
06_ALL_SURFS
 70
0
 62
7
  6
CONTINUOUS
370
-3
390
F
  0
LAYER
  5
211
100
AcDbSymbolTableRecord
100
AcDbLayerTableRecord
  2
06__ASM_ALL_SURFS
 70
0
 62
7
  6
CONTINUOUS
370
-3
390
F
  0
LAYER
  5
212
100
AcDbSymbolTableRecord
100
AcDbLayerTableRecord
  2
06___PRT_ALL_SURFS
 70
0
 62
7
  6
CONTINUOUS
370
-3
390
F
  0
LAYER
  5
213
100
AcDbSymbolTableRecord
100
AcDbLayerTableRecord
  2
07__ASM_ALL_SKELETONS
 70
0
 62
7
  6
CONTINUOUS
370
-3
390
F
  0
ENDTAB
  0
TABLE
  2
STYLE
  5
3
100
AcDbSymbolTable
 70
1
  0
STYLE
  5
11
100
AcDbSymbolTableRecord
100
AcDbTextStyleTableRecord
  2
STANDARD
 70
0
 40
0.0
 41
0.8
 50
0.0
 71
0
 42
0.2
  3
txt
  4

  0
STYLE
  5
214
100
AcDbSymbolTableRecord
100
AcDbTextStyleTableRecord
  2
TEXTSTYLE_1
 70
0
 40
0.0
 41
0.8
 50
0.0
 71
0
 42
0.2
  3
gdt
  4

  0
ENDTAB
  0
TABLE
  2
VIEW
  5
6
100
AcDbSymbolTable
 70
0
  0
ENDTAB
  0
TABLE
  2
UCS
  5
7
100
AcDbSymbolTable
 70
0
  0
ENDTAB
  0
TABLE
  2
APPID
  5
9
100
AcDbSymbolTable
 70
1
  0
APPID
  5
215
100
AcDbSymbolTableRecord
100
AcDbRegAppTableRecord
  2
ACAD
 70
0
  0
ENDTAB
  0
TABLE
  2
BLOCK_RECORD
  5
1
100
AcDbSymbolTable
 70
0
  0
BLOCK_RECORD
  5
216
100
AcDbSymbolTableRecord
100
AcDbBlockTableRecord
  2
*Model_Space
  0
BLOCK_RECORD
  5
217
100
AcDbSymbolTableRecord
100
AcDbBlockTableRecord
  2
*Paper_Space
  0
ENDTAB
  0
TABLE
  2
DIMSTYLE
  5
A
100
AcDbSymbolTable
 70
1
100
AcDbDimStyleTable
 71
0
  0
DIMSTYLE
105
218
100
AcDbSymbolTableRecord
100
AcDbDimStyleTableRecord
  2
STANDARD
 70
0
  3

  4

 40
1.0
 41
0.1875
 42
0.0625
 43
0.38
 44
0.125
 45
0.0
 46
0.0
 47
0.0001
 48
0.0001
140
0.15625
141
0.09
142
0.0
143
25.4
144
1.0
145
0.0
146
1.0
147
0.09
 71
0.0
 72
0.0
 73
1
 74
1
 75
0
 76
0
 77
0
 78
4
 79
1
170
0
171
3
172
0
173
0
174
0
175
0
176
0
177
0
178
0
270
2
179
4
271
4
272
4
273
2
274
2
275
0
280
0
281
0
282
0
283
1
284
4
285
0
286
0
287
3
288
0
340
11
278
46
  0
ENDTAB
  0
ENDSEC
  0
SECTION
  2
BLOCKS
  0
BLOCK
  5
20
100
AcDbEntity
  8
0
100
AcDbBlockBegin
  2
*Model_Space
 70
0
 10
0.0
 20
0.0
 30
0.0
  3
*Model_Space
  1

  0
ENDBLK
  5
21
100
AcDbEntity
  8
0
100
AcDbBlockEnd
  0
BLOCK
  5
1C
100
AcDbEntity
  8
0
100
AcDbBlockBegin
  2
*Paper_Space
 70
0
 10
0.0
 20
0.0
 30
0.0
  3
*Paper_Space
  1

  0
ENDBLK
  5
1D
100
AcDbEntity
  8
0
100
AcDbBlockEnd
  0
ENDSEC
  0
SECTION
  2
ENTITIES
  0
MTEXT
  5
219
100
AcDbEntity
  8
0
100
AcDbMText
 62
7
  6
CONTINUOUS
  7
STANDARD
 71
1
 72
1
 10
15.9560215477
 20
0.9479130325
 30
0.0
 11
1.0
 21
0.0
 31
0.0
 44
0.9
  1
SCALE: 1:1.000
 40
0.3
 41
3.36
  0
LINE
  5
21A
100
AcDbEntity
  8
0
100
AcDbLine
 62
7
  6
CONTINUOUS
 10
0.0
 20
0.0
 11
0.0
 21
17.0
  0
LINE
  5
21B
100
AcDbEntity
  8
0
100
AcDbLine
 62
7
  6
CONTINUOUS
 10
0.0
 20
0.0
 11
22.0
 21
0.0
  0
LINE
  5
21C
100
AcDbEntity
  8
0
100
AcDbLine
 62
7
  6
CONTINUOUS
 10
0.0
 20
17.0
 11
22.0
 21
17.0
  0
LINE
  5
21D
100
AcDbEntity
  8
0
100
AcDbLine
 62
7
  6
CONTINUOUS
 10
22.0
 20
0.0
 11
22.0
 21
17.0
  0
LINE
  5
21E
100
AcDbEntity
  8
0
100
AcDbLine
 62
7
  6
CONTINUOUS
 10
5.4403672762
 20
5.7701198977
 11
5.4403672762
 21
5.6698983538
  0
LINE
  5
21F
100
AcDbEntity
  8
0
100
AcDbLine
 62
7
  6
CONTINUOUS
 10
5.5384898248
 20
5.2640718503
 11
5.4433377035
 21
5.6457061642
  0
LINE
  5
220
100
AcDbEntity
  8
0
100
AcDbLine
 62
7
  6
CONTINUOUS
 10
5.562747218
 20
5.2451198977
 11
6.6979873343
 21
5.2451198977
  0
LINE
  5
221
100
AcDbEntity
  8
0
100
AcDbLine
 62
7
  6
CONTINUOUS
 10
5.5170370841
 20
5.428453231
 11
6.7436974682
 21
5.428453231
  0
LINE
  5
222
100
AcDbEntity
  8
0
100
AcDbLine
 62
7
  6
CONTINUOUS
 10
6.7953672762
 20
5.7951198977
 11
5.4653672762
 21
5.7951198977
  0
LINE
  5
223
100
AcDbEntity
  8
0
100
AcDbLine
 62
7
  6
CONTINUOUS
 10
6.7222447275
 20
5.2640718503
 11
6.8173968488
 21
5.6457061642
  0
LINE
  5
224
100
AcDbEntity
  8
0
100
AcDbLine
 62
7
  6
CONTINUOUS
 10
6.8203672762
 20
5.6698983538
 11
6.8203672762
 21
5.7701198977
  0
LINE
  5
225
100
AcDbEntity
  8
0
100
AcDbLine
 62
7
  6
CONTINUOUS
 10
6.7608720839
 20
10.6000477814
 11
5.3808720839
 21
10.6000477814
  0
LINE
  5
226
100
AcDbEntity
  8
0
100
AcDbLine
 62
7
  6
CONTINUOUS
 10
5.3808720839
 20
10.6000477814
 11
5.3808720839
 21
14.6000477814
  0
LINE
  5
227
100
AcDbEntity
  8
0
100
AcDbLine
 62
7
  6
CONTINUOUS
 10
6.7608720839
 20
10.6000477814
 11
6.7608720839
 21
14.6000477814
  0
LINE
  5
228
100
AcDbEntity
  8
0
100
AcDbLine
 62
7
  6
CONTINUOUS
 10
5.3808720839
 20
14.6000477814
 11
6.7608720839
 21
14.6000477814
  0
LINE
  5
229
100
AcDbEntity
  8
0
100
AcDbLine
 62
7
  6
CONTINUOUS
 10
13.5603552569
 20
5.3689580387
 11
13.5603552569
 21
5.7356247054
  0
LINE
  5
22A
100
AcDbEntity
  8
0
100
AcDbLine
 62
7
  6
CONTINUOUS
 10
13.6723934879
 20
5.333434962
 11
13.698317026
 21
5.221147782
  0
LINE
  5
22B
100
AcDbEntity
  8
0
100
AcDbLine
 62
7
  6
CONTINUOUS
 10
13.9223934879
 20
5.221147782
 11
13.948317026
 21
5.333434962
  0
LINE
  5
22C
100
AcDbEntity
  8
0
100
AcDbLine
 62
7
  6
CONTINUOUS
 10
14.1723934879
 20
5.333434962
 11
14.198317026
 21
5.221147782
  0
LINE
  5
22D
100
AcDbEntity
  8
0
100
AcDbLine
 62
7
  6
CONTINUOUS
 10
14.4223934879
 20
5.221147782
 11
14.448317026
 21
5.333434962
  0
LINE
  5
22E
100
AcDbEntity
  8
0
100
AcDbLine
 62
7
  6
CONTINUOUS
 10
14.6723934879
 20
5.333434962
 11
14.698317026
 21
5.221147782
  0
LINE
  5
22F
100
AcDbEntity
  8
0
100
AcDbLine
 62
7
  6
CONTINUOUS
 10
14.9223934879
 20
5.221147782
 11
14.948317026
 21
5.333434962
  0
LINE
  5
230
100
AcDbEntity
  8
0
100
AcDbLine
 62
7
  6
CONTINUOUS
 10
15.1723934879
 20
5.333434962
 11
15.198317026
 21
5.221147782
  0
LINE
  5
231
100
AcDbEntity
  8
0
100
AcDbLine
 62
7
  6
CONTINUOUS
 10
13.742975654
 20
5.1856247054
 11
13.8777348599
 21
5.1856247054
  0
LINE
  5
232
100
AcDbEntity
  8
0
100
AcDbLine
 62
7
  6
CONTINUOUS
 10
14.242975654
 20
5.1856247054
 11
14.3777348599
 21
5.1856247054
  0
LINE
  5
233
100
AcDbEntity
  8
0
100
AcDbLine
 62
7
  6
CONTINUOUS
 10
14.742975654
 20
5.1856247054
 11
14.8777348599
 21
5.1856247054
  0
LINE
  5
234
100
AcDbEntity
  8
0
100
AcDbLine
 62
7
  6
CONTINUOUS
 10
15.242975654
 20
5.1856247054
 11
15.3777348599
 21
5.1856247054
  0
LINE
  5
235
100
AcDbEntity
  8
0
100
AcDbLine
 62
7
  6
CONTINUOUS
 10
15.742975654
 20
5.1856247054
 11
15.8777348599
 21
5.1856247054
  0
LINE
  5
236
100
AcDbEntity
  8
0
100
AcDbLine
 62
7
  6
CONTINUOUS
 10
16.242975654
 20
5.1856247054
 11
16.3777348599
 21
5.1856247054
  0
LINE
  5
237
100
AcDbEntity
  8
0
100
AcDbLine
 62
7
  6
CONTINUOUS
 10
16.742975654
 20
5.1856247054
 11
16.8777348599
 21
5.1856247054
  0
LINE
  5
238
100
AcDbEntity
  8
0
100
AcDbLine
 62
7
  6
CONTINUOUS
 10
17.242975654
 20
5.1856247054
 11
17.3777348599
 21
5.1856247054
  0
LINE
  5
239
100
AcDbEntity
  8
0
100
AcDbLine
 62
7
  6
CONTINUOUS
 10
15.4223934879
 20
5.221147782
 11
15.448317026
 21
5.333434962
  0
LINE
  5
23A
100
AcDbEntity
  8
0
100
AcDbLine
 62
7
  6
CONTINUOUS
 10
13.5603552569
 20
5.3689580387
 11
13.6277348599
 21
5.3689580387
  0
LINE
  5
23B
100
AcDbEntity
  8
0
100
AcDbLine
 62
7
  6
CONTINUOUS
 10
13.992975654
 20
5.3689580387
 11
14.1277348599
 21
5.3689580387
  0
LINE
  5
23C
100
AcDbEntity
  8
0
100
AcDbLine
 62
7
  6
CONTINUOUS
 10
14.492975654
 20
5.3689580387
 11
14.6277348599
 21
5.3689580387
  0
LINE
  5
23D
100
AcDbEntity
  8
0
100
AcDbLine
 62
7
  6
CONTINUOUS
 10
14.992975654
 20
5.3689580387
 11
15.1277348599
 21
5.3689580387
  0
LINE
  5
23E
100
AcDbEntity
  8
0
100
AcDbLine
 62
7
  6
CONTINUOUS
 10
15.492975654
 20
5.3689580387
 11
15.6277348599
 21
5.3689580387
  0
LINE
  5
23F
100
AcDbEntity
  8
0
100
AcDbLine
 62
7
  6
CONTINUOUS
 10
15.992975654
 20
5.3689580387
 11
16.1277348599
 21
5.3689580387
  0
LINE
  5
240
100
AcDbEntity
  8
0
100
AcDbLine
 62
7
  6
CONTINUOUS
 10
16.492975654
 20
5.3689580387
 11
16.6277348599
 21
5.3689580387
  0
LINE
  5
241
100
AcDbEntity
  8
0
100
AcDbLine
 62
7
  6
CONTINUOUS
 10
16.992975654
 20
5.3689580387
 11
17.1277348599
 21
5.3689580387
  0
LINE
  5
242
100
AcDbEntity
  8
0
100
AcDbLine
 62
7
  6
CONTINUOUS
 10
17.492975654
 20
5.3689580387
 11
17.5603552569
 21
5.3689580387
  0
LINE
  5
243
100
AcDbEntity
  8
0
100
AcDbLine
 62
7
  6
CONTINUOUS
 10
15.6723934879
 20
5.333434962
 11
15.698317026
 21
5.221147782
  0
LINE
  5
244
100
AcDbEntity
  8
0
100
AcDbLine
 62
7
  6
CONTINUOUS
 10
13.5603552569
 20
5.7356247054
 11
17.5603552569
 21
5.7356247054
  0
LINE
  5
245
100
AcDbEntity
  8
0
100
AcDbLine
 62
7
  6
CONTINUOUS
 10
15.9223934879
 20
5.221147782
 11
15.948317026
 21
5.333434962
  0
LINE
  5
246
100
AcDbEntity
  8
0
100
AcDbLine
 62
7
  6
CONTINUOUS
 10
16.1723934879
 20
5.333434962
 11
16.198317026
 21
5.221147782
  0
LINE
  5
247
100
AcDbEntity
  8
0
100
AcDbLine
 62
7
  6
CONTINUOUS
 10
16.4223934879
 20
5.221147782
 11
16.448317026
 21
5.333434962
  0
LINE
  5
248
100
AcDbEntity
  8
0
100
AcDbLine
 62
7
  6
CONTINUOUS
 10
16.6723934879
 20
5.333434962
 11
16.698317026
 21
5.221147782
  0
LINE
  5
249
100
AcDbEntity
  8
0
100
AcDbLine
 62
7
  6
CONTINUOUS
 10
16.9223934879
 20
5.221147782
 11
16.948317026
 21
5.333434962
  0
LINE
  5
24A
100
AcDbEntity
  8
0
100
AcDbLine
 62
7
  6
CONTINUOUS
 10
17.1723934879
 20
5.333434962
 11
17.198317026
 21
5.221147782
  0
LINE
  5
24B
100
AcDbEntity
  8
0
100
AcDbLine
 62
7
  6
CONTINUOUS
 10
17.5603552569
 20
5.3689580387
 11
17.5603552569
 21
5.7356247054
  0
LINE
  5
24C
100
AcDbEntity
  8
0
100
AcDbLine
 62
7
  6
CONTINUOUS
 10
17.4223934879
 20
5.221147782
 11
17.448317026
 21
5.333434962
  0
LINE
  5
24D
100
AcDbEntity
  8
0
100
AcDbLine
 62
7
  6
CONTINUOUS
 10
14.3676666171
 20
10.965235935
 11
14.4736958045
 21
10.8419700688
  0
LWPOLYLINE
  5
24E
100
AcDbEntity
  8
0
100
AcDbPolyline
 62
7
  6
CONTINUOUS
 90
5
 70
0
 10
15.6775096185
 20
10.8419361551
 10
15.6856624178
 20
10.8432493233
 10
15.6933727615
 20
10.8473001053
 10
15.6991349926
 20
10.8531316977
 10
15.7028592489
 20
10.8593871995
  0
LINE
  5
24F
100
AcDbEntity
  8
0
100
AcDbLine
 62
7
  6
CONTINUOUS
 10
14.5018194822
 20
10.8301893461
 11
15.6316485148
 21
10.8301893461
  0
LINE
  5
250
100
AcDbEntity
  8
0
100
AcDbLine
 62
7
  6
CONTINUOUS
 10
15.6490166731
 20
10.8419361134
 11
15.6775063786
 21
10.8419361134
  0
LINE
  5
251
100
AcDbEntity
  8
0
100
AcDbLine
 62
7
  6
CONTINUOUS
 10
14.3269792749
 20
11.042572752
 11
14.3575510417
 21
10.9802740412
  0
LINE
  5
252
100
AcDbEntity
  8
0
100
AcDbLine
 62
7
  6
CONTINUOUS
 10
15.5673908751
 20
11.0581130012
 11
14.3423797531
 21
11.0581130012
  0
LWPOLYLINE
  5
253
100
AcDbEntity
  8
0
100
AcDbPolyline
 62
7
  6
CONTINUOUS
 90
5
 70
0
 10
15.7985427802
 20
11.2335996099
 10
15.8066955795
 20
11.2349127782
 10
15.8144059232
 20
11.2389635601
 10
15.8201681543
 20
11.2447951525
 10
15.8238924106
 20
11.2510506543
  0
LINE
  5
254
100
AcDbEntity
  8
0
100
AcDbLine
 62
7
  6
CONTINUOUS
 10
15.7700498348
 20
11.2335995682
 11
15.7985395403
 21
11.2335995682
  0
LWPOLYLINE
  5
255
100
AcDbEntity
  8
0
100
AcDbPolyline
 62
7
  6
CONTINUOUS
 90
5
 70
0
 10
15.9195759419
 20
11.6252630648
 10
15.9277287412
 20
11.626576233
 10
15.9354390849
 20
11.6306270149
 10
15.941201316
 20
11.6364586073
 10
15.9449255723
 20
11.6427141091
  0
LINE
  5
256
100
AcDbEntity
  8
0
100
AcDbLine
 62
7
  6
CONTINUOUS
 10
15.8910829965
 20
11.625263023
 11
15.9195727021
 21
11.625263023
  0
LINE
  5
257
100
AcDbEntity
  8
0
100
AcDbLine
 62
7
  6
CONTINUOUS
 10
14.3261202786
 20
11.0499539362
 11
15.2943855722
 21
14.1832615748
  0
LWPOLYLINE
  5
258
100
AcDbEntity
  8
0
100
AcDbPolyline
 62
7
  6
CONTINUOUS
 90
5
 70
0
 10
16.0406091036
 20
12.0169265196
 10
16.0487619029
 20
12.0182396878
 10
16.0564722466
 20
12.0222904697
 10
16.0622344777
 20
12.0281220621
 10
16.065958734
 20
12.0343775639
  0
LINE
  5
259
100
AcDbEntity
  8
0
100
AcDbLine
 62
7
  6
CONTINUOUS
 10
15.6286152134
 20
10.9802740412
 11
15.5980434466
 21
11.042572752
  0
LINE
  5
25A
100
AcDbEntity
  8
0
100
AcDbLine
 62
7
  6
CONTINUOUS
 10
16.0121161582
 20
12.0169264778
 11
16.0406058638
 21
12.0169264778
  0
LWPOLYLINE
  5
25B
100
AcDbEntity
  8
0
100
AcDbPolyline
 62
7
  6
CONTINUOUS
 90
5
 70
0
 10
16.1616422653
 20
12.4085899744
 10
16.1697950646
 20
12.4099031426
 10
16.1775054083
 20
12.4139539245
 10
16.1832676394
 20
12.419785517
 10
16.1869918957
 20
12.4260410188
  0
LINE
  5
25C
100
AcDbEntity
  8
0
100
AcDbLine
 62
7
  6
CONTINUOUS
 10
16.1331493199
 20
12.4085899327
 11
16.1616390255
 21
12.4085899327
  0
LINE
  5
25D
100
AcDbEntity
  8
0
100
AcDbLine
 62
7
  6
CONTINUOUS
 10
15.6482099145
 20
10.8419700688
 11
15.6332588993
 21
10.965235935
  0
LINE
  5
25E
100
AcDbEntity
  8
0
100
AcDbLine
 62
7
  6
CONTINUOUS
 10
15.7433609111
 20
11.0069254912
 11
15.7411701709
 21
11.0970309261
  0
LWPOLYLINE
  5
25F
100
AcDbEntity
  8
0
100
AcDbPolyline
 62
7
  6
CONTINUOUS
 90
7
 70
0
 10
15.7411690616
 20
11.0970551149
 10
15.7411573574
 20
11.1039418459
 10
15.7419887353
 20
11.1195001267
 10
15.7439859799
 20
11.1369991683
 10
15.7469840534
 20
11.1545263083
 10
15.7505971075
 20
11.1701343485
 10
15.7526254302
 20
11.1772183917
  0
LWPOLYLINE
  5
260
100
AcDbEntity
  8
0
100
AcDbPolyline
 62
7
  6
CONTINUOUS
 90
5
 70
0
 10
16.282675427
 20
12.8002534292
 10
16.2908282263
 20
12.8015665974
 10
16.29853857
 20
12.8056173794
 10
16.3043008011
 20
12.8114489718
 10
16.3080250574
 20
12.8177044736
  0
LINE
  5
261
100
AcDbEntity
  8
0
100
AcDbLine
 62
7
  6
CONTINUOUS
 10
16.2826723054
 20
12.8002533875
 11
16.2826750304
 21
12.8002533883
  0
LINE
  5
262
100
AcDbEntity
  8
0
100
AcDbLine
 62
7
  6
CONTINUOUS
 10
15.8643940728
 20
11.3985889461
 11
15.8622033326
 21
11.488694381
  0
LWPOLYLINE
  5
263
100
AcDbEntity
  8
0
100
AcDbPolyline
 62
7
  6
CONTINUOUS
 90
7
 70
0
 10
15.8622022233
 20
11.4887185697
 10
15.8621905191
 20
11.4956053007
 10
15.863021897
 20
11.5111635815
 10
15.8650191416
 20
11.5286626231
 10
15.8680172151
 20
11.5461897631
 10
15.8716302692
 20
11.5617978033
 10
15.8736585919
 20
11.5688818465
  0
LINE
  5
264
100
AcDbEntity
  8
0
100
AcDbLine
 62
7
  6
CONTINUOUS
 10
15.743279661
 20
11.0008085945
 11
15.7433593553
 21
11.0069829026
  0
LINE
  5
265
100
AcDbEntity
  8
0
100
AcDbLine
 62
7
  6
CONTINUOUS
 10
15.8643128227
 20
11.3924720493
 11
15.864392517
 21
11.3986463574
  0
LINE
  5
266
100
AcDbEntity
  8
0
100
AcDbLine
 62
7
  6
CONTINUOUS
 10
15.6479058355
 20
10.8383490739
 11
15.6482099145
 21
10.8419700688
  0
LINE
  5
267
100
AcDbEntity
  8
0
100
AcDbLine
 62
7
  6
CONTINUOUS
 10
16.5167092055
 20
13.6464939051
 11
16.5174163836
 21
13.6477615504
  0
LINE
  5
268
100
AcDbEntity
  8
0
100
AcDbLine
 62
7
  6
CONTINUOUS
 10
16.2541824816
 20
12.8002533875
 11
16.2826721872
 21
12.8002533875
  0
LINE
  5
269
100
AcDbEntity
  8
0
100
AcDbLine
 62
7
  6
CONTINUOUS
 10
15.9854272345
 20
11.7902524009
 11
15.9832364943
 21
11.8803578358
  0
LWPOLYLINE
  5
26A
100
AcDbEntity
  8
0
100
AcDbPolyline
 62
7
  6
CONTINUOUS
 90
7
 70
0
 10
15.983235385
 20
11.8803820245
 10
15.9832236808
 20
11.8872687555
 10
15.9840550587
 20
11.9028270363
 10
15.9860523033
 20
11.9203260779
 10
15.9890503768
 20
11.9378532179
 10
15.9926634309
 20
11.9534612581
 10
15.9946917536
 20
11.9605453013
  0
LINE
  5
26B
100
AcDbEntity
  8
0
100
AcDbLine
 62
7
  6
CONTINUOUS
 10
15.9853459844
 20
11.7841355041
 11
15.9854256787
 21
11.7903098122
  0
LWPOLYLINE
  5
26C
100
AcDbEntity
  8
0
100
AcDbPolyline
 62
7
  6
CONTINUOUS
 90
3
 70
0
 10
15.7400795208
 20
10.9785637215
 10
15.7421939683
 20
10.9896470372
 10
15.743279661
 20
11.0008085945
  0
LINE
  5
26D
100
AcDbEntity
  8
0
100
AcDbLine
 62
7
  6
CONTINUOUS
 10
16.3956760438
 20
13.2548304503
 11
16.3963832219
 21
13.2560980956
  0
LINE
  5
26E
100
AcDbEntity
  8
0
100
AcDbLine
 62
7
  6
CONTINUOUS
 10
16.2746428821
 20
12.8631669955
 11
16.2753500602
 21
12.8644346408
  0
LWPOLYLINE
  5
26F
100
AcDbEntity
  8
0
100
AcDbPolyline
 62
7
  6
CONTINUOUS
 90
5
 70
0
 10
16.4037085887
 20
13.191916884
 10
16.4118613881
 20
13.1932300522
 10
16.4195717317
 20
13.1972808342
 10
16.4253339628
 20
13.2031124266
 10
16.4290582191
 20
13.2093679284
  0
LINE
  5
270
100
AcDbEntity
  8
0
100
AcDbLine
 62
7
  6
CONTINUOUS
 10
16.1064603962
 20
12.1819158557
 11
16.104269656
 21
12.2720212906
  0
LWPOLYLINE
  5
271
100
AcDbEntity
  8
0
100
AcDbPolyline
 62
7
  6
CONTINUOUS
 90
7
 70
0
 10
16.1042685467
 20
12.2720454793
 10
16.1042568425
 20
12.2789322103
 10
16.1050882204
 20
12.2944904911
 10
16.107085465
 20
12.3119895327
 10
16.1100835385
 20
12.3295166728
 10
16.1136965926
 20
12.3451247129
 10
16.1157249153
 20
12.3522087561
  0
LINE
  5
272
100
AcDbEntity
  8
0
100
AcDbLine
 62
7
  6
CONTINUOUS
 10
16.1063791461
 20
12.1757989589
 11
16.1064588404
 21
12.181973267
  0
LWPOLYLINE
  5
273
100
AcDbEntity
  8
0
100
AcDbPolyline
 62
7
  6
CONTINUOUS
 90
3
 70
0
 10
15.8611126825
 20
11.3702271763
 10
15.86322713
 20
11.381310492
 10
15.8643128227
 20
11.3924720493
  0
LWPOLYLINE
  5
274
100
AcDbEntity
  8
0
100
AcDbPolyline
 62
7
  6
CONTINUOUS
 90
3
 70
0
 10
15.9821458443
 20
11.7618906311
 10
15.9842602917
 20
11.7729739468
 10
15.9853459844
 20
11.7841355041
  0
LWPOLYLINE
  5
275
100
AcDbEntity
  8
0
100
AcDbPolyline
 62
7
  6
CONTINUOUS
 90
3
 70
0
 10
16.103179006
 20
12.1535540859
 10
16.1052934534
 20
12.1646374016
 10
16.1063791461
 20
12.1757989589
  0
LINE
  5
276
100
AcDbEntity
  8
0
100
AcDbLine
 62
7
  6
CONTINUOUS
 10
15.7385453315
 20
10.972959793
 11
15.7400795208
 21
10.9785637215
  0
LINE
  5
277
100
AcDbEntity
  8
0
100
AcDbLine
 62
7
  6
CONTINUOUS
 10
15.8595784932
 20
11.3646232478
 11
15.8611126825
 21
11.3702271763
  0
LINE
  5
278
100
AcDbEntity
  8
0
100
AcDbLine
 62
7
  6
CONTINUOUS
 10
15.9806116549
 20
11.7562867026
 11
15.9821458443
 21
11.7618906311
  0
LINE
  5
279
100
AcDbEntity
  8
0
100
AcDbLine
 62
7
  6
CONTINUOUS
 10
15.6489559255
 20
10.841739534
 11
15.664218323
 21
10.8911286703
  0
LINE
  5
27A
100
AcDbEntity
  8
0
100
AcDbLine
 62
7
  6
CONTINUOUS
 10
15.7526308182
 20
11.1772316097
 11
15.7852514847
 21
11.2827921252
  0
LINE
  5
27B
100
AcDbEntity
  8
0
100
AcDbLine
 62
7
  6
CONTINUOUS
 10
15.8736639799
 20
11.5688950645
 11
15.9062846464
 21
11.67445558
  0
LINE
  5
27C
100
AcDbEntity
  8
0
100
AcDbLine
 62
7
  6
CONTINUOUS
 10
15.9946971416
 20
11.9605585193
 11
16.0273178081
 21
12.0661190348
  0
LINE
  5
27D
100
AcDbEntity
  8
0
100
AcDbLine
 62
7
  6
CONTINUOUS
 10
16.1157303033
 20
12.3522219741
 11
16.1483509698
 21
12.4577824896
  0
LINE
  5
27E
100
AcDbEntity
  8
0
100
AcDbLine
 62
7
  6
CONTINUOUS
 10
16.236763465
 20
12.743885429
 11
16.2693841315
 21
12.8494459444
  0
LINE
  5
27F
100
AcDbEntity
  8
0
100
AcDbLine
 62
7
  6
CONTINUOUS
 10
16.3577966267
 20
13.1355488838
 11
16.3904172932
 21
13.2411093992
  0
LINE
  5
280
100
AcDbEntity
  8
0
100
AcDbLine
 62
7
  6
CONTINUOUS
 10
16.4788297884
 20
13.5272123386
 11
16.5114504549
 21
13.632772854
  0
LINE
  5
281
100
AcDbEntity
  8
0
100
AcDbLine
 62
7
  6
CONTINUOUS
 10
16.5998629501
 20
13.9188757934
 11
16.6161732829
 21
13.9716560496
  0
LINE
  5
282
100
AcDbEntity
  8
0
100
AcDbLine
 62
7
  6
CONTINUOUS
 10
16.5114503497
 20
13.6327754424
 11
16.512229979
 21
13.6352235458
  0
LINE
  5
283
100
AcDbEntity
  8
0
100
AcDbLine
 62
7
  6
CONTINUOUS
 10
16.390417188
 20
13.2411119876
 11
16.3911968173
 21
13.243560091
  0
LINE
  5
284
100
AcDbEntity
  8
0
100
AcDbLine
 62
7
  6
CONTINUOUS
 10
16.2693840263
 20
12.8494485327
 11
16.2701636556
 21
12.8518966362
  0
LINE
  5
285
100
AcDbEntity
  8
0
100
AcDbLine
 62
7
  6
CONTINUOUS
 10
16.1483508646
 20
12.4577850779
 11
16.1491304939
 21
12.4602331813
  0
LINE
  5
286
100
AcDbEntity
  8
0
100
AcDbLine
 62
7
  6
CONTINUOUS
 10
16.0273177029
 20
12.0661216231
 11
16.0280973322
 21
12.0685697265
  0
LINE
  5
287
100
AcDbEntity
  8
0
100
AcDbLine
 62
7
  6
CONTINUOUS
 10
15.9062845412
 20
11.6744581683
 11
15.9070641705
 21
11.6769062717
  0
LINE
  5
288
100
AcDbEntity
  8
0
100
AcDbLine
 62
7
  6
CONTINUOUS
 10
15.7852513795
 20
11.2827947135
 11
15.7860310088
 21
11.2852428169
  0
LINE
  5
289
100
AcDbEntity
  8
0
100
AcDbLine
 62
7
  6
CONTINUOUS
 10
15.6642182178
 20
10.8911312587
 11
15.6649978471
 21
10.8935793621
  0
LINE
  5
28A
100
AcDbEntity
  8
0
100
AcDbLine
 62
7
  6
CONTINUOUS
 10
16.5525383056
 20
13.6071343868
 11
16.5531760827
 21
13.6091056375
  0
LWPOLYLINE
  5
28B
100
AcDbEntity
  8
0
100
AcDbPolyline
 62
7
  6
CONTINUOUS
 90
3
 70
0
 10
16.512229979
 20
13.6352235458
 10
16.5147007304
 20
13.6420497614
 10
16.5167092055
 20
13.6464939051
  0
LWPOLYLINE
  5
28C
100
AcDbEntity
  8
0
100
AcDbPolyline
 62
7
  6
CONTINUOUS
 90
3
 70
0
 10
16.3911968173
 20
13.243560091
 10
16.3936675687
 20
13.2503863066
 10
16.3956760438
 20
13.2548304503
  0
LWPOLYLINE
  5
28D
100
AcDbEntity
  8
0
100
AcDbPolyline
 62
7
  6
CONTINUOUS
 90
3
 70
0
 10
16.2701636556
 20
12.8518966362
 10
16.272634407
 20
12.8587228518
 10
16.2746428821
 20
12.8631669955
  0
LWPOLYLINE
  5
28E
100
AcDbEntity
  8
0
100
AcDbPolyline
 62
7
  6
CONTINUOUS
 90
3
 70
0
 10
16.1491304939
 20
12.4602331813
 10
16.1516012453
 20
12.467059397
 10
16.1536097204
 20
12.4715035407
  0
LWPOLYLINE
  5
28F
100
AcDbEntity
  8
0
100
AcDbPolyline
 62
7
  6
CONTINUOUS
 90
3
 70
0
 10
16.0280973322
 20
12.0685697265
 10
16.0305680836
 20
12.0753959422
 10
16.0325765587
 20
12.0798400858
  0
LWPOLYLINE
  5
290
100
AcDbEntity
  8
0
100
AcDbPolyline
 62
7
  6
CONTINUOUS
 90
3
 70
0
 10
15.9070641705
 20
11.6769062717
 10
15.9095349219
 20
11.6837324874
 10
15.911543397
 20
11.688176631
  0
LINE
  5
291
100
AcDbEntity
  8
0
100
AcDbLine
 62
7
  6
CONTINUOUS
 10
16.5500913808
 20
13.6010313832
 11
16.5525383056
 21
13.6071343868
  0
LINE
  5
292
100
AcDbEntity
  8
0
100
AcDbLine
 62
7
  6
CONTINUOUS
 10
16.4290582191
 20
13.2093679284
 11
16.4315051439
 21
13.2154709319
  0
LINE
  5
293
100
AcDbEntity
  8
0
100
AcDbLine
 62
7
  6
CONTINUOUS
 10
16.3080250574
 20
12.8177044736
 11
16.3104719822
 21
12.8238074771
  0
LINE
  5
294
100
AcDbEntity
  8
0
100
AcDbLine
 62
7
  6
CONTINUOUS
 10
16.1869918957
 20
12.4260410188
 11
16.1894388205
 21
12.4321440223
  0
LINE
  5
295
100
AcDbEntity
  8
0
100
AcDbLine
 62
7
  6
CONTINUOUS
 10
16.1536097204
 20
12.4715035407
 11
16.1543168985
 21
12.472771186
  0
LINE
  5
296
100
AcDbEntity
  8
0
100
AcDbLine
 62
7
  6
CONTINUOUS
 10
16.3752156433
 20
13.1919168423
 11
16.4037053489
 21
13.1919168423
  0
LINE
  5
297
100
AcDbEntity
  8
0
100
AcDbLine
 62
7
  6
CONTINUOUS
 10
16.2274935579
 20
12.5735793105
 11
16.2253028177
 21
12.6636847454
  0
LWPOLYLINE
  5
298
100
AcDbEntity
  8
0
100
AcDbPolyline
 62
7
  6
CONTINUOUS
 90
7
 70
0
 10
16.2253017084
 20
12.6637089341
 10
16.2252900042
 20
12.6705956651
 10
16.2261213822
 20
12.6861539459
 10
16.2281186267
 20
12.7036529876
 10
16.2311167002
 20
12.7211801276
 10
16.2347297543
 20
12.7367881677
 10
16.236758077
 20
12.7438722109
  0
LINE
  5
299
100
AcDbEntity
  8
0
100
AcDbLine
 62
7
  6
CONTINUOUS
 10
16.2274123078
 20
12.5674624137
 11
16.2274920021
 21
12.5736367218
  0
LWPOLYLINE
  5
29A
100
AcDbEntity
  8
0
100
AcDbPolyline
 62
7
  6
CONTINUOUS
 90
3
 70
0
 10
16.2242121677
 20
12.5452175407
 10
16.2263266151
 20
12.5563008564
 10
16.2274123078
 20
12.5674624137
  0
LWPOLYLINE
  5
29B
100
AcDbEntity
  8
0
100
AcDbPolyline
 62
7
  6
CONTINUOUS
 90
3
 70
0
 10
16.3452453294
 20
12.9368809955
 10
16.3473597768
 20
12.9479643112
 10
16.3484454695
 20
12.9591258685
  0
LWPOLYLINE
  5
29C
100
AcDbEntity
  8
0
100
AcDbPolyline
 62
7
  6
CONTINUOUS
 90
3
 70
0
 10
16.4662784911
 20
13.3285444504
 10
16.4683929385
 20
13.339627766
 10
16.4694786312
 20
13.3507893234
  0
LINE
  5
29D
100
AcDbEntity
  8
0
100
AcDbLine
 62
7
  6
CONTINUOUS
 10
16.1016448166
 20
12.1479501575
 11
16.103179006
 21
12.1535540859
  0
LINE
  5
29E
100
AcDbEntity
  8
0
100
AcDbLine
 62
7
  6
CONTINUOUS
 10
16.2226779783
 20
12.5396136123
 11
16.2242121677
 21
12.5452175407
  0
LINE
  5
29F
100
AcDbEntity
  8
0
100
AcDbLine
 62
7
  6
CONTINUOUS
 10
16.34371114
 20
12.9312770671
 11
16.3452453294
 21
12.9368809955
  0
LINE
  5
2A0
100
AcDbEntity
  8
0
100
AcDbLine
 62
7
  6
CONTINUOUS
 10
16.4647443017
 20
13.3229405219
 11
16.4662784911
 21
13.3285444504
  0
LINE
  5
2A1
100
AcDbEntity
  8
0
100
AcDbLine
 62
7
  6
CONTINUOUS
 10
16.5857774634
 20
13.7146039767
 11
16.5873116528
 21
13.7202079052
  0
LINE
  5
2A2
100
AcDbEntity
  8
0
100
AcDbLine
 62
7
  6
CONTINUOUS
 10
15.7059367582
 20
10.8674380548
 11
15.7385574238
 21
10.9729985672
  0
LINE
  5
2A3
100
AcDbEntity
  8
0
100
AcDbLine
 62
7
  6
CONTINUOUS
 10
15.8269699199
 20
11.2591015096
 11
15.8595905855
 21
11.364662022
  0
LINE
  5
2A4
100
AcDbEntity
  8
0
100
AcDbLine
 62
7
  6
CONTINUOUS
 10
15.9480030816
 20
11.6507649644
 11
15.9806237472
 21
11.7563254768
  0
LINE
  5
2A5
100
AcDbEntity
  8
0
100
AcDbLine
 62
7
  6
CONTINUOUS
 10
16.0690362433
 20
12.0424284192
 11
16.1016569089
 21
12.1479889317
  0
LINE
  5
2A6
100
AcDbEntity
  8
0
100
AcDbLine
 62
7
  6
CONTINUOUS
 10
16.190069405
 20
12.434091874
 11
16.2226900706
 21
12.5396523865
  0
LINE
  5
2A7
100
AcDbEntity
  8
0
100
AcDbLine
 62
7
  6
CONTINUOUS
 10
16.3111025667
 20
12.8257553289
 11
16.3437232323
 21
12.9313158413
  0
LINE
  5
2A8
100
AcDbEntity
  8
0
100
AcDbLine
 62
7
  6
CONTINUOUS
 10
16.4321357284
 20
13.2174187837
 11
16.464756394
 21
13.3229792961
  0
LINE
  5
2A9
100
AcDbEntity
  8
0
100
AcDbLine
 62
7
  6
CONTINUOUS
 10
16.5531688902
 20
13.6090822385
 11
16.5857895557
 21
13.7146427509
  0
LINE
  5
2AA
100
AcDbEntity
  8
0
100
AcDbLine
 62
7
  6
CONTINUOUS
 10
16.5857895557
 20
13.7146427509
 11
16.5857774679
 21
13.7146039755
  0
LINE
  5
2AB
100
AcDbEntity
  8
0
100
AcDbLine
 62
7
  6
CONTINUOUS
 10
16.464756394
 20
13.3229792961
 11
16.4647443062
 21
13.3229405207
  0
LINE
  5
2AC
100
AcDbEntity
  8
0
100
AcDbLine
 62
7
  6
CONTINUOUS
 10
16.3437232323
 20
12.9313158413
 11
16.3437111445
 21
12.9312770659
  0
LINE
  5
2AD
100
AcDbEntity
  8
0
100
AcDbLine
 62
7
  6
CONTINUOUS
 10
16.2226900706
 20
12.5396523865
 11
16.2226779828
 21
12.5396136111
  0
LINE
  5
2AE
100
AcDbEntity
  8
0
100
AcDbLine
 62
7
  6
CONTINUOUS
 10
16.1016569089
 20
12.1479889317
 11
16.1016448211
 21
12.1479501563
  0
LINE
  5
2AF
100
AcDbEntity
  8
0
100
AcDbLine
 62
7
  6
CONTINUOUS
 10
15.9806237472
 20
11.7563254768
 11
15.9806116593
 21
11.7562867014
  0
LINE
  5
2B0
100
AcDbEntity
  8
0
100
AcDbLine
 62
7
  6
CONTINUOUS
 10
15.8595905855
 20
11.364662022
 11
15.8595784976
 21
11.3646232466
  0
LINE
  5
2B1
100
AcDbEntity
  8
0
100
AcDbLine
 62
7
  6
CONTINUOUS
 10
15.7385574238
 20
10.9729985672
 11
15.7385453359
 21
10.9729597918
  0
LINE
  5
2B2
100
AcDbEntity
  8
0
100
AcDbLine
 62
7
  6
CONTINUOUS
 10
16.4315051439
 20
13.2154709319
 11
16.432142921
 21
13.2174421827
  0
LINE
  5
2B3
100
AcDbEntity
  8
0
100
AcDbLine
 62
7
  6
CONTINUOUS
 10
16.3104719822
 20
12.8238074771
 11
16.3111097593
 21
12.8257787279
  0
LINE
  5
2B4
100
AcDbEntity
  8
0
100
AcDbLine
 62
7
  6
CONTINUOUS
 10
16.1894388205
 20
12.4321440223
 11
16.1900765976
 21
12.4341152731
  0
LINE
  5
2B5
100
AcDbEntity
  8
0
100
AcDbLine
 62
7
  6
CONTINUOUS
 10
16.0684056588
 20
12.0404805675
 11
16.0690434359
 21
12.0424518183
  0
LINE
  5
2B6
100
AcDbEntity
  8
0
100
AcDbLine
 62
7
  6
CONTINUOUS
 10
15.9473724971
 20
11.6488171127
 11
15.9480102742
 21
11.6507883635
  0
LINE
  5
2B7
100
AcDbEntity
  8
0
100
AcDbLine
 62
7
  6
CONTINUOUS
 10
15.8263393354
 20
11.2571536579
 11
15.8269771125
 21
11.2591249087
  0
LINE
  5
2B8
100
AcDbEntity
  8
0
100
AcDbLine
 62
7
  6
CONTINUOUS
 10
15.7053061737
 20
10.8654902031
 11
15.7059439508
 21
10.8674614539
  0
LWPOLYLINE
  5
2B9
100
AcDbEntity
  8
0
100
AcDbPolyline
 62
7
  6
CONTINUOUS
 90
3
 70
0
 10
15.7860310088
 20
11.2852428169
 10
15.7885017602
 20
11.2920690326
 10
15.7905102353
 20
11.2965131762
  0
LWPOLYLINE
  5
2BA
100
AcDbEntity
  8
0
100
AcDbPolyline
 62
7
  6
CONTINUOUS
 90
3
 70
0
 10
15.6649978471
 20
10.8935793621
 10
15.6674685985
 20
10.9004055777
 10
15.6694770736
 20
10.9048497214
  0
LINE
  5
2BB
100
AcDbEntity
  8
0
100
AcDbLine
 62
7
  6
CONTINUOUS
 10
16.065958734
 20
12.0343775639
 11
16.0684056588
 21
12.0404805675
  0
LINE
  5
2BC
100
AcDbEntity
  8
0
100
AcDbLine
 62
7
  6
CONTINUOUS
 10
15.9449255723
 20
11.6427141091
 11
15.9473724971
 21
11.6488171127
  0
LINE
  5
2BD
100
AcDbEntity
  8
0
100
AcDbLine
 62
7
  6
CONTINUOUS
 10
15.8238924106
 20
11.2510506543
 11
15.8263393354
 21
11.2571536579
  0
LINE
  5
2BE
100
AcDbEntity
  8
0
100
AcDbLine
 62
7
  6
CONTINUOUS
 10
15.7028592489
 20
10.8593871995
 11
15.7053061737
 21
10.8654902031
  0
LINE
  5
2BF
100
AcDbEntity
  8
0
100
AcDbLine
 62
7
  6
CONTINUOUS
 10
16.0325765587
 20
12.0798400858
 11
16.0332837368
 21
12.0811077312
  0
LINE
  5
2C0
100
AcDbEntity
  8
0
100
AcDbLine
 62
7
  6
CONTINUOUS
 10
15.911543397
 20
11.688176631
 11
15.9122505751
 21
11.6894442764
  0
LINE
  5
2C1
100
AcDbEntity
  8
0
100
AcDbLine
 62
7
  6
CONTINUOUS
 10
16.3485267196
 20
12.9652427653
 11
16.3463359794
 21
13.0553482002
  0
LWPOLYLINE
  5
2C2
100
AcDbEntity
  8
0
100
AcDbPolyline
 62
7
  6
CONTINUOUS
 90
7
 70
0
 10
16.3463348701
 20
13.0553723889
 10
16.3463231659
 20
13.0622591199
 10
16.3471545439
 20
13.0778174007
 10
16.3491517884
 20
13.0953164424
 10
16.3521498619
 20
13.1128435824
 10
16.355762916
 20
13.1284516226
 10
16.3577912387
 20
13.1355356657
  0
LINE
  5
2C3
100
AcDbEntity
  8
0
100
AcDbLine
 62
7
  6
CONTINUOUS
 10
16.3484454695
 20
12.9591258685
 11
16.3485251638
 21
12.9653001766
  0
LWPOLYLINE
  5
2C4
100
AcDbEntity
  8
0
100
AcDbPolyline
 62
7
  6
CONTINUOUS
 90
3
 70
0
 10
16.5873116528
 20
13.7202079052
 10
16.5894261002
 20
13.7312912209
 10
16.5905117929
 20
13.7424527782
  0
LINE
  5
2C5
100
AcDbEntity
  8
0
100
AcDbLine
 62
7
  6
CONTINUOUS
 10
15.7905102353
 20
11.2965131762
 11
15.7912174134
 21
11.2977808215
  0
LINE
  5
2C6
100
AcDbEntity
  8
0
100
AcDbLine
 62
7
  6
CONTINUOUS
 10
15.6694770736
 20
10.9048497214
 11
15.6701842517
 21
10.9061173667
  0
LWPOLYLINE
  5
2C7
100
AcDbEntity
  8
0
100
AcDbPolyline
 62
7
  6
CONTINUOUS
 90
5
 70
0
 10
16.5247417504
 20
13.5835803388
 10
16.5328945498
 20
13.584893507
 10
16.5406048934
 20
13.588944289
 10
16.5463671245
 20
13.5947758814
 10
16.5500913808
 20
13.6010313832
  0
LINE
  5
2C8
100
AcDbEntity
  8
0
100
AcDbLine
 62
7
  6
CONTINUOUS
 10
16.4695598813
 20
13.3569062201
 11
16.4673691411
 21
13.447011655
  0
LWPOLYLINE
  5
2C9
100
AcDbEntity
  8
0
100
AcDbPolyline
 62
7
  6
CONTINUOUS
 90
7
 70
0
 10
16.4673680318
 20
13.4470358437
 10
16.4673563276
 20
13.4539225748
 10
16.4681877056
 20
13.4694808556
 10
16.4701849501
 20
13.4869798972
 10
16.4731830236
 20
13.5045070372
 10
16.4767960777
 20
13.5201150774
 10
16.4788244004
 20
13.5271991206
  0
LINE
  5
2CA
100
AcDbEntity
  8
0
100
AcDbLine
 62
7
  6
CONTINUOUS
 10
16.4694786312
 20
13.3507893234
 11
16.4695583255
 21
13.3569636314
  0
LINE
  5
2CB
100
AcDbEntity
  8
0
100
AcDbLine
 62
7
  6
CONTINUOUS
 10
16.6164752081
 20
13.9752777073
 11
16.6161711291
 21
13.9716567124
  0
LINE
  5
2CC
100
AcDbEntity
  8
0
100
AcDbLine
 62
7
  6
CONTINUOUS
 10
16.4962488051
 20
13.5835802971
 11
16.5247385106
 21
13.5835802971
  0
LINE
  5
2CD
100
AcDbEntity
  8
0
100
AcDbLine
 62
7
  6
CONTINUOUS
 10
16.590593043
 20
13.7485696749
 11
16.5884023028
 21
13.8386751098
  0
LWPOLYLINE
  5
2CE
100
AcDbEntity
  8
0
100
AcDbPolyline
 62
7
  6
CONTINUOUS
 90
7
 70
0
 10
16.5884011935
 20
13.8386992986
 10
16.5883894894
 20
13.8455860296
 10
16.5892208673
 20
13.8611443104
 10
16.5912181118
 20
13.878643352
 10
16.5942161853
 20
13.896170492
 10
16.5978292394
 20
13.9117785322
 10
16.5998575621
 20
13.9188625754
  0
LINE
  5
2CF
100
AcDbEntity
  8
0
100
AcDbLine
 62
7
  6
CONTINUOUS
 10
16.5905117929
 20
13.7424527782
 11
16.5905914872
 21
13.7486270862
  0
LINE
  5
2D0
100
AcDbEntity
  8
0
100
AcDbLine
 62
7
  6
CONTINUOUS
 10
16.6164752081
 20
13.9752777073
 11
16.6015241929
 21
14.0985435736
  0
LINE
  5
2D1
100
AcDbEntity
  8
0
100
AcDbLine
 62
7
  6
CONTINUOUS
 10
16.5356561687
 20
14.1914206397
 11
15.3106450467
 21
14.1914206397
  0
LINE
  5
2D2
100
AcDbEntity
  8
0
100
AcDbLine
 62
7
  6
CONTINUOUS
 10
16.596880507
 20
14.1135816797
 11
16.5663087402
 21
14.1758803905
  0
ARC
  5
2D3
100
AcDbEntity
  8
0
100
AcDbCircle
 62
7
  6
CONTINUOUS
 10
5.5170370841
 20
5.453453231
 40
0.025
100
AcDbArc
 50
194.0
 51
270.0
  0
ARC
  5
2D4
100
AcDbEntity
  8
0
100
AcDbCircle
 62
7
  6
CONTINUOUS
 10
5.5627472182
 20
5.2701198968
 40
0.025
100
AcDbArc
 50
193.9999980018
 51
269.9999995166
  0
ARC
  5
2D5
100
AcDbEntity
  8
0
100
AcDbCircle
 62
7
  6
CONTINUOUS
 10
5.5403672762
 20
5.6698983538
 40
0.1
100
AcDbArc
 50
180.0
 51
194.0
  0
ARC
  5
2D6
100
AcDbEntity
  8
0
100
AcDbCircle
 62
7
  6
CONTINUOUS
 10
5.4653672762
 20
5.7701198977
 40
0.025
100
AcDbArc
 50
90.0
 51
180.0
  0
ARC
  5
2D7
100
AcDbEntity
  8
0
100
AcDbCircle
 62
7
  6
CONTINUOUS
 10
6.6979873343
 20
5.2701198977
 40
0.025
100
AcDbArc
 50
270.0
 51
346.0
  0
ARC
  5
2D8
100
AcDbEntity
  8
0
100
AcDbCircle
 62
7
  6
CONTINUOUS
 10
6.7436974682
 20
5.453453231
 40
0.025
100
AcDbArc
 50
270.0
 51
346.0
  0
ARC
  5
2D9
100
AcDbEntity
  8
0
100
AcDbCircle
 62
7
  6
CONTINUOUS
 10
6.7203672762
 20
5.6698983538
 40
0.1
100
AcDbArc
 50
346.0
 51
360.0
  0
ARC
  5
2DA
100
AcDbEntity
  8
0
100
AcDbCircle
 62
7
  6
CONTINUOUS
 10
6.7953672762
 20
5.7701198977
 40
0.025
100
AcDbArc
 50
0.0
 51
90.0
  0
ARC
  5
2DB
100
AcDbEntity
  8
0
100
AcDbCircle
 62
7
  6
CONTINUOUS
 10
13.742975654
 20
5.2314580387
 40
0.0458333333
100
AcDbArc
 50
193.0
 51
270.0
  0
ARC
  5
2DC
100
AcDbEntity
  8
0
100
AcDbCircle
 62
7
  6
CONTINUOUS
 10
13.8777348599
 20
5.2314580387
 40
0.0458333333
100
AcDbArc
 50
270.0
 51
347.0
  0
ARC
  5
2DD
100
AcDbEntity
  8
0
100
AcDbCircle
 62
7
  6
CONTINUOUS
 10
14.242975654
 20
5.2314580387
 40
0.0458333333
100
AcDbArc
 50
193.0
 51
270.0
  0
ARC
  5
2DE
100
AcDbEntity
  8
0
100
AcDbCircle
 62
7
  6
CONTINUOUS
 10
14.3777348599
 20
5.2314580387
 40
0.0458333333
100
AcDbArc
 50
270.0
 51
347.0
  0
ARC
  5
2DF
100
AcDbEntity
  8
0
100
AcDbCircle
 62
7
  6
CONTINUOUS
 10
14.742975654
 20
5.2314580387
 40
0.0458333333
100
AcDbArc
 50
193.0
 51
270.0
  0
ARC
  5
2E0
100
AcDbEntity
  8
0
100
AcDbCircle
 62
7
  6
CONTINUOUS
 10
14.8777348599
 20
5.2314580387
 40
0.0458333333
100
AcDbArc
 50
270.0
 51
347.0
  0
ARC
  5
2E1
100
AcDbEntity
  8
0
100
AcDbCircle
 62
7
  6
CONTINUOUS
 10
15.242975654
 20
5.2314580387
 40
0.0458333333
100
AcDbArc
 50
193.0
 51
270.0
  0
ARC
  5
2E2
100
AcDbEntity
  8
0
100
AcDbCircle
 62
7
  6
CONTINUOUS
 10
15.3777348599
 20
5.2314580387
 40
0.0458333333
100
AcDbArc
 50
270.0
 51
347.0
  0
ARC
  5
2E3
100
AcDbEntity
  8
0
100
AcDbCircle
 62
7
  6
CONTINUOUS
 10
13.6277348599
 20
5.3231247054
 40
0.0458333333
100
AcDbArc
 50
13.0
 51
90.0
  0
ARC
  5
2E4
100
AcDbEntity
  8
0
100
AcDbCircle
 62
7
  6
CONTINUOUS
 10
13.992975654
 20
5.3231247054
 40
0.0458333333
100
AcDbArc
 50
90.0
 51
167.0
  0
ARC
  5
2E5
100
AcDbEntity
  8
0
100
AcDbCircle
 62
7
  6
CONTINUOUS
 10
14.1277348599
 20
5.3231247054
 40
0.0458333333
100
AcDbArc
 50
13.0
 51
90.0
  0
ARC
  5
2E6
100
AcDbEntity
  8
0
100
AcDbCircle
 62
7
  6
CONTINUOUS
 10
14.492975654
 20
5.3231247054
 40
0.0458333333
100
AcDbArc
 50
90.0
 51
167.0
  0
ARC
  5
2E7
100
AcDbEntity
  8
0
100
AcDbCircle
 62
7
  6
CONTINUOUS
 10
14.6277348599
 20
5.3231247054
 40
0.0458333333
100
AcDbArc
 50
13.0
 51
90.0
  0
ARC
  5
2E8
100
AcDbEntity
  8
0
100
AcDbCircle
 62
7
  6
CONTINUOUS
 10
14.992975654
 20
5.3231247054
 40
0.0458333333
100
AcDbArc
 50
90.0
 51
167.0
  0
ARC
  5
2E9
100
AcDbEntity
  8
0
100
AcDbCircle
 62
7
  6
CONTINUOUS
 10
15.1277348599
 20
5.3231247054
 40
0.0458333333
100
AcDbArc
 50
13.0
 51
90.0
  0
ARC
  5
2EA
100
AcDbEntity
  8
0
100
AcDbCircle
 62
7
  6
CONTINUOUS
 10
15.492975654
 20
5.3231247054
 40
0.0458333333
100
AcDbArc
 50
90.0
 51
167.0
  0
ARC
  5
2EB
100
AcDbEntity
  8
0
100
AcDbCircle
 62
7
  6
CONTINUOUS
 10
17.3777348599
 20
5.2314580387
 40
0.0458333333
100
AcDbArc
 50
270.0
 51
347.0
  0
ARC
  5
2EC
100
AcDbEntity
  8
0
100
AcDbCircle
 62
7
  6
CONTINUOUS
 10
17.242975654
 20
5.2314580387
 40
0.0458333333
100
AcDbArc
 50
193.0
 51
270.0
  0
ARC
  5
2ED
100
AcDbEntity
  8
0
100
AcDbCircle
 62
7
  6
CONTINUOUS
 10
16.8777348599
 20
5.2314580387
 40
0.0458333333
100
AcDbArc
 50
270.0
 51
347.0
  0
ARC
  5
2EE
100
AcDbEntity
  8
0
100
AcDbCircle
 62
7
  6
CONTINUOUS
 10
16.742975654
 20
5.2314580387
 40
0.0458333333
100
AcDbArc
 50
193.0
 51
270.0
  0
ARC
  5
2EF
100
AcDbEntity
  8
0
100
AcDbCircle
 62
7
  6
CONTINUOUS
 10
16.3777348599
 20
5.2314580387
 40
0.0458333333
100
AcDbArc
 50
270.0
 51
347.0
  0
ARC
  5
2F0
100
AcDbEntity
  8
0
100
AcDbCircle
 62
7
  6
CONTINUOUS
 10
16.242975654
 20
5.2314580387
 40
0.0458333333
100
AcDbArc
 50
193.0
 51
270.0
  0
ARC
  5
2F1
100
AcDbEntity
  8
0
100
AcDbCircle
 62
7
  6
CONTINUOUS
 10
15.8777348599
 20
5.2314580387
 40
0.0458333333
100
AcDbArc
 50
270.0
 51
347.0
  0
ARC
  5
2F2
100
AcDbEntity
  8
0
100
AcDbCircle
 62
7
  6
CONTINUOUS
 10
15.742975654
 20
5.2314580387
 40
0.0458333333
100
AcDbArc
 50
193.0
 51
270.0
  0
ARC
  5
2F3
100
AcDbEntity
  8
0
100
AcDbCircle
 62
7
  6
CONTINUOUS
 10
17.492975654
 20
5.3231247054
 40
0.0458333333
100
AcDbArc
 50
90.0
 51
167.0
  0
ARC
  5
2F4
100
AcDbEntity
  8
0
100
AcDbCircle
 62
7
  6
CONTINUOUS
 10
17.1277348599
 20
5.3231247054
 40
0.0458333333
100
AcDbArc
 50
13.0
 51
90.0
  0
ARC
  5
2F5
100
AcDbEntity
  8
0
100
AcDbCircle
 62
7
  6
CONTINUOUS
 10
16.992975654
 20
5.3231247054
 40
0.0458333333
100
AcDbArc
 50
90.0
 51
167.0
  0
ARC
  5
2F6
100
AcDbEntity
  8
0
100
AcDbCircle
 62
7
  6
CONTINUOUS
 10
16.6277348599
 20
5.3231247054
 40
0.0458333333
100
AcDbArc
 50
13.0
 51
90.0
  0
ARC
  5
2F7
100
AcDbEntity
  8
0
100
AcDbCircle
 62
7
  6
CONTINUOUS
 10
16.492975654
 20
5.3231247054
 40
0.0458333333
100
AcDbArc
 50
90.0
 51
167.0
  0
ARC
  5
2F8
100
AcDbEntity
  8
0
100
AcDbCircle
 62
7
  6
CONTINUOUS
 10
16.1277348599
 20
5.3231247054
 40
0.0458333333
100
AcDbArc
 50
13.0
 51
90.0
  0
ARC
  5
2F9
100
AcDbEntity
  8
0
100
AcDbCircle
 62
7
  6
CONTINUOUS
 10
15.992975654
 20
5.3231247054
 40
0.0458333333
100
AcDbArc
 50
90.0
 51
167.0
  0
ARC
  5
2FA
100
AcDbEntity
  8
0
100
AcDbCircle
 62
7
  6
CONTINUOUS
 10
15.6277348599
 20
5.3231247054
 40
0.0458333333
100
AcDbArc
 50
13.0
 51
90.0
  0
SPLINE
  5
2FB
100
AcDbEntity
  8
0
100
AcDbSpline
 62
7
  6
CONTINUOUS
 70
0
 71
3
 72
15
 73
11
 74
0
 42
0.0000001
 43
0.0000001
 44
0.0000000001
 40
0.0
 40
0.0
 40
0.0
 40
0.0
 40
0.1295684861
 40
0.2645756159
 40
0.4012660015
 40
0.5362717026
 40
0.6662157516
 40
0.7881011358
 40
0.8998143929
 40
1.0
 40
1.0
 40
1.0
 40
1.0
 10
16.5356561687
 20
14.1914206397
 30
0.0
 10
16.5372044268
 20
14.1914206397
 30
0.0
 10
16.540368378
 20
14.1912054117
 30
0.0
 10
16.5450908935
 20
14.1903215201
 30
0.0
 10
16.5497472014
 20
14.1888940679
 30
0.0
 10
16.5541590693
 20
14.1869787485
 30
0.0
 10
16.5581652587
 20
14.184650063
 30
0.0
 10
16.5616173413
 20
14.1819887296
 30
0.0
 10
16.5643831937
 20
14.1790926837
 30
0.0
 10
16.5657813436
 20
14.1769551118
 30
0.0
 10
16.5663087402
 20
14.1758803905
 30
0.0
  0
SPLINE
  5
2FC
100
AcDbEntity
  8
0
100
AcDbSpline
 62
7
  6
CONTINUOUS
 70
0
 71
3
 72
15
 73
11
 74
0
 42
0.0000001
 43
0.0000001
 44
0.0000000001
 40
0.0
 40
0.0
 40
0.0
 40
0.0
 40
0.0996460811
 40
0.2028720459
 40
0.3125943473
 40
0.4308573243
 40
0.5588154819
 40
0.696831495
 40
0.8443984528
 40
1.0
 40
1.0
 40
1.0
 40
1.0
 10
15.2943855569
 20
14.183261583
 30
0.0
 10
15.2945756721
 20
14.1838768244
 30
0.0
 10
15.2951143113
 20
14.1850877678
 30
0.0
 10
15.2963453001
 20
14.186708713
 30
0.0
 10
15.2979686883
 20
14.1881238799
 30
0.0
 10
15.2999528542
 20
14.1893079386
 30
0.0
 10
15.3022603972
 20
14.1902465696
 30
0.0
 10
15.304852011
 20
14.1909252957
 30
0.0
 10
15.307678886
 20
14.1913329571
 30
0.0
 10
15.3096394988
 20
14.1914206397
 30
0.0
 10
15.3106450467
 20
14.1914206397
 30
0.0
  0
SPLINE
  5
2FD
100
AcDbEntity
  8
0
100
AcDbSpline
 62
7
  6
CONTINUOUS
 70
0
 71
3
 72
11
 73
7
 74
0
 42
0.0000001
 43
0.0000001
 44
0.0000000001
 40
0.0
 40
0.0
 40
0.0
 40
0.0
 40
0.2336945867
 40
0.4747281029
 40
0.7289544359
 40
1.0
 40
1.0
 40
1.0
 40
1.0
 10
14.3261202633
 20
11.0499539445
 30
0.0
 10
14.3259454086
 20
11.0493880883
 30
0.0
 10
14.3257150968
 20
11.0481959406
 30
0.0
 10
14.3257573872
 20
11.0463366623
 30
0.0
 10
14.3261751951
 20
11.0444294875
 30
0.0
 10
14.3266766593
 20
11.0431894176
 30
0.0
 10
14.3269792749
 20
11.042572752
 30
0.0
  0
SPLINE
  5
2FE
100
AcDbEntity
  8
0
100
AcDbSpline
 62
7
  6
CONTINUOUS
 70
0
 71
3
 72
9
 73
5
 74
0
 42
0.0000001
 43
0.0000001
 44
0.0000000001
 40
0.0
 40
0.0
 40
0.0
 40
0.0
 40
0.5166047308
 40
1.0
 40
1.0
 40
1.0
 40
1.0
 10
16.596880507
 20
14.1135816797
 30
0.0
 10
16.598078691
 20
14.1111400375
 30
0.0
 10
16.6000709693
 20
14.1062418662
 30
0.0
 10
16.6012177595
 20
14.1010700091
 30
0.0
 10
16.6015241929
 20
14.0985435736
 30
0.0
  0
SPLINE
  5
2FF
100
AcDbEntity
  8
0
100
AcDbSpline
 62
7
  6
CONTINUOUS
 70
0
 71
3
 72
14
 73
10
 74
0
 42
0.0000001
 43
0.0000001
 44
0.0000000001
 40
0.0
 40
0.0
 40
0.0
 40
0.0
 40
0.155618967
 40
0.3032573443
 40
0.5688333464
 40
0.6871444467
 40
0.7968769805
 40
0.9001669589
 40
1.0
 40
1.0
 40
1.0
 40
1.0
 10
15.6316485148
 20
10.8301893461
 30
0.0
 10
15.6326535978
 20
10.8301893461
 30
0.0
 10
15.6346145337
 20
10.8302772023
 30
0.0
 10
15.6382524416
 20
10.8308018964
 30
0.0
 10
15.6415731869
 20
10.8318460141
 30
0.0
 10
15.6443235352
 20
10.8334846674
 30
0.0
 10
15.6459473073
 20
10.834899078
 30
0.0
 10
15.6471785471
 20
10.8365204786
 30
0.0
 10
15.6477171528
 20
10.8377325138
 30
0.0
 10
15.6479069139
 20
10.838348741
 30
0.0
  0
SPLINE
  5
300
100
AcDbEntity
  8
0
100
AcDbSpline
 62
7
  6
CONTINUOUS
 70
0
 71
3
 72
15
 73
11
 74
0
 42
0.0000001
 43
0.0000001
 44
0.0000000001
 40
0.0
 40
0.0
 40
0.0
 40
0.0
 40
0.1095608671
 40
0.2276765998
 40
0.352429099
 40
0.4818022776
 40
0.6136293149
 40
0.7455987638
 40
0.875299508
 40
1.0
 40
1.0
 40
1.0
 40
1.0
 10
14.4736958045
 20
10.8419700688
 30
0.0
 10
14.4744416737
 20
10.8411029471
 30
0.0
 10
14.4761339781
 20
10.8394211997
 30
0.0
 10
14.4790520807
 20
10.8371676795
 30
0.0
 10
14.4823809746
 20
10.8351481201
 30
0.0
 10
14.4860245862
 20
10.8334131407
 30
0.0
 10
14.4898887625
 20
10.8320111286
 30
0.0
 10
14.4938706965
 20
10.8309759911
 30
0.0
 10
14.4978602978
 20
10.8303424808
 30
0.0
 10
14.5005176553
 20
10.8301893461
 30
0.0
 10
14.5018194822
 20
10.8301893461
 30
0.0
  0
SPLINE
  5
301
100
AcDbEntity
  8
0
100
AcDbSpline
 62
7
  6
CONTINUOUS
 70
0
 71
3
 72
9
 73
5
 74
0
 42
0.0000001
 43
0.0000001
 44
0.0000000001
 40
0.0
 40
0.0
 40
0.0
 40
0.0
 40
0.4825233809
 40
1.0
 40
1.0
 40
1.0
 40
1.0
 10
14.3575510417
 20
10.9802740412
 30
0.0
 10
14.3588378179
 20
10.9776518669
 30
0.0
 10
14.3619161775
 20
10.9724145086
 30
0.0
 10
14.365623894
 20
10.9676107343
 30
0.0
 10
14.3676666171
 20
10.965235935
 30
0.0
  0
SPLINE
  5
302
100
AcDbEntity
  8
0
100
AcDbSpline
 62
7
  6
CONTINUOUS
 70
0
 71
3
 72
15
 73
11
 74
0
 42
0.0000001
 43
0.0000001
 44
0.0000000001
 40
0.0
 40
0.0
 40
0.0
 40
0.0
 40
0.1001856071
 40
0.2118988642
 40
0.3337842484
 40
0.4637282974
 40
0.5987339985
 40
0.7354243841
 40
0.8704315139
 40
1.0
 40
1.0
 40
1.0
 40
1.0
 10
15.5980434466
 20
11.042572752
 30
0.0
 10
15.59751605
 20
11.0436474733
 30
0.0
 10
15.5961179
 20
11.0457850452
 30
0.0
 10
15.5933520477
 20
11.048681091
 30
0.0
 10
15.5898999651
 20
11.0513424244
 30
0.0
 10
15.5858937757
 20
11.05367111
 30
0.0
 10
15.5814819078
 20
11.0555864294
 30
0.0
 10
15.5768255999
 20
11.0570138816
 30
0.0
 10
15.5721030844
 20
11.0578977732
 30
0.0
 10
15.5689391332
 20
11.0581130012
 30
0.0
 10
15.5673908751
 20
11.0581130012
 30
0.0
  0
SPLINE
  5
303
100
AcDbEntity
  8
0
100
AcDbSpline
 62
7
  6
CONTINUOUS
 70
0
 71
3
 72
15
 73
11
 74
0
 42
0.0000001
 43
0.0000001
 44
0.0000000001
 40
0.0
 40
0.0
 40
0.0
 40
0.0
 40
0.1556015472
 40
0.303168505
 40
0.4411845181
 40
0.5691426757
 40
0.6874056527
 40
0.7971279541
 40
0.9003539189
 40
1.0
 40
1.0
 40
1.0
 40
1.0
 10
14.3423797531
 20
11.0581130012
 30
0.0
 10
14.3413742051
 20
11.0581130012
 30
0.0
 10
14.3394135923
 20
11.0580253186
 30
0.0
 10
14.3365867174
 20
11.0576176572
 30
0.0
 10
14.3339951035
 20
11.0569389311
 30
0.0
 10
14.3316875605
 20
11.0560003001
 30
0.0
 10
14.3297033947
 20
11.0548162414
 30
0.0
 10
14.3280800065
 20
11.0534010745
 30
0.0
 10
14.3268490177
 20
11.0517801293
 30
0.0
 10
14.3263103784
 20
11.0505691859
 30
0.0
 10
14.3261202633
 20
11.0499539445
 30
0.0
  0
SPLINE
  5
304
100
AcDbEntity
  8
0
100
AcDbSpline
 62
7
  6
CONTINUOUS
 70
0
 71
3
 72
9
 73
5
 74
0
 42
0.0000001
 43
0.0000001
 44
0.0000000001
 40
0.0
 40
0.0
 40
0.0
 40
0.0
 40
0.4833952692
 40
1.0
 40
1.0
 40
1.0
 40
1.0
 10
15.6332588993
 20
10.965235935
 30
0.0
 10
15.6329524659
 20
10.9677623706
 30
0.0
 10
15.6318056757
 20
10.9729342276
 30
0.0
 10
15.6298133974
 20
10.977832399
 30
0.0
 10
15.6286152134
 20
10.9802740412
 30
0.0
  0
ENDSEC
  0
SECTION
  2
OBJECTS
  0
DICTIONARY
  5
C
100
AcDbDictionary
280
0
281
1
  3
ACAD_GROUP
350
D
  3
ACAD_MLINESTYLE
350
17
  3
ACAD_LAYOUT
350
1A
  3
ACAD_PLOTSETTINGS
350
19
  3
ACAD_PLOTSTYLENAME
350
E
  0
DICTIONARY
  5
D
102
{ACAD_REACTORS
330
C
102
}
100
AcDbDictionary
280
0
281
1
  0
ACDBDICTIONARYWDFLT
  5
E
102
{ACAD_REACTORS
330
C
102
}
100
AcDbDictionary
281
1
  3
Normal
350
F
100
AcDbDictionaryWithDefault
340
F
  0
DICTIONARY
  5
17
102
{ACAD_REACTORS
330
C
102
}
100
AcDbDictionary
280
0
281
1
  3
Standard
350
18
  0
DICTIONARY
  5
19
102
{ACAD_REACTORS
330
C
102
}
100
AcDbDictionary
281
1
  0
DICTIONARY
  5
1A
102
{ACAD_REACTORS
330
C
102
}
100
AcDbDictionary
281
1
  3
Model
350
305
  3
Layout1
350
306
  0
ACDBPLACEHOLDER
  5
F
102
{ACAD_REACTORS
330
E
102
}
  0
MLINESTYLE
  5
18
102
{ACAD_REACTORS
330
17
102
}
100
AcDbMlineStyle
  2
STANDARD
 70
0
  3

 62
256
 51
90.0
 52
90.0
 71
2
 49
0.5
 62
256
  6
BYLAYER
 49
-0.5
 62
256
  6
BYLAYER
  0
LAYOUT
  5
305
102
{ACAD_REACTORS
330
1A
102
}
100
AcDbPlotSettings
  1

  2
none_device
  4
ANSI_C_(22.00_x_17.00_Inches)
  6

 40
0.0
 41
0.0
 42
0.0
 43
0.0
 44
558.8
 45
431.8
 46
0.0
 47
0.0
 48
0.0
 49
0.0
140
0.0
141
0.0
142
1.0
143
1.0
 70
1024
 72
0
 73
0
 74
0
  7

 75
0
147
1.0
148
0.0
149
0.0
100
AcDbLayout
  1
Model
 70
0
 71
0
 10
0.0
 20
0.0
 11
22.0
 21
17.0
 12
0.0
 22
0.0
 32
0.0
 14
0.0
 24
0.0
 34
0.0
 15
0.0
 25
0.0
 35
0.0
146
0.0
 13
0.0
 23
0.0
 33
0.0
 16
1.0
 26
0.0
 36
0.0
 17
0.0
 27
1.0
 37
0.0
 76
0
330
216
345
0
346
0
  0
LAYOUT
  5
306
102
{ACAD_REACTORS
330
1A
102
}
100
AcDbPlotSettings
  1

  2
none_device
  4
ANSI_C_(22.00_x_17.00_Inches)
  6

 40
0.0
 41
0.0
 42
0.0
 43
0.0
 44
558.8
 45
431.8
 46
0.0
 47
0.0
 48
0.0
 49
0.0
140
0.0
141
0.0
142
1.0
143
1.0
 70
0
 72
0
 73
0
 74
0
  7

 75
0
147
1.0
148
0.0
149
0.0
100
AcDbLayout
  1
Layout1
 70
0
 71
1
 10
0.0
 20
0.0
 11
22.0
 21
17.0
 12
0.0
 22
0.0
 32
0.0
 14
0.0
 24
0.0
 34
0.0
 15
0.0
 25
0.0
 35
0.0
146
0.0
 13
0.0
 23
0.0
 33
0.0
 16
1.0
 26
0.0
 36
0.0
 17
0.0
 27
1.0
 37
0.0
 76
0
330
217
345
0
346
0
  0
ENDSEC
  0
EOF