999
DXF file: _cgs_temp_output.dxf
999
Pro/ENGINEER 2015110 by Parametric Technology Corporation
  0
SECTION
  2
HEADER
  9
$ACADVER
  1
AC1021
  9
$DWGCODEPAGE
  3
ANSI_1252
  9
$EXTMAX
 10
22.0
 20
17.0
 30
0.0
  9
$EXTMIN
 10
0.0
 20
0.0
 30
0.0
  9
$LIMMIN
 10
0.0
 20
0.0
  9
$LIMMAX
 10
22.0
 20
17.0
  9
$VIEWCTR
 10
11.0
 20
8.5
  9
$VIEWSIZE
 40
17.0
  9
$CLAYER
  8
0
  9
$LTSCALE
 40
1.21
  9
$CELTYPE
  6
BYLAYER
  9
$DIMSCALE
 40
1.0
  9
$DIMASZ
 40
0.1875
  9
$DIMEXO
 40
0.0625
  9
$DIMDLI
 40
0.836
  9
$DIMEXE
 40
0.125
  9
$DIMCEN
 40
0.198
  9
$DIMLFAC
 40
1.0
  9
$DIMBLK
  1
_CLOSED
  9
$DIMALT
 70
0
  9
$DIMALTF
 40
25.4
  9
$DIMTXT
 40
0.15625
  9
$DIMTOL
 70
0
  9
$DIMLIM
 70
0
  9
$DIMTFAC
 40
1.0
  9
$DIMGAP
 40
0.09
  9
$DIMDSEP
 70
46
  9
$AUNITS
 70
0
  9
$PDMODE
 70
3
  9
$PDSIZE
 40
0.3125
  9
$HANDSEED
  5
2A8
  9
$TILEMODE
 70
1
  9
$MEASUREMENT
 70
0
  9
$INSUNITS
 70
1
  0
ENDSEC
  0
SECTION
  2
CLASSES
  0
CLASS
  1
ACDBDICTIONARYWDFLT
  2
AcDbDictionaryWithDefault
  3
AutoCAD 2000
 90
0
 91
1
280
0
281
0
  0
CLASS
  1
ACDBPLACEHOLDER
  2
AcDbPlaceHolder
  3
AutoCAD 2000
 90
0
 91
1
280
0
281
0
  0
CLASS
  1
LAYOUT
  2
AcDbLayout
  3
AutoCAD 2000
 90
0
 91
0
280
0
281
0
  0
ENDSEC
  0
SECTION
  2
TABLES
  0
TABLE
  2
VPORT
  5
8
100
AcDbSymbolTable
 70
2
  0
VPORT
  5
1F4
100
AcDbSymbolTableRecord
100
AcDbViewportTableRecord
  2
*ACTIVE
 70
0
 10
0.0
 20
0.0
 11
1.0
 21
1.0
 12
11.0
 22
8.5
 13
0.0
 23
0.0
 14
1.0
 24
1.0
 15
0.0
 25
0.0
 16
0.0
 26
0.0
 36
1.0
 17
0.0
 27
0.0
 37
0.0
 40
17.0
 41
1.2941176471
 42
50.0
 43
0.0
 44
0.0
 50
0.0
 51
0.0
 71
0
 72
100
 73
1
 74
1
 75
0
 76
0
 77
0
 78
0
  0
ENDTAB
  0
TABLE
  2
LTYPE
  5
5
100
AcDbSymbolTable
 70
6
  0
LTYPE
  5
14
100
AcDbSymbolTableRecord
100
AcDbLinetypeTableRecord
  2
BYBLOCK
 70
0
  3

 72
65
 73
0
 40
0.0
  0
LTYPE
  5
15
100
AcDbSymbolTableRecord
100
AcDbLinetypeTableRecord
  2
BYLAYER
 70
0
  3

 72
65
 73
0
 40
0.0
  0
LTYPE
  5
16
100
AcDbSymbolTableRecord
100
AcDbLinetypeTableRecord
  2
CONTINUOUS
 70
64
  3
Solid line
 72
65
 73
0
 40
0.0
  0
LTYPE
  5
1F5
100
AcDbSymbolTableRecord
100
AcDbLinetypeTableRecord
  2
CENTER
 70
64
  3
____ _ ____ _ ____ _ ____ _ ____ _ ____ _ ____
 72
65
 73
4
 40
0.6
 49
0.375
 74
0
 49
-0.075
 74
0
 49
0.075
 74
0
 49
-0.075
 74
0
  0
LTYPE
  5
1F6
100
AcDbSymbolTableRecord
100
AcDbLinetypeTableRecord
  2
HIDDEN
 70
64
  3
- - - - - - - - - - - - - - - - - - - -
 72
65
 73
2
 40
0.2
 49
0.1
 74
0
 49
-0.1
 74
0
  0
LTYPE
  5
1F7
100
AcDbSymbolTableRecord
100
AcDbLinetypeTableRecord
  2
PHANTOM
 70
64
  3
_____ _ _ _____ _ _ _____ _ _ _____
 72
65
 73
6
 40
0.8
 49
0.45
 74
0
 49
-0.05
 74
0
 49
0.1
 74
0
 49
-0.05
 74
0
 49
0.1
 74
0
 49
-0.05
 74
0
  0
LTYPE
  5
1F8
100
AcDbSymbolTableRecord
100
AcDbLinetypeTableRecord
  2
DOT
 70
64
  3
. . . . . . . . . . . . . . . . . . . .
 72
65
 73
2
 40
0.2
 49
0.1
 74
0
 49
-0.1
 74
0
  0
LTYPE
  5
1F9
100
AcDbSymbolTableRecord
100
AcDbLinetypeTableRecord
  2
DASHED
 70
64
  3
- - - - - - - - - - - - - - - - - - - -
 72
65
 73
2
 40
0.2
 49
0.1
 74
0
 49
-0.1
 74
0
  0
ENDTAB
  0
TABLE
  2
LAYER
  5
2
100
AcDbSymbolTable
 70
36
  0
LAYER
  5
10
100
AcDbSymbolTableRecord
100
AcDbLayerTableRecord
  2
0
 70
0
 62
7
  6
CONTINUOUS
370
-3
390
F
  0
LAYER
  5
1FA
100
AcDbSymbolTableRecord
100
AcDbLayerTableRecord
  2
DEFAULT_1
 70
0
 62
7
  6
CENTER
370
-3
390
F
  0
LAYER
  5
1FB
100
AcDbSymbolTableRecord
100
AcDbLayerTableRecord
  2
DEFAULT_2
 70
0
 62
8
  6
HIDDEN
370
-3
390
F
  0
LAYER
  5
1FC
100
AcDbSymbolTableRecord
100
AcDbLayerTableRecord
  2
DEFAULT_3
 70
0
 62
7
  6
PHANTOM
370
-3
390
F
  0
LAYER
  5
1FD
100
AcDbSymbolTableRecord
100
AcDbLayerTableRecord
  2
01_ALL_DTM_PLN
 70
0
 62
7
  6
CONTINUOUS
370
-3
390
F
  0
LAYER
  5
1FE
100
AcDbSymbolTableRecord
100
AcDbLayerTableRecord
  2
01__ASM_ALL_DTM_PLN
 70
0
 62
7
  6
CONTINUOUS
370
-3
390
F
  0
LAYER
  5
1FF
100
AcDbSymbolTableRecord
100
AcDbLayerTableRecord
  2
01__ASM_DEF_DTM_PLN
 70
0
 62
7
  6
CONTINUOUS
370
-3
390
F
  0
LAYER
  5
200
100
AcDbSymbolTableRecord
100
AcDbLayerTableRecord
  2
01___PRT_ALL_DTM_PLN
 70
0
 62
7
  6
CONTINUOUS
370
-3
390
F
  0
LAYER
  5
201
100
AcDbSymbolTableRecord
100
AcDbLayerTableRecord
  2
01___PRT_DEF_DTM_PLN
 70
0
 62
7
  6
CONTINUOUS
370
-3
390
F
  0
LAYER
  5
202
100
AcDbSymbolTableRecord
100
AcDbLayerTableRecord
  2
02_ALL_AXES
 70
0
 62
7
  6
CONTINUOUS
370
-3
390
F
  0
LAYER
  5
203
100
AcDbSymbolTableRecord
100
AcDbLayerTableRecord
  2
02__ASM_ALL_AXES
 70
0
 62
7
  6
CONTINUOUS
370
-3
390
F
  0
LAYER
  5
204
100
AcDbSymbolTableRecord
100
AcDbLayerTableRecord
  2
02___PRT_ALL_AXES
 70
0
 62
7
  6
CONTINUOUS
370
-3
390
F
  0
LAYER
  5
205
100
AcDbSymbolTableRecord
100
AcDbLayerTableRecord
  2
03_ALL_CURVES
 70
0
 62
7
  6
CONTINUOUS
370
-3
390
F
  0
LAYER
  5
206
100
AcDbSymbolTableRecord
100
AcDbLayerTableRecord
  2
03__ASM_ALL_CURVES
 70
0
 62
7
  6
CONTINUOUS
370
-3
390
F
  0
LAYER
  5
207
100
AcDbSymbolTableRecord
100
AcDbLayerTableRecord
  2
03___PRT_ALL_CURVES
 70
0
 62
7
  6
CONTINUOUS
370
-3
390
F
  0
LAYER
  5
208
100
AcDbSymbolTableRecord
100
AcDbLayerTableRecord
  2
04_ALL_DTM_PNT
 70
0
 62
7
  6
CONTINUOUS
370
-3
390
F
  0
LAYER
  5
209
100
AcDbSymbolTableRecord
100
AcDbLayerTableRecord
  2
04__ASM_ALL_DTM_PNT
 70
0
 62
7
  6
CONTINUOUS
370
-3
390
F
  0
LAYER
  5
20A
100
AcDbSymbolTableRecord
100
AcDbLayerTableRecord
  2
04___PRT_ALL_DTM_PNT
 70
0
 62
7
  6
CONTINUOUS
370
-3
390
F
  0
LAYER
  5
20B
100
AcDbSymbolTableRecord
100
AcDbLayerTableRecord
  2
05_ALL_DTM_CSYS
 70
0
 62
7
  6
CONTINUOUS
370
-3
390
F
  0
LAYER
  5
20C
100
AcDbSymbolTableRecord
100
AcDbLayerTableRecord
  2
05__ASM_ALL_DTM_CSYS
 70
0
 62
7
  6
CONTINUOUS
370
-3
390
F
  0
LAYER
  5
20D
100
AcDbSymbolTableRecord
100
AcDbLayerTableRecord
  2
05__ASM_DEF_DTM_CSYS
 70
0
 62
7
  6
CONTINUOUS
370
-3
390
F
  0
LAYER
  5
20E
100
AcDbSymbolTableRecord
100
AcDbLayerTableRecord
  2
05___PRT_ALL_DTM_CSYS
 70
0
 62
7
  6
CONTINUOUS
370
-3
390
F
  0
LAYER
  5
20F
100
AcDbSymbolTableRecord
100
AcDbLayerTableRecord
  2
05___PRT_DEF_DTM_CSYS
 70
0
 62
7
  6
CONTINUOUS
370
-3
390
F
  0
LAYER
  5
210
100
AcDbSymbolTableRecord
100
AcDbLayerTableRecord
  2
06_ALL_SURFS
 70
0
 62
7
  6
CONTINUOUS
370
-3
390
F
  0
LAYER
  5
211
100
AcDbSymbolTableRecord
100
AcDbLayerTableRecord
  2
06__ASM_ALL_SURFS
 70
0
 62
7
  6
CONTINUOUS
370
-3
390
F
  0
LAYER
  5
212
100
AcDbSymbolTableRecord
100
AcDbLayerTableRecord
  2
06___PRT_ALL_SURFS
 70
0
 62
7
  6
CONTINUOUS
370
-3
390
F
  0
LAYER
  5
213
100
AcDbSymbolTableRecord
100
AcDbLayerTableRecord
  2
07__ASM_ALL_SKELETONS
 70
0
 62
7
  6
CONTINUOUS
370
-3
390
F
  0
ENDTAB
  0
TABLE
  2
STYLE
  5
3
100
AcDbSymbolTable
 70
1
  0
STYLE
  5
11
100
AcDbSymbolTableRecord
100
AcDbTextStyleTableRecord
  2
STANDARD
 70
0
 40
0.0
 41
0.8
 50
0.0
 71
0
 42
0.2
  3
txt
  4

  0
STYLE
  5
214
100
AcDbSymbolTableRecord
100
AcDbTextStyleTableRecord
  2
TEXTSTYLE_1
 70
0
 40
0.0
 41
0.8
 50
0.0
 71
0
 42
0.2
  3
gdt
  4

  0
ENDTAB
  0
TABLE
  2
VIEW
  5
6
100
AcDbSymbolTable
 70
0
  0
ENDTAB
  0
TABLE
  2
UCS
  5
7
100
AcDbSymbolTable
 70
0
  0
ENDTAB
  0
TABLE
  2
APPID
  5
9
100
AcDbSymbolTable
 70
1
  0
APPID
  5
215
100
AcDbSymbolTableRecord
100
AcDbRegAppTableRecord
  2
ACAD
 70
0
  0
ENDTAB
  0
TABLE
  2
BLOCK_RECORD
  5
1
100
AcDbSymbolTable
 70
0
  0
BLOCK_RECORD
  5
216
100
AcDbSymbolTableRecord
100
AcDbBlockTableRecord
  2
*Model_Space
  0
BLOCK_RECORD
  5
217
100
AcDbSymbolTableRecord
100
AcDbBlockTableRecord
  2
*Paper_Space
  0
ENDTAB
  0
TABLE
  2
DIMSTYLE
  5
A
100
AcDbSymbolTable
 70
1
100
AcDbDimStyleTable
 71
0
  0
DIMSTYLE
105
218
100
AcDbSymbolTableRecord
100
AcDbDimStyleTableRecord
  2
STANDARD
 70
0
  3

  4

 40
1.0
 41
0.1875
 42
0.0625
 43
0.38
 44
0.125
 45
0.0
 46
0.0
 47
0.0001
 48
0.0001
140
0.15625
141
0.09
142
0.0
143
25.4
144
1.0
145
0.0
146
1.0
147
0.09
 71
0.0
 72
0.0
 73
1
 74
1
 75
0
 76
0
 77
0
 78
4
170
0
171
2
172
0
173
0
174
0
175
0
176
0
177
0
178
0
270
2
271
4
272
4
273
2
274
2
275
0
280
0
281
0
282
0
283
1
284
4
285
0
286
0
287
3
288
0
340
11
278
46
  0
ENDTAB
  0
ENDSEC
  0
SECTION
  2
BLOCKS
  0
BLOCK
  5
20
100
AcDbEntity
  8
0
100
AcDbBlockBegin
  2
*Model_Space
 70
0
 10
0.0
 20
0.0
 30
0.0
  3
*Model_Space
  1

  0
ENDBLK
  5
21
100
AcDbEntity
  8
0
100
AcDbBlockEnd
  0
BLOCK
  5
1C
100
AcDbEntity
  8
0
100
AcDbBlockBegin
  2
*Paper_Space
 70
0
 10
0.0
 20
0.0
 30
0.0
  3
*Paper_Space
  1

  0
ENDBLK
  5
1D
100
AcDbEntity
  8
0
100
AcDbBlockEnd
  0
ENDSEC
  0
SECTION
  2
ENTITIES
  0
MTEXT
  5
219
100
AcDbEntity
  8
0
100
AcDbMText
 62
7
  6
CONTINUOUS
  7
STANDARD
 71
1
 72
1
 10
15.9560215477
 20
0.9479130325
 30
0.0
 11
1.0
 21
0.0
 31
0.0
 44
0.9
  1
SCALE: 1:5.000
 40
0.3
 41
3.36
  0
LINE
  5
21A
100
AcDbEntity
  8
0
100
AcDbLine
 62
7
  6
CONTINUOUS
 10
0.0
 20
0.0
 11
0.0
 21
17.0
  0
LINE
  5
21B
100
AcDbEntity
  8
0
100
AcDbLine
 62
7
  6
CONTINUOUS
 10
0.0
 20
0.0
 11
22.0
 21
0.0
  0
LINE
  5
21C
100
AcDbEntity
  8
0
100
AcDbLine
 62
7
  6
CONTINUOUS
 10
0.0
 20
17.0
 11
22.0
 21
17.0
  0
LINE
  5
21D
100
AcDbEntity
  8
0
100
AcDbLine
 62
7
  6
CONTINUOUS
 10
22.0
 20
0.0
 11
22.0
 21
17.0
  0
LINE
  5
21E
100
AcDbEntity
  8
0
100
AcDbLine
 62
7
  6
CONTINUOUS
 10
4.3587137329
 20
5.7573246212
 11
4.3587137329
 21
5.5073246212
  0
LINE
  5
21F
100
AcDbEntity
  8
0
100
AcDbLine
 62
7
  6
CONTINUOUS
 10
4.5772452026
 20
5.2829151723
 11
4.7307334442
 21
5.2829151723
  0
LINE
  5
220
100
AcDbEntity
  8
0
100
AcDbLine
 62
7
  6
CONTINUOUS
 10
5.1677963837
 20
5.2829151723
 11
5.3212846253
 21
5.2829151723
  0
LINE
  5
221
100
AcDbEntity
  8
0
100
AcDbLine
 62
7
  6
CONTINUOUS
 10
5.7583475648
 20
5.2829151723
 11
5.9118358064
 21
5.2829151723
  0
LINE
  5
222
100
AcDbEntity
  8
0
100
AcDbLine
 62
7
  6
CONTINUOUS
 10
6.3488987459
 20
5.2829151723
 11
6.5023869875
 21
5.2829151723
  0
LINE
  5
223
100
AcDbEntity
  8
0
100
AcDbLine
 62
7
  6
CONTINUOUS
 10
6.939449927
 20
5.2829151723
 11
7.0929381686
 21
5.2829151723
  0
LINE
  5
224
100
AcDbEntity
  8
0
100
AcDbLine
 62
7
  6
CONTINUOUS
 10
7.5300011081
 20
5.2829151723
 11
7.6834893497
 21
5.2829151723
  0
LINE
  5
225
100
AcDbEntity
  8
0
100
AcDbLine
 62
7
  6
CONTINUOUS
 10
4.3587137329
 20
5.5073246212
 11
4.422792916
 21
5.5073246212
  0
LINE
  5
226
100
AcDbEntity
  8
0
100
AcDbLine
 62
7
  6
CONTINUOUS
 10
4.8851857309
 20
5.5073246212
 11
5.0133440971
 21
5.5073246212
  0
LINE
  5
227
100
AcDbEntity
  8
0
100
AcDbLine
 62
7
  6
CONTINUOUS
 10
5.475736912
 20
5.5073246212
 11
5.6038952782
 21
5.5073246212
  0
LINE
  5
228
100
AcDbEntity
  8
0
100
AcDbLine
 62
7
  6
CONTINUOUS
 10
6.0662880931
 20
5.5073246212
 11
6.1944464593
 21
5.5073246212
  0
LINE
  5
229
100
AcDbEntity
  8
0
100
AcDbLine
 62
7
  6
CONTINUOUS
 10
6.6568392742
 20
5.5073246212
 11
6.7849976404
 21
5.5073246212
  0
LINE
  5
22A
100
AcDbEntity
  8
0
100
AcDbLine
 62
7
  6
CONTINUOUS
 10
7.2473904553
 20
5.5073246212
 11
7.3755488215
 21
5.5073246212
  0
LINE
  5
22B
100
AcDbEntity
  8
0
100
AcDbLine
 62
7
  6
CONTINUOUS
 10
7.8379416364
 20
5.5073246212
 11
7.9020208195
 21
5.5073246212
  0
LINE
  5
22C
100
AcDbEntity
  8
0
100
AcDbLine
 62
7
  6
CONTINUOUS
 10
7.9020208195
 20
5.7573246212
 11
4.3587137329
 21
5.7573246212
  0
LINE
  5
22D
100
AcDbEntity
  8
0
100
AcDbLine
 62
7
  6
CONTINUOUS
 10
7.9020208195
 20
5.5073246212
 11
7.9020208195
 21
5.7573246212
  0
LINE
  5
22E
100
AcDbEntity
  8
0
100
AcDbLine
 62
7
  6
CONTINUOUS
 10
4.2992185406
 20
13.1905989625
 11
4.2992185406
 21
12.0094966003
  0
LINE
  5
22F
100
AcDbEntity
  8
0
100
AcDbLine
 62
7
  6
CONTINUOUS
 10
7.8425256272
 20
12.0094966003
 11
4.2992185406
 21
12.0094966003
  0
LINE
  5
230
100
AcDbEntity
  8
0
100
AcDbLine
 62
7
  6
CONTINUOUS
 10
4.2992185406
 20
13.1905989625
 11
7.8425256272
 21
13.1905989625
  0
LINE
  5
231
100
AcDbEntity
  8
0
100
AcDbLine
 62
7
  6
CONTINUOUS
 10
7.8425256272
 20
13.1905989625
 11
7.8425256272
 21
12.0094966003
  0
LINE
  5
232
100
AcDbEntity
  8
0
100
AcDbLine
 62
7
  6
CONTINUOUS
 10
14.9698040758
 20
5.22341998
 11
14.9698040758
 21
5.6978294289
  0
LINE
  5
233
100
AcDbEntity
  8
0
100
AcDbLine
 62
7
  6
CONTINUOUS
 10
14.9698040758
 20
5.22341998
 11
16.150906438
 21
5.22341998
  0
LINE
  5
234
100
AcDbEntity
  8
0
100
AcDbLine
 62
7
  6
CONTINUOUS
 10
16.150906438
 20
5.4478294289
 11
14.9698040758
 21
5.4478294289
  0
LINE
  5
235
100
AcDbEntity
  8
0
100
AcDbLine
 62
7
  6
CONTINUOUS
 10
16.150906438
 20
5.6978294289
 11
14.9698040758
 21
5.6978294289
  0
LINE
  5
236
100
AcDbEntity
  8
0
100
AcDbLine
 62
7
  6
CONTINUOUS
 10
16.150906438
 20
5.22341998
 11
16.150906438
 21
5.6978294289
  0
LINE
  5
237
100
AcDbEntity
  8
0
100
AcDbLine
 62
7
  6
CONTINUOUS
 10
13.6582287083
 20
12.1956591825
 11
13.734489175
 21
12.0402566904
  0
LINE
  5
238
100
AcDbEntity
  8
0
100
AcDbLine
 62
7
  6
CONTINUOUS
 10
13.9441338147
 20
13.1208484458
 11
13.6582287083
 21
12.1956591825
  0
LINE
  5
239
100
AcDbEntity
  8
0
100
AcDbLine
 62
7
  6
CONTINUOUS
 10
14.1936091808
 20
11.9248524576
 11
14.1941511772
 21
11.9269410315
  0
LINE
  5
23A
100
AcDbEntity
  8
0
100
AcDbLine
 62
7
  6
CONTINUOUS
 10
14.1942429596
 20
11.9269126686
 11
14.2292689115
 21
12.0402566904
  0
LINE
  5
23B
100
AcDbEntity
  8
0
100
AcDbLine
 62
7
  6
CONTINUOUS
 10
14.7375428387
 20
11.9248524576
 11
14.7380848351
 21
11.9269410315
  0
LINE
  5
23C
100
AcDbEntity
  8
0
100
AcDbLine
 62
7
  6
CONTINUOUS
 10
14.7381766175
 20
11.9269126686
 11
14.7732025694
 21
12.0402566904
  0
LINE
  5
23D
100
AcDbEntity
  8
0
100
AcDbLine
 62
7
  6
CONTINUOUS
 10
14.0042242649
 20
11.90076154
 11
14.1455962973
 21
11.90076154
  0
LINE
  5
23E
100
AcDbEntity
  8
0
100
AcDbLine
 62
7
  6
CONTINUOUS
 10
14.5481579227
 20
11.90076154
 11
14.6895299552
 21
11.90076154
  0
LINE
  5
23F
100
AcDbEntity
  8
0
100
AcDbLine
 62
7
  6
CONTINUOUS
 10
15.0920915806
 20
11.90076154
 11
15.233463613
 21
11.90076154
  0
LINE
  5
240
100
AcDbEntity
  8
0
100
AcDbLine
 62
7
  6
CONTINUOUS
 10
15.6360252385
 20
11.90076154
 11
15.7773972709
 21
11.90076154
  0
LINE
  5
241
100
AcDbEntity
  8
0
100
AcDbLine
 62
7
  6
CONTINUOUS
 10
16.1799588964
 20
11.90076154
 11
16.3213309288
 21
11.90076154
  0
LINE
  5
242
100
AcDbEntity
  8
0
100
AcDbLine
 62
7
  6
CONTINUOUS
 10
16.7238925542
 20
11.90076154
 11
16.8652645867
 21
11.90076154
  0
LINE
  5
243
100
AcDbEntity
  8
0
100
AcDbLine
 62
7
  6
CONTINUOUS
 10
13.734489175
 20
12.0402566904
 11
13.7935100111
 21
12.0402566904
  0
LINE
  5
244
100
AcDbEntity
  8
0
100
AcDbLine
 62
7
  6
CONTINUOUS
 10
14.2194019968
 20
12.0402566904
 11
14.3374436689
 21
12.0402566904
  0
LINE
  5
245
100
AcDbEntity
  8
0
100
AcDbLine
 62
7
  6
CONTINUOUS
 10
14.7633356546
 20
12.0402566904
 11
14.8813773268
 21
12.0402566904
  0
LINE
  5
246
100
AcDbEntity
  8
0
100
AcDbLine
 62
7
  6
CONTINUOUS
 10
15.3072693125
 20
12.0402566904
 11
15.4253109847
 21
12.0402566904
  0
LINE
  5
247
100
AcDbEntity
  8
0
100
AcDbLine
 62
7
  6
CONTINUOUS
 10
15.8512029704
 20
12.0402566904
 11
15.9692446426
 21
12.0402566904
  0
LINE
  5
248
100
AcDbEntity
  8
0
100
AcDbLine
 62
7
  6
CONTINUOUS
 10
16.3951366283
 20
12.0402566904
 11
16.5131783004
 21
12.0402566904
  0
LINE
  5
249
100
AcDbEntity
  8
0
100
AcDbLine
 62
7
  6
CONTINUOUS
 10
16.9390702862
 20
12.0402566904
 11
16.9980911222
 21
12.0402566904
  0
LINE
  5
24A
100
AcDbEntity
  8
0
100
AcDbLine
 62
7
  6
CONTINUOUS
 10
16.9218306556
 20
12.1956591825
 11
13.6582287083
 21
12.1956591825
  0
LINE
  5
24B
100
AcDbEntity
  8
0
100
AcDbLine
 62
7
  6
CONTINUOUS
 10
15.2814764966
 20
11.9248524576
 11
15.2820184929
 21
11.9269410315
  0
LINE
  5
24C
100
AcDbEntity
  8
0
100
AcDbLine
 62
7
  6
CONTINUOUS
 10
15.2821102754
 20
11.9269126686
 11
15.3171362273
 21
12.0402566904
  0
LINE
  5
24D
100
AcDbEntity
  8
0
100
AcDbLine
 62
7
  6
CONTINUOUS
 10
15.8254101544
 20
11.9248524576
 11
15.8259521508
 21
11.9269410315
  0
LINE
  5
24E
100
AcDbEntity
  8
0
100
AcDbLine
 62
7
  6
CONTINUOUS
 10
15.8260439333
 20
11.9269126686
 11
15.8610698851
 21
12.0402566904
  0
LINE
  5
24F
100
AcDbEntity
  8
0
100
AcDbLine
 62
7
  6
CONTINUOUS
 10
13.9441338147
 20
13.1208484458
 11
17.207735762
 21
13.1208484458
  0
LINE
  5
250
100
AcDbEntity
  8
0
100
AcDbLine
 62
7
  6
CONTINUOUS
 10
16.3693438123
 20
11.9248524576
 11
16.3698858087
 21
11.9269410315
  0
LINE
  5
251
100
AcDbEntity
  8
0
100
AcDbLine
 62
7
  6
CONTINUOUS
 10
16.3699775912
 20
11.9269126686
 11
16.405003543
 21
12.0402566904
  0
LINE
  5
252
100
AcDbEntity
  8
0
100
AcDbLine
 62
7
  6
CONTINUOUS
 10
16.9980911222
 20
12.0402566904
 11
16.9218306556
 21
12.1956591825
  0
LINE
  5
253
100
AcDbEntity
  8
0
100
AcDbLine
 62
7
  6
CONTINUOUS
 10
16.9132774702
 20
11.9248524576
 11
16.9138194666
 21
11.9269410315
  0
LINE
  5
254
100
AcDbEntity
  8
0
100
AcDbLine
 62
7
  6
CONTINUOUS
 10
17.207735762
 20
13.1208484458
 11
16.9218306556
 21
12.1956591825
  0
LINE
  5
255
100
AcDbEntity
  8
0
100
AcDbLine
 62
7
  6
CONTINUOUS
 10
16.913911249
 20
11.9269126686
 11
16.9489372009
 21
12.0402566904
  0
LINE
  5
256
100
AcDbEntity
  8
0
100
AcDbLine
 62
7
  6
CONTINUOUS
 10
17.2839962286
 20
12.9654459537
 11
16.9980911222
 21
12.0402566904
  0
LINE
  5
257
100
AcDbEntity
  8
0
100
AcDbLine
 62
7
  6
CONTINUOUS
 10
17.2839962286
 20
12.9654459537
 11
17.207735762
 21
13.1208484458
  0
ARC
  5
258
100
AcDbEntity
  8
0
100
AcDbCircle
 62
7
  6
CONTINUOUS
 10
4.4140779061
 20
5.5073246212
 40
0.4244586614
100
AcDbArc
 50
334.5658365402
 51
354.0364298817
  0
ARC
  5
259
100
AcDbEntity
  8
0
100
AcDbCircle
 62
7
  6
CONTINUOUS
 10
5.4844519218
 20
5.5073246212
 40
0.4244586614
100
AcDbArc
 50
185.9635701183
 51
205.4341634598
  0
ARC
  5
25A
100
AcDbEntity
  8
0
100
AcDbCircle
 62
7
  6
CONTINUOUS
 10
5.0046290872
 20
5.5073246212
 40
0.4244586614
100
AcDbArc
 50
334.5658365402
 51
354.0364298817
  0
ARC
  5
25B
100
AcDbEntity
  8
0
100
AcDbCircle
 62
7
  6
CONTINUOUS
 10
6.0750031029
 20
5.5073246212
 40
0.4244586614
100
AcDbArc
 50
185.9635701183
 51
205.4341634598
  0
ARC
  5
25C
100
AcDbEntity
  8
0
100
AcDbCircle
 62
7
  6
CONTINUOUS
 10
5.5951802683
 20
5.5073246212
 40
0.4244586614
100
AcDbArc
 50
334.5658365402
 51
354.0364298817
  0
ARC
  5
25D
100
AcDbEntity
  8
0
100
AcDbCircle
 62
7
  6
CONTINUOUS
 10
6.665554284
 20
5.5073246212
 40
0.4244586614
100
AcDbArc
 50
185.9635701183
 51
205.4341634598
  0
ARC
  5
25E
100
AcDbEntity
  8
0
100
AcDbCircle
 62
7
  6
CONTINUOUS
 10
4.8939007407
 20
5.5073246212
 40
0.4244586614
100
AcDbArc
 50
185.9635701183
 51
205.4341634598
  0
ARC
  5
25F
100
AcDbEntity
  8
0
100
AcDbCircle
 62
7
  6
CONTINUOUS
 10
7.3668338116
 20
5.5073246212
 40
0.4244586614
100
AcDbArc
 50
334.5658365402
 51
354.0364298817
  0
ARC
  5
260
100
AcDbEntity
  8
0
100
AcDbCircle
 62
7
  6
CONTINUOUS
 10
7.8466566462
 20
5.5073246212
 40
0.4244586614
100
AcDbArc
 50
185.9635701183
 51
205.4341634598
  0
ARC
  5
261
100
AcDbEntity
  8
0
100
AcDbCircle
 62
7
  6
CONTINUOUS
 10
6.7762826305
 20
5.5073246212
 40
0.4244586614
100
AcDbArc
 50
334.5658365402
 51
354.0364298817
  0
ARC
  5
262
100
AcDbEntity
  8
0
100
AcDbCircle
 62
7
  6
CONTINUOUS
 10
7.2561054651
 20
5.5073246212
 40
0.4244586614
100
AcDbArc
 50
185.9635701183
 51
205.4341634598
  0
ARC
  5
263
100
AcDbEntity
  8
0
100
AcDbCircle
 62
7
  6
CONTINUOUS
 10
6.1857314494
 20
5.5073246212
 40
0.4244586614
100
AcDbArc
 50
334.5658365402
 51
354.0364298817
  0
ARC
  5
264
100
AcDbEntity
  8
0
100
AcDbCircle
 62
7
  6
CONTINUOUS
 10
4.5772452026
 20
5.35673407
 40
0.0738188976
100
AcDbArc
 50
205.4341634598
 51
270.0
  0
ARC
  5
265
100
AcDbEntity
  8
0
100
AcDbCircle
 62
7
  6
CONTINUOUS
 10
4.7307334442
 20
5.35673407
 40
0.0738188976
100
AcDbArc
 50
270.0
 51
334.5658365402
  0
ARC
  5
266
100
AcDbEntity
  8
0
100
AcDbCircle
 62
7
  6
CONTINUOUS
 10
5.1677963837
 20
5.35673407
 40
0.0738188976
100
AcDbArc
 50
205.4341634598
 51
270.0
  0
ARC
  5
267
100
AcDbEntity
  8
0
100
AcDbCircle
 62
7
  6
CONTINUOUS
 10
5.3212846253
 20
5.35673407
 40
0.0738188976
100
AcDbArc
 50
270.0
 51
334.5658365402
  0
ARC
  5
268
100
AcDbEntity
  8
0
100
AcDbCircle
 62
7
  6
CONTINUOUS
 10
5.7583475648
 20
5.35673407
 40
0.0738188976
100
AcDbArc
 50
205.4341634598
 51
270.0
  0
ARC
  5
269
100
AcDbEntity
  8
0
100
AcDbCircle
 62
7
  6
CONTINUOUS
 10
5.9118358064
 20
5.35673407
 40
0.0738188976
100
AcDbArc
 50
270.0
 51
334.5658365402
  0
ARC
  5
26A
100
AcDbEntity
  8
0
100
AcDbCircle
 62
7
  6
CONTINUOUS
 10
6.3488987459
 20
5.35673407
 40
0.0738188976
100
AcDbArc
 50
205.4341634598
 51
270.0
  0
ARC
  5
26B
100
AcDbEntity
  8
0
100
AcDbCircle
 62
7
  6
CONTINUOUS
 10
7.6834893497
 20
5.35673407
 40
0.0738188976
100
AcDbArc
 50
270.0
 51
334.5658365402
  0
ARC
  5
26C
100
AcDbEntity
  8
0
100
AcDbCircle
 62
7
  6
CONTINUOUS
 10
7.5300011081
 20
5.35673407
 40
0.0738188976
100
AcDbArc
 50
205.4341634598
 51
270.0
  0
ARC
  5
26D
100
AcDbEntity
  8
0
100
AcDbCircle
 62
7
  6
CONTINUOUS
 10
7.0929381686
 20
5.35673407
 40
0.0738188976
100
AcDbArc
 50
270.0
 51
334.5658365402
  0
ARC
  5
26E
100
AcDbEntity
  8
0
100
AcDbCircle
 62
7
  6
CONTINUOUS
 10
6.939449927
 20
5.35673407
 40
0.0738188976
100
AcDbArc
 50
205.4341634598
 51
270.0
  0
ARC
  5
26F
100
AcDbEntity
  8
0
100
AcDbCircle
 62
7
  6
CONTINUOUS
 10
6.5023869875
 20
5.35673407
 40
0.0738188976
100
AcDbArc
 50
270.0
 51
334.5658365402
  0
ARC
  5
270
100
AcDbEntity
  8
0
100
AcDbCircle
 62
7
  6
CONTINUOUS
 10
4.422792916
 20
5.4581120227
 40
0.0492125984
100
AcDbArc
 50
5.9635701183
 51
90.0
  0
ARC
  5
271
100
AcDbEntity
  8
0
100
AcDbCircle
 62
7
  6
CONTINUOUS
 10
4.8851857309
 20
5.4581120227
 40
0.0492125984
100
AcDbArc
 50
90.0
 51
174.0364298817
  0
ARC
  5
272
100
AcDbEntity
  8
0
100
AcDbCircle
 62
7
  6
CONTINUOUS
 10
5.0133440971
 20
5.4581120227
 40
0.0492125984
100
AcDbArc
 50
5.9635701183
 51
90.0
  0
ARC
  5
273
100
AcDbEntity
  8
0
100
AcDbCircle
 62
7
  6
CONTINUOUS
 10
5.475736912
 20
5.4581120227
 40
0.0492125984
100
AcDbArc
 50
90.0
 51
174.0364298817
  0
ARC
  5
274
100
AcDbEntity
  8
0
100
AcDbCircle
 62
7
  6
CONTINUOUS
 10
5.6038952782
 20
5.4581120227
 40
0.0492125984
100
AcDbArc
 50
5.9635701183
 51
90.0
  0
ARC
  5
275
100
AcDbEntity
  8
0
100
AcDbCircle
 62
7
  6
CONTINUOUS
 10
6.0662880931
 20
5.4581120227
 40
0.0492125984
100
AcDbArc
 50
90.0
 51
174.0364298817
  0
ARC
  5
276
100
AcDbEntity
  8
0
100
AcDbCircle
 62
7
  6
CONTINUOUS
 10
6.1944464593
 20
5.4581120227
 40
0.0492125984
100
AcDbArc
 50
5.9635701183
 51
90.0
  0
ARC
  5
277
100
AcDbEntity
  8
0
100
AcDbCircle
 62
7
  6
CONTINUOUS
 10
6.6568392742
 20
5.4581120227
 40
0.0492125984
100
AcDbArc
 50
90.0
 51
174.0364298817
  0
ARC
  5
278
100
AcDbEntity
  8
0
100
AcDbCircle
 62
7
  6
CONTINUOUS
 10
6.7849976404
 20
5.4581120227
 40
0.0492125984
100
AcDbArc
 50
5.9635701183
 51
90.0
  0
ARC
  5
279
100
AcDbEntity
  8
0
100
AcDbCircle
 62
7
  6
CONTINUOUS
 10
7.2473904553
 20
5.4581120227
 40
0.0492125984
100
AcDbArc
 50
90.0
 51
174.0364298817
  0
ARC
  5
27A
100
AcDbEntity
  8
0
100
AcDbCircle
 62
7
  6
CONTINUOUS
 10
7.3755488215
 20
5.4581120227
 40
0.0492125984
100
AcDbArc
 50
5.9635701183
 51
90.0
  0
ARC
  5
27B
100
AcDbEntity
  8
0
100
AcDbCircle
 62
7
  6
CONTINUOUS
 10
7.8379416364
 20
5.4581120227
 40
0.0492125984
100
AcDbArc
 50
90.0
 51
174.0364298817
  0
SPLINE
  5
27C
100
AcDbEntity
  8
0
100
AcDbSpline
 62
7
  6
CONTINUOUS
 70
0
 71
3
 72
13
 73
9
 74
0
 42
0.0000001
 43
0.0000001
 44
0.0000000001
 40
0.0
 40
0.0
 40
0.0
 40
0.0
 40
0.0997546371
 40
0.2030713677
 40
0.3129069765
 40
0.4313205619
 40
0.6968562136
 40
1.0
 40
1.0
 40
1.0
 40
1.0
 10
14.1873952776
 20
12.0241955143
 30
0.0
 10
14.1877695581
 20
12.0254068067
 30
0.0
 10
14.1888306442
 20
12.0277901527
 30
0.0
 10
14.19125115
 20
12.0309833351
 30
0.0
 10
14.1944492879
 20
12.0337677414
 30
0.0
 10
14.1998630072
 20
12.0369956311
 30
0.0
 10
14.2083001007
 20
12.0396478794
 30
0.0
 10
14.2155492888
 20
12.0402566904
 30
0.0
 10
14.2194019968
 20
12.0402566904
 30
0.0
  0
SPLINE
  5
27D
100
AcDbEntity
  8
0
100
AcDbSpline
 62
7
  6
CONTINUOUS
 70
0
 71
3
 72
13
 73
9
 74
0
 42
0.0000001
 43
0.0000001
 44
0.0000000001
 40
0.0
 40
0.0
 40
0.0
 40
0.0
 40
0.0997546371
 40
0.2030713677
 40
0.3129069765
 40
0.4313205619
 40
0.6968562136
 40
1.0
 40
1.0
 40
1.0
 40
1.0
 10
14.7313289355
 20
12.0241955143
 30
0.0
 10
14.731703216
 20
12.0254068067
 30
0.0
 10
14.7327643021
 20
12.0277901527
 30
0.0
 10
14.7351848079
 20
12.0309833351
 30
0.0
 10
14.7383829457
 20
12.0337677414
 30
0.0
 10
14.743796665
 20
12.0369956311
 30
0.0
 10
14.7522337586
 20
12.0396478794
 30
0.0
 10
14.7594829466
 20
12.0402566904
 30
0.0
 10
14.7633356546
 20
12.0402566904
 30
0.0
  0
SPLINE
  5
27E
100
AcDbEntity
  8
0
100
AcDbSpline
 62
7
  6
CONTINUOUS
 70
0
 71
3
 72
13
 73
9
 74
0
 42
0.0000001
 43
0.0000001
 44
0.0000000001
 40
0.0
 40
0.0
 40
0.0
 40
0.0
 40
0.0997546371
 40
0.2030713677
 40
0.3129069765
 40
0.4313205619
 40
0.6968562136
 40
1.0
 40
1.0
 40
1.0
 40
1.0
 10
15.2752625934
 20
12.0241955143
 30
0.0
 10
15.2756368738
 20
12.0254068067
 30
0.0
 10
15.27669796
 20
12.0277901527
 30
0.0
 10
15.2791184657
 20
12.0309833351
 30
0.0
 10
15.2823166036
 20
12.0337677414
 30
0.0
 10
15.2877303229
 20
12.0369956311
 30
0.0
 10
15.2961674165
 20
12.0396478794
 30
0.0
 10
15.3034166045
 20
12.0402566904
 30
0.0
 10
15.3072693125
 20
12.0402566904
 30
0.0
  0
SPLINE
  5
27F
100
AcDbEntity
  8
0
100
AcDbSpline
 62
7
  6
CONTINUOUS
 70
0
 71
3
 72
13
 73
9
 74
0
 42
0.0000001
 43
0.0000001
 44
0.0000000001
 40
0.0
 40
0.0
 40
0.0
 40
0.0
 40
0.0997546371
 40
0.2030713677
 40
0.3129069765
 40
0.4313205619
 40
0.6968562136
 40
1.0
 40
1.0
 40
1.0
 40
1.0
 10
15.8191962513
 20
12.0241955143
 30
0.0
 10
15.8195705317
 20
12.0254068067
 30
0.0
 10
15.8206316178
 20
12.0277901527
 30
0.0
 10
15.8230521236
 20
12.0309833351
 30
0.0
 10
15.8262502615
 20
12.0337677414
 30
0.0
 10
15.8316639808
 20
12.0369956311
 30
0.0
 10
15.8401010743
 20
12.0396478794
 30
0.0
 10
15.8473502624
 20
12.0402566904
 30
0.0
 10
15.8512029704
 20
12.0402566904
 30
0.0
  0
SPLINE
  5
280
100
AcDbEntity
  8
0
100
AcDbSpline
 62
7
  6
CONTINUOUS
 70
0
 71
3
 72
13
 73
9
 74
0
 42
0.0000001
 43
0.0000001
 44
0.0000000001
 40
0.0
 40
0.0
 40
0.0
 40
0.0
 40
0.0997546371
 40
0.2030713677
 40
0.3129069765
 40
0.4313205619
 40
0.6968562136
 40
1.0
 40
1.0
 40
1.0
 40
1.0
 10
16.3631299091
 20
12.0241955143
 30
0.0
 10
16.3635041896
 20
12.0254068067
 30
0.0
 10
16.3645652757
 20
12.0277901527
 30
0.0
 10
16.3669857815
 20
12.0309833351
 30
0.0
 10
16.3701839194
 20
12.0337677414
 30
0.0
 10
16.3755976387
 20
12.0369956311
 30
0.0
 10
16.3840347322
 20
12.0396478794
 30
0.0
 10
16.3912839203
 20
12.0402566904
 30
0.0
 10
16.3951366283
 20
12.0402566904
 30
0.0
  0
SPLINE
  5
281
100
AcDbEntity
  8
0
100
AcDbSpline
 62
7
  6
CONTINUOUS
 70
0
 71
3
 72
13
 73
9
 74
0
 42
0.0000001
 43
0.0000001
 44
0.0000000001
 40
0.0
 40
0.0
 40
0.0
 40
0.0
 40
0.0997546371
 40
0.2030713677
 40
0.3129069765
 40
0.4313205619
 40
0.6968562136
 40
1.0
 40
1.0
 40
1.0
 40
1.0
 10
16.907063567
 20
12.0241955143
 30
0.0
 10
16.9074378475
 20
12.0254068067
 30
0.0
 10
16.9084989336
 20
12.0277901527
 30
0.0
 10
16.9109194394
 20
12.0309833351
 30
0.0
 10
16.9141175772
 20
12.0337677414
 30
0.0
 10
16.9195312965
 20
12.0369956311
 30
0.0
 10
16.9279683901
 20
12.0396478794
 30
0.0
 10
16.9352175781
 20
12.0402566904
 30
0.0
 10
16.9390702862
 20
12.0402566904
 30
0.0
  0
SPLINE
  5
282
100
AcDbEntity
  8
0
100
AcDbSpline
 62
7
  6
CONTINUOUS
 70
0
 71
3
 72
9
 73
5
 74
0
 42
0.0000001
 43
0.0000001
 44
0.0000000001
 40
0.0
 40
0.0
 40
0.0
 40
0.0
 40
0.4782112337
 40
1.0
 40
1.0
 40
1.0
 40
1.0
 10
13.8520447335
 20
12.0128439387
 30
0.0
 10
13.8620996409
 20
11.9972673201
 30
0.0
 10
13.8861873342
 20
11.9666318081
 30
0.0
 10
13.9144591446
 20
11.9399210378
 30
0.0
 10
13.929975328
 20
11.9269410315
 30
0.0
  0
SPLINE
  5
283
100
AcDbEntity
  8
0
100
AcDbSpline
 62
7
  6
CONTINUOUS
 70
0
 71
3
 72
13
 73
9
 74
0
 42
0.0000001
 43
0.0000001
 44
0.0000000001
 40
0.0
 40
0.0
 40
0.0
 40
0.0
 40
0.3031309116
 40
0.5686411751
 40
0.6870520219
 40
0.7968684374
 40
0.9002116316
 40
1.0
 40
1.0
 40
1.0
 40
1.0
 10
16.8652645867
 20
11.90076154
 30
0.0
 10
16.8710434092
 20
11.90076154
 30
0.0
 10
16.8819166168
 20
11.9016743661
 30
0.0
 10
16.8945710693
 20
11.9056532431
 30
0.0
 10
16.902691735
 20
11.9104930939
 30
0.0
 10
16.9074895854
 20
11.9146691462
 30
0.0
 10
16.9111207314
 20
11.9194598237
 30
0.0
 10
16.9127121085
 20
11.9230360622
 30
0.0
 10
16.9132743754
 20
11.9248534143
 30
0.0
  0
SPLINE
  5
284
100
AcDbEntity
  8
0
100
AcDbSpline
 62
7
  6
CONTINUOUS
 70
0
 71
3
 72
11
 73
7
 74
0
 42
0.0000001
 43
0.0000001
 44
0.0000000001
 40
0.0
 40
0.0
 40
0.0
 40
0.0
 40
0.2386469607
 40
0.4936115587
 40
0.7519039861
 40
1.0
 40
1.0
 40
1.0
 40
1.0
 10
16.6496436174
 20
11.9269410315
 30
0.0
 10
16.6545311323
 20
11.9228523989
 30
0.0
 10
16.6655736014
 20
11.9154853146
 30
0.0
 10
16.6840016634
 20
11.9073135991
 30
0.0
 10
16.7037283672
 20
11.9020766336
 30
0.0
 10
16.7172680691
 20
11.90076154
 30
0.0
 10
16.7238925542
 20
11.90076154
 30
0.0
  0
SPLINE
  5
285
100
AcDbEntity
  8
0
100
AcDbSpline
 62
7
  6
CONTINUOUS
 70
0
 71
3
 72
9
 73
5
 74
0
 42
0.0000001
 43
0.0000001
 44
0.0000000001
 40
0.0
 40
0.0
 40
0.0
 40
0.0
 40
0.4782117653
 40
1.0
 40
1.0
 40
1.0
 40
1.0
 10
16.5717130229
 20
12.0128439387
 30
0.0
 10
16.5817679398
 20
11.9972673054
 30
0.0
 10
16.6058558291
 20
11.9666319637
 30
0.0
 10
16.6341274524
 20
11.9399210225
 30
0.0
 10
16.6496436174
 20
11.9269410315
 30
0.0
  0
SPLINE
  5
286
100
AcDbEntity
  8
0
100
AcDbSpline
 62
7
  6
CONTINUOUS
 70
0
 71
3
 72
13
 73
9
 74
0
 42
0.0000001
 43
0.0000001
 44
0.0000000001
 40
0.0
 40
0.0
 40
0.0
 40
0.0
 40
0.3031309116
 40
0.5686411751
 40
0.6870520219
 40
0.7968684374
 40
0.9002116316
 40
1.0
 40
1.0
 40
1.0
 40
1.0
 10
16.3213309288
 20
11.90076154
 30
0.0
 10
16.3271097513
 20
11.90076154
 30
0.0
 10
16.337982959
 20
11.9016743661
 30
0.0
 10
16.3506374114
 20
11.9056532431
 30
0.0
 10
16.3587580771
 20
11.9104930939
 30
0.0
 10
16.3635559276
 20
11.9146691462
 30
0.0
 10
16.3671870735
 20
11.9194598237
 30
0.0
 10
16.3687784506
 20
11.9230360622
 30
0.0
 10
16.3693407175
 20
11.9248534143
 30
0.0
  0
SPLINE
  5
287
100
AcDbEntity
  8
0
100
AcDbSpline
 62
7
  6
CONTINUOUS
 70
0
 71
3
 72
11
 73
7
 74
0
 42
0.0000001
 43
0.0000001
 44
0.0000000001
 40
0.0
 40
0.0
 40
0.0
 40
0.0
 40
0.2386469607
 40
0.4936115587
 40
0.7519039861
 40
1.0
 40
1.0
 40
1.0
 40
1.0
 10
16.1057099595
 20
11.9269410315
 30
0.0
 10
16.1105974744
 20
11.9228523989
 30
0.0
 10
16.1216399435
 20
11.9154853146
 30
0.0
 10
16.1400680055
 20
11.9073135991
 30
0.0
 10
16.1597947094
 20
11.9020766336
 30
0.0
 10
16.1733344113
 20
11.90076154
 30
0.0
 10
16.1799588964
 20
11.90076154
 30
0.0
  0
SPLINE
  5
288
100
AcDbEntity
  8
0
100
AcDbSpline
 62
7
  6
CONTINUOUS
 70
0
 71
3
 72
9
 73
5
 74
0
 42
0.0000001
 43
0.0000001
 44
0.0000000001
 40
0.0
 40
0.0
 40
0.0
 40
0.0
 40
0.4782117588
 40
1.0
 40
1.0
 40
1.0
 40
1.0
 10
16.027779365
 20
12.0128439387
 30
0.0
 10
16.0378342817
 20
11.9972673056
 30
0.0
 10
16.061922171
 20
11.9666319639
 30
0.0
 10
16.0901937943
 20
11.9399210226
 30
0.0
 10
16.1057099595
 20
11.9269410315
 30
0.0
  0
SPLINE
  5
289
100
AcDbEntity
  8
0
100
AcDbSpline
 62
7
  6
CONTINUOUS
 70
0
 71
3
 72
13
 73
9
 74
0
 42
0.0000001
 43
0.0000001
 44
0.0000000001
 40
0.0
 40
0.0
 40
0.0
 40
0.0
 40
0.3031309116
 40
0.5686411751
 40
0.6870520219
 40
0.7968684374
 40
0.9002116316
 40
1.0
 40
1.0
 40
1.0
 40
1.0
 10
15.7773972709
 20
11.90076154
 30
0.0
 10
15.7831760934
 20
11.90076154
 30
0.0
 10
15.7940493011
 20
11.9016743661
 30
0.0
 10
15.8067037535
 20
11.9056532431
 30
0.0
 10
15.8148244192
 20
11.9104930939
 30
0.0
 10
15.8196222697
 20
11.9146691462
 30
0.0
 10
15.8232534156
 20
11.9194598237
 30
0.0
 10
15.8248447927
 20
11.9230360622
 30
0.0
 10
15.8254070597
 20
11.9248534143
 30
0.0
  0
SPLINE
  5
28A
100
AcDbEntity
  8
0
100
AcDbSpline
 62
7
  6
CONTINUOUS
 70
0
 71
3
 72
11
 73
7
 74
0
 42
0.0000001
 43
0.0000001
 44
0.0000000001
 40
0.0
 40
0.0
 40
0.0
 40
0.0
 40
0.2386469607
 40
0.4936115587
 40
0.7519039861
 40
1.0
 40
1.0
 40
1.0
 40
1.0
 10
15.5617763017
 20
11.9269410315
 30
0.0
 10
15.5666638165
 20
11.9228523989
 30
0.0
 10
15.5777062856
 20
11.9154853146
 30
0.0
 10
15.5961343476
 20
11.9073135991
 30
0.0
 10
15.6158610515
 20
11.9020766336
 30
0.0
 10
15.6294007534
 20
11.90076154
 30
0.0
 10
15.6360252385
 20
11.90076154
 30
0.0
  0
SPLINE
  5
28B
100
AcDbEntity
  8
0
100
AcDbSpline
 62
7
  6
CONTINUOUS
 70
0
 71
3
 72
9
 73
5
 74
0
 42
0.0000001
 43
0.0000001
 44
0.0000000001
 40
0.0
 40
0.0
 40
0.0
 40
0.0
 40
0.4782117588
 40
1.0
 40
1.0
 40
1.0
 40
1.0
 10
15.4838457072
 20
12.0128439387
 30
0.0
 10
15.4939006239
 20
11.9972673056
 30
0.0
 10
15.5179885132
 20
11.9666319639
 30
0.0
 10
15.5462601364
 20
11.9399210226
 30
0.0
 10
15.5617763017
 20
11.9269410315
 30
0.0
  0
SPLINE
  5
28C
100
AcDbEntity
  8
0
100
AcDbSpline
 62
7
  6
CONTINUOUS
 70
0
 71
3
 72
13
 73
9
 74
0
 42
0.0000001
 43
0.0000001
 44
0.0000000001
 40
0.0
 40
0.0
 40
0.0
 40
0.0
 40
0.3031309116
 40
0.5686411751
 40
0.6870520219
 40
0.7968684374
 40
0.9002116316
 40
1.0
 40
1.0
 40
1.0
 40
1.0
 10
15.233463613
 20
11.90076154
 30
0.0
 10
15.2392424356
 20
11.90076154
 30
0.0
 10
15.2501156432
 20
11.9016743661
 30
0.0
 10
15.2627700956
 20
11.9056532431
 30
0.0
 10
15.2708907614
 20
11.9104930939
 30
0.0
 10
15.2756886118
 20
11.9146691462
 30
0.0
 10
15.2793197578
 20
11.9194598237
 30
0.0
 10
15.2809111348
 20
11.9230360622
 30
0.0
 10
15.2814734018
 20
11.9248534143
 30
0.0
  0
SPLINE
  5
28D
100
AcDbEntity
  8
0
100
AcDbSpline
 62
7
  6
CONTINUOUS
 70
0
 71
3
 72
11
 73
7
 74
0
 42
0.0000001
 43
0.0000001
 44
0.0000000001
 40
0.0
 40
0.0
 40
0.0
 40
0.0
 40
0.2386469607
 40
0.4936115587
 40
0.7519039861
 40
1.0
 40
1.0
 40
1.0
 40
1.0
 10
15.0178426438
 20
11.9269410315
 30
0.0
 10
15.0227301586
 20
11.9228523989
 30
0.0
 10
15.0337726277
 20
11.9154853146
 30
0.0
 10
15.0522006897
 20
11.9073135991
 30
0.0
 10
15.0719273936
 20
11.9020766336
 30
0.0
 10
15.0854670955
 20
11.90076154
 30
0.0
 10
15.0920915806
 20
11.90076154
 30
0.0
  0
SPLINE
  5
28E
100
AcDbEntity
  8
0
100
AcDbSpline
 62
7
  6
CONTINUOUS
 70
0
 71
3
 72
9
 73
5
 74
0
 42
0.0000001
 43
0.0000001
 44
0.0000000001
 40
0.0
 40
0.0
 40
0.0
 40
0.0
 40
0.4782112337
 40
1.0
 40
1.0
 40
1.0
 40
1.0
 10
14.9399120493
 20
12.0128439387
 30
0.0
 10
14.9499669566
 20
11.9972673201
 30
0.0
 10
14.9740546499
 20
11.9666318081
 30
0.0
 10
15.0023264604
 20
11.9399210378
 30
0.0
 10
15.0178426438
 20
11.9269410315
 30
0.0
  0
SPLINE
  5
28F
100
AcDbEntity
  8
0
100
AcDbSpline
 62
7
  6
CONTINUOUS
 70
0
 71
3
 72
13
 73
9
 74
0
 42
0.0000001
 43
0.0000001
 44
0.0000000001
 40
0.0
 40
0.0
 40
0.0
 40
0.0
 40
0.3031309116
 40
0.5686411751
 40
0.6870520219
 40
0.7968684374
 40
0.9002116316
 40
1.0
 40
1.0
 40
1.0
 40
1.0
 10
14.6895299552
 20
11.90076154
 30
0.0
 10
14.6953087777
 20
11.90076154
 30
0.0
 10
14.7061819853
 20
11.9016743661
 30
0.0
 10
14.7188364378
 20
11.9056532431
 30
0.0
 10
14.7269571035
 20
11.9104930939
 30
0.0
 10
14.7317549539
 20
11.9146691462
 30
0.0
 10
14.7353860999
 20
11.9194598237
 30
0.0
 10
14.736977477
 20
11.9230360622
 30
0.0
 10
14.7375397439
 20
11.9248534143
 30
0.0
  0
SPLINE
  5
290
100
AcDbEntity
  8
0
100
AcDbSpline
 62
7
  6
CONTINUOUS
 70
0
 71
3
 72
11
 73
7
 74
0
 42
0.0000001
 43
0.0000001
 44
0.0000000001
 40
0.0
 40
0.0
 40
0.0
 40
0.0
 40
0.2386469607
 40
0.4936115587
 40
0.7519039861
 40
1.0
 40
1.0
 40
1.0
 40
1.0
 10
14.4739089859
 20
11.9269410315
 30
0.0
 10
14.4787965008
 20
11.9228523989
 30
0.0
 10
14.4898389698
 20
11.9154853146
 30
0.0
 10
14.5082670319
 20
11.9073135991
 30
0.0
 10
14.5279937357
 20
11.9020766336
 30
0.0
 10
14.5415334376
 20
11.90076154
 30
0.0
 10
14.5481579227
 20
11.90076154
 30
0.0
  0
SPLINE
  5
291
100
AcDbEntity
  8
0
100
AcDbSpline
 62
7
  6
CONTINUOUS
 70
0
 71
3
 72
9
 73
5
 74
0
 42
0.0000001
 43
0.0000001
 44
0.0000000001
 40
0.0
 40
0.0
 40
0.0
 40
0.0
 40
0.4782112337
 40
1.0
 40
1.0
 40
1.0
 40
1.0
 10
14.3959783914
 20
12.0128439387
 30
0.0
 10
14.4060332987
 20
11.9972673201
 30
0.0
 10
14.4301209921
 20
11.9666318081
 30
0.0
 10
14.4583928025
 20
11.9399210378
 30
0.0
 10
14.4739089859
 20
11.9269410315
 30
0.0
  0
SPLINE
  5
292
100
AcDbEntity
  8
0
100
AcDbSpline
 62
7
  6
CONTINUOUS
 70
0
 71
3
 72
13
 73
9
 74
0
 42
0.0000001
 43
0.0000001
 44
0.0000000001
 40
0.0
 40
0.0
 40
0.0
 40
0.0
 40
0.3031309116
 40
0.5686411751
 40
0.6870520219
 40
0.7968684374
 40
0.9002116316
 40
1.0
 40
1.0
 40
1.0
 40
1.0
 10
14.1455962973
 20
11.90076154
 30
0.0
 10
14.1513751198
 20
11.90076154
 30
0.0
 10
14.1622483275
 20
11.9016743661
 30
0.0
 10
14.1749027799
 20
11.9056532431
 30
0.0
 10
14.1830234456
 20
11.9104930939
 30
0.0
 10
14.1878212961
 20
11.9146691462
 30
0.0
 10
14.191452442
 20
11.9194598237
 30
0.0
 10
14.1930438191
 20
11.9230360622
 30
0.0
 10
14.193606086
 20
11.9248534143
 30
0.0
  0
SPLINE
  5
293
100
AcDbEntity
  8
0
100
AcDbSpline
 62
7
  6
CONTINUOUS
 70
0
 71
3
 72
11
 73
7
 74
0
 42
0.0000001
 43
0.0000001
 44
0.0000000001
 40
0.0
 40
0.0
 40
0.0
 40
0.0
 40
0.2386469607
 40
0.4936115587
 40
0.7519039861
 40
1.0
 40
1.0
 40
1.0
 40
1.0
 10
13.929975328
 20
11.9269410315
 30
0.0
 10
13.9348628429
 20
11.9228523989
 30
0.0
 10
13.945905312
 20
11.9154853146
 30
0.0
 10
13.964333374
 20
11.9073135991
 30
0.0
 10
13.9840600779
 20
11.9020766336
 30
0.0
 10
13.9975997798
 20
11.90076154
 30
0.0
 10
14.0042242649
 20
11.90076154
 30
0.0
  0
SPLINE
  5
294
100
AcDbEntity
  8
0
100
AcDbSpline
 62
7
  6
CONTINUOUS
 70
0
 71
3
 72
13
 73
9
 74
0
 42
0.0000001
 43
0.0000001
 44
0.0000000001
 40
0.0
 40
0.0
 40
0.0
 40
0.0
 40
0.2597359044
 40
0.5277890659
 40
0.6576805147
 40
0.7809938019
 40
0.8956125091
 40
1.0
 40
1.0
 40
1.0
 40
1.0
 10
13.7935100111
 20
12.0402566904
 30
0.0
 10
13.7992996766
 20
12.0402566904
 30
0.0
 10
13.8110838546
 20
12.0387685774
 30
0.0
 10
13.8250548676
 20
12.0339856131
 30
0.0
 10
13.8353202989
 20
12.028496842
 30
0.0
 10
13.8420677173
 20
12.0238000975
 30
0.0
 10
13.8477172014
 20
12.0186364358
 30
0.0
 10
13.8507827959
 20
12.0147988768
 30
0.0
 10
13.8520447335
 20
12.0128439387
 30
0.0
  0
SPLINE
  5
295
100
AcDbEntity
  8
0
100
AcDbSpline
 62
7
  6
CONTINUOUS
 70
0
 71
3
 72
13
 73
9
 74
0
 42
0.0000001
 43
0.0000001
 44
0.0000000001
 40
0.0
 40
0.0
 40
0.0
 40
0.0
 40
0.2597359044
 40
0.5277890659
 40
0.6576805147
 40
0.7809938019
 40
0.8956125091
 40
1.0
 40
1.0
 40
1.0
 40
1.0
 10
14.3374436689
 20
12.0402566904
 30
0.0
 10
14.3432333345
 20
12.0402566904
 30
0.0
 10
14.3550175124
 20
12.0387685774
 30
0.0
 10
14.3689885255
 20
12.0339856131
 30
0.0
 10
14.3792539568
 20
12.028496842
 30
0.0
 10
14.3860013752
 20
12.0238000975
 30
0.0
 10
14.3916508593
 20
12.0186364358
 30
0.0
 10
14.3947164537
 20
12.0147988768
 30
0.0
 10
14.3959783914
 20
12.0128439387
 30
0.0
  0
SPLINE
  5
296
100
AcDbEntity
  8
0
100
AcDbSpline
 62
7
  6
CONTINUOUS
 70
0
 71
3
 72
13
 73
9
 74
0
 42
0.0000001
 43
0.0000001
 44
0.0000000001
 40
0.0
 40
0.0
 40
0.0
 40
0.0
 40
0.2597359044
 40
0.5277890659
 40
0.6576805147
 40
0.7809938019
 40
0.8956125091
 40
1.0
 40
1.0
 40
1.0
 40
1.0
 10
14.8813773268
 20
12.0402566904
 30
0.0
 10
14.8871669923
 20
12.0402566904
 30
0.0
 10
14.8989511703
 20
12.0387685774
 30
0.0
 10
14.9129221834
 20
12.0339856131
 30
0.0
 10
14.9231876147
 20
12.028496842
 30
0.0
 10
14.9299350331
 20
12.0238000975
 30
0.0
 10
14.9355845172
 20
12.0186364358
 30
0.0
 10
14.9386501116
 20
12.0147988768
 30
0.0
 10
14.9399120493
 20
12.0128439387
 30
0.0
  0
SPLINE
  5
297
100
AcDbEntity
  8
0
100
AcDbSpline
 62
7
  6
CONTINUOUS
 70
0
 71
3
 72
13
 73
9
 74
0
 42
0.0000001
 43
0.0000001
 44
0.0000000001
 40
0.0
 40
0.0
 40
0.0
 40
0.0
 40
0.2597359044
 40
0.5277890659
 40
0.6576805147
 40
0.7809938019
 40
0.8956125091
 40
1.0
 40
1.0
 40
1.0
 40
1.0
 10
15.4253109847
 20
12.0402566904
 30
0.0
 10
15.4311006502
 20
12.0402566904
 30
0.0
 10
15.4428848282
 20
12.0387685774
 30
0.0
 10
15.4568558413
 20
12.0339856131
 30
0.0
 10
15.4671212726
 20
12.028496842
 30
0.0
 10
15.4738686909
 20
12.0238000975
 30
0.0
 10
15.4795181751
 20
12.0186364358
 30
0.0
 10
15.4825837695
 20
12.0147988768
 30
0.0
 10
15.4838457072
 20
12.0128439387
 30
0.0
  0
SPLINE
  5
298
100
AcDbEntity
  8
0
100
AcDbSpline
 62
7
  6
CONTINUOUS
 70
0
 71
3
 72
13
 73
9
 74
0
 42
0.0000001
 43
0.0000001
 44
0.0000000001
 40
0.0
 40
0.0
 40
0.0
 40
0.0
 40
0.2597359044
 40
0.5277890659
 40
0.6576805147
 40
0.7809938019
 40
0.8956125091
 40
1.0
 40
1.0
 40
1.0
 40
1.0
 10
15.9692446426
 20
12.0402566904
 30
0.0
 10
15.9750343081
 20
12.0402566904
 30
0.0
 10
15.9868184861
 20
12.0387685774
 30
0.0
 10
16.0007894991
 20
12.0339856131
 30
0.0
 10
16.0110549304
 20
12.028496842
 30
0.0
 10
16.0178023488
 20
12.0238000975
 30
0.0
 10
16.0234518329
 20
12.0186364358
 30
0.0
 10
16.0265174274
 20
12.0147988768
 30
0.0
 10
16.027779365
 20
12.0128439387
 30
0.0
  0
SPLINE
  5
299
100
AcDbEntity
  8
0
100
AcDbSpline
 62
7
  6
CONTINUOUS
 70
0
 71
3
 72
13
 73
9
 74
0
 42
0.0000001
 43
0.0000001
 44
0.0000000001
 40
0.0
 40
0.0
 40
0.0
 40
0.0
 40
0.2597359044
 40
0.5277890659
 40
0.6576805147
 40
0.7809938019
 40
0.8956125091
 40
1.0
 40
1.0
 40
1.0
 40
1.0
 10
16.5131783004
 20
12.0402566904
 30
0.0
 10
16.518967966
 20
12.0402566904
 30
0.0
 10
16.5307521439
 20
12.0387685774
 30
0.0
 10
16.544723157
 20
12.0339856131
 30
0.0
 10
16.5549885883
 20
12.028496842
 30
0.0
 10
16.5617360067
 20
12.0238000975
 30
0.0
 10
16.5673854908
 20
12.0186364358
 30
0.0
 10
16.5704510853
 20
12.0147988768
 30
0.0
 10
16.5717130229
 20
12.0128439387
 30
0.0
  0
SPLINE
  5
29A
100
AcDbEntity
  8
0
100
AcDbSpline
 62
7
  6
CONTINUOUS
 70
0
 71
3
 72
11
 73
7
 74
0
 42
0.0000001
 43
0.0000001
 44
0.0000000001
 40
0.0
 40
0.0
 40
0.0
 40
0.0
 40
0.2390043776
 40
0.4834587733
 40
0.736315213
 40
1.0
 40
1.0
 40
1.0
 40
1.0
 10
14.7380848351
 20
11.9269410315
 30
0.0
 10
14.7395368549
 20
11.9337282767
 30
0.0
 10
14.741451185
 20
11.9476967875
 30
0.0
 10
14.7412905147
 20
11.969145951
 30
0.0
 10
14.7381311301
 20
11.9910807899
 30
0.0
 10
14.734143967
 20
12.005585047
 30
0.0
 10
14.7317053815
 20
12.0128439387
 30
0.0
  0
SPLINE
  5
29B
100
AcDbEntity
  8
0
100
AcDbSpline
 62
7
  6
CONTINUOUS
 70
0
 71
3
 72
9
 73
5
 74
0
 42
0.0000001
 43
0.0000001
 44
0.0000000001
 40
0.0
 40
0.0
 40
0.0
 40
0.0
 40
0.5171838774
 40
1.0
 40
1.0
 40
1.0
 40
1.0
 10
14.1877717236
 20
12.0128439387
 30
0.0
 10
14.1871403536
 20
12.0147233261
 30
0.0
 10
14.1863652119
 20
12.0185395955
 30
0.0
 10
14.1868488663
 20
12.0224271506
 30
0.0
 10
14.1873952776
 20
12.0241955143
 30
0.0
  0
SPLINE
  5
29C
100
AcDbEntity
  8
0
100
AcDbSpline
 62
7
  6
CONTINUOUS
 70
0
 71
3
 72
11
 73
7
 74
0
 42
0.0000001
 43
0.0000001
 44
0.0000000001
 40
0.0
 40
0.0
 40
0.0
 40
0.0
 40
0.2390166886
 40
0.4834594387
 40
0.736300372
 40
1.0
 40
1.0
 40
1.0
 40
1.0
 10
15.8259521508
 20
11.9269410315
 30
0.0
 10
15.8274042465
 20
11.9337286314
 30
0.0
 10
15.8293192792
 20
11.9476971279
 30
0.0
 10
15.8291571544
 20
11.9691458459
 30
0.0
 10
15.8259992599
 20
11.9910805131
 30
0.0
 10
15.8220114218
 20
12.005584633
 30
0.0
 10
15.8195726973
 20
12.0128439387
 30
0.0
  0
SPLINE
  5
29D
100
AcDbEntity
  8
0
100
AcDbSpline
 62
7
  6
CONTINUOUS
 70
0
 71
3
 72
9
 73
5
 74
0
 42
0.0000001
 43
0.0000001
 44
0.0000000001
 40
0.0
 40
0.0
 40
0.0
 40
0.0
 40
0.5171838774
 40
1.0
 40
1.0
 40
1.0
 40
1.0
 10
14.7317053815
 20
12.0128439387
 30
0.0
 10
14.7310740115
 20
12.0147233261
 30
0.0
 10
14.7302988698
 20
12.0185395955
 30
0.0
 10
14.7307825241
 20
12.0224271506
 30
0.0
 10
14.7313289355
 20
12.0241955143
 30
0.0
  0
SPLINE
  5
29E
100
AcDbEntity
  8
0
100
AcDbSpline
 62
7
  6
CONTINUOUS
 70
0
 71
3
 72
9
 73
5
 74
0
 42
0.0000001
 43
0.0000001
 44
0.0000000001
 40
0.0
 40
0.0
 40
0.0
 40
0.0
 40
0.5171838774
 40
1.0
 40
1.0
 40
1.0
 40
1.0
 10
15.2756390394
 20
12.0128439387
 30
0.0
 10
15.2750076693
 20
12.0147233261
 30
0.0
 10
15.2742325277
 20
12.0185395955
 30
0.0
 10
15.274716182
 20
12.0224271506
 30
0.0
 10
15.2752625934
 20
12.0241955143
 30
0.0
  0
SPLINE
  5
29F
100
AcDbEntity
  8
0
100
AcDbSpline
 62
7
  6
CONTINUOUS
 70
0
 71
3
 72
11
 73
7
 74
0
 42
0.0000001
 43
0.0000001
 44
0.0000000001
 40
0.0
 40
0.0
 40
0.0
 40
0.0
 40
0.2390043776
 40
0.4834587733
 40
0.736315213
 40
1.0
 40
1.0
 40
1.0
 40
1.0
 10
14.1941511772
 20
11.9269410315
 30
0.0
 10
14.195603197
 20
11.9337282767
 30
0.0
 10
14.1975175271
 20
11.9476967875
 30
0.0
 10
14.1973568568
 20
11.969145951
 30
0.0
 10
14.1941974722
 20
11.9910807899
 30
0.0
 10
14.1902103091
 20
12.005585047
 30
0.0
 10
14.1877717236
 20
12.0128439387
 30
0.0
  0
SPLINE
  5
2A0
100
AcDbEntity
  8
0
100
AcDbSpline
 62
7
  6
CONTINUOUS
 70
0
 71
3
 72
11
 73
7
 74
0
 42
0.0000001
 43
0.0000001
 44
0.0000000001
 40
0.0
 40
0.0
 40
0.0
 40
0.0
 40
0.2390166886
 40
0.4834594387
 40
0.736300372
 40
1.0
 40
1.0
 40
1.0
 40
1.0
 10
16.3698858087
 20
11.9269410315
 30
0.0
 10
16.3713379044
 20
11.9337286314
 30
0.0
 10
16.3732529371
 20
11.9476971279
 30
0.0
 10
16.3730908122
 20
11.9691458459
 30
0.0
 10
16.3699329178
 20
11.9910805131
 30
0.0
 10
16.3659450797
 20
12.005584633
 30
0.0
 10
16.3635063551
 20
12.0128439387
 30
0.0
  0
SPLINE
  5
2A1
100
AcDbEntity
  8
0
100
AcDbSpline
 62
7
  6
CONTINUOUS
 70
0
 71
3
 72
9
 73
5
 74
0
 42
0.0000001
 43
0.0000001
 44
0.0000000001
 40
0.0
 40
0.0
 40
0.0
 40
0.0
 40
0.5171838774
 40
1.0
 40
1.0
 40
1.0
 40
1.0
 10
15.8195726973
 20
12.0128439387
 30
0.0
 10
15.8189413272
 20
12.0147233261
 30
0.0
 10
15.8181661856
 20
12.0185395955
 30
0.0
 10
15.8186498399
 20
12.0224271506
 30
0.0
 10
15.8191962513
 20
12.0241955143
 30
0.0
  0
SPLINE
  5
2A2
100
AcDbEntity
  8
0
100
AcDbSpline
 62
7
  6
CONTINUOUS
 70
0
 71
3
 72
11
 73
7
 74
0
 42
0.0000001
 43
0.0000001
 44
0.0000000001
 40
0.0
 40
0.0
 40
0.0
 40
0.0
 40
0.2390043776
 40
0.4834587733
 40
0.736315213
 40
1.0
 40
1.0
 40
1.0
 40
1.0
 10
15.2820184929
 20
11.9269410315
 30
0.0
 10
15.2834705128
 20
11.9337282767
 30
0.0
 10
15.2853848429
 20
11.9476967875
 30
0.0
 10
15.2852241726
 20
11.969145951
 30
0.0
 10
15.282064788
 20
11.9910807899
 30
0.0
 10
15.2780776249
 20
12.005585047
 30
0.0
 10
15.2756390394
 20
12.0128439387
 30
0.0
  0
SPLINE
  5
2A3
100
AcDbEntity
  8
0
100
AcDbSpline
 62
7
  6
CONTINUOUS
 70
0
 71
3
 72
9
 73
5
 74
0
 42
0.0000001
 43
0.0000001
 44
0.0000000001
 40
0.0
 40
0.0
 40
0.0
 40
0.0
 40
0.5171838774
 40
1.0
 40
1.0
 40
1.0
 40
1.0
 10
16.3635063551
 20
12.0128439387
 30
0.0
 10
16.3628749851
 20
12.0147233261
 30
0.0
 10
16.3620998434
 20
12.0185395955
 30
0.0
 10
16.3625834978
 20
12.0224271506
 30
0.0
 10
16.3631299091
 20
12.0241955143
 30
0.0
  0
SPLINE
  5
2A4
100
AcDbEntity
  8
0
100
AcDbSpline
 62
7
  6
CONTINUOUS
 70
0
 71
3
 72
9
 73
5
 74
0
 42
0.0000001
 43
0.0000001
 44
0.0000000001
 40
0.0
 40
0.0
 40
0.0
 40
0.0
 40
0.5171838774
 40
1.0
 40
1.0
 40
1.0
 40
1.0
 10
16.907440013
 20
12.0128439387
 30
0.0
 10
16.906808643
 20
12.0147233261
 30
0.0
 10
16.9060335013
 20
12.0185395955
 30
0.0
 10
16.9065171556
 20
12.0224271506
 30
0.0
 10
16.907063567
 20
12.0241955143
 30
0.0
  0
SPLINE
  5
2A5
100
AcDbEntity
  8
0
100
AcDbSpline
 62
7
  6
CONTINUOUS
 70
0
 71
3
 72
11
 73
7
 74
0
 42
0.0000001
 43
0.0000001
 44
0.0000000001
 40
0.0
 40
0.0
 40
0.0
 40
0.0
 40
0.2390166942
 40
0.4834594323
 40
0.7363003699
 40
1.0
 40
1.0
 40
1.0
 40
1.0
 10
16.9138194666
 20
11.9269410315
 30
0.0
 10
16.9152715623
 20
11.9337286316
 30
0.0
 10
16.9171865949
 20
11.9476971279
 30
0.0
 10
16.9170244701
 20
11.9691458458
 30
0.0
 10
16.9138665757
 20
11.9910805128
 30
0.0
 10
16.9098787376
 20
12.0055846329
 30
0.0
 10
16.907440013
 20
12.0128439387
 30
0.0
  0
ENDSEC
  0
SECTION
  2
OBJECTS
  0
DICTIONARY
  5
C
100
AcDbDictionary
280
0
281
1
  3
ACAD_GROUP
350
D
  3
ACAD_MLINESTYLE
350
17
  3
ACAD_LAYOUT
350
1A
  3
ACAD_PLOTSETTINGS
350
19
  3
ACAD_PLOTSTYLENAME
350
E
  0
DICTIONARY
  5
D
102
{ACAD_REACTORS
330
C
102
}
100
AcDbDictionary
280
0
281
1
  0
ACDBDICTIONARYWDFLT
  5
E
102
{ACAD_REACTORS
330
C
102
}
100
AcDbDictionary
281
1
  3
Normal
350
F
100
AcDbDictionaryWithDefault
340
F
  0
DICTIONARY
  5
17
102
{ACAD_REACTORS
330
C
102
}
100
AcDbDictionary
280
0
281
1
  3
Standard
350
18
  0
DICTIONARY
  5
19
102
{ACAD_REACTORS
330
C
102
}
100
AcDbDictionary
281
1
  0
DICTIONARY
  5
1A
102
{ACAD_REACTORS
330
C
102
}
100
AcDbDictionary
281
1
  3
Model
350
2A6
  3
Layout1
350
2A7
  0
ACDBPLACEHOLDER
  5
F
102
{ACAD_REACTORS
330
E
102
}
  0
MLINESTYLE
  5
18
102
{ACAD_REACTORS
330
17
102
}
100
AcDbMlineStyle
  2
STANDARD
 70
0
  3

 62
256
 51
90.0
 52
90.0
 71
2
 49
0.5
 62
256
  6
BYLAYER
 49
-0.5
 62
256
  6
BYLAYER
  0
LAYOUT
  5
2A6
102
{ACAD_REACTORS
330
1A
102
}
100
AcDbPlotSettings
  1

  2
none_device
  4
ANSI_C_(22.00_x_17.00_Inches)
  6

 40
0.0
 41
0.0
 42
0.0
 43
0.0
 44
558.8
 45
431.8
 46
0.0
 47
0.0
 48
0.0
 49
0.0
140
0.0
141
0.0
142
1.0
143
1.0
 70
1024
 72
0
 73
0
 74
0
  7

 75
0
147
1.0
148
0.0
149
0.0
100
AcDbLayout
  1
Model
 70
0
 71
0
 10
0.0
 20
0.0
 11
22.0
 21
17.0
 12
0.0
 22
0.0
 32
0.0
 14
0.0
 24
0.0
 34
0.0
 15
0.0
 25
0.0
 35
0.0
146
0.0
 13
0.0
 23
0.0
 33
0.0
 16
1.0
 26
0.0
 36
0.0
 17
0.0
 27
1.0
 37
0.0
 76
0
330
216
345
0
346
0
  0
LAYOUT
  5
2A7
102
{ACAD_REACTORS
330
1A
102
}
100
AcDbPlotSettings
  1

  2
none_device
  4
ANSI_C_(22.00_x_17.00_Inches)
  6

 40
0.0
 41
0.0
 42
0.0
 43
0.0
 44
558.8
 45
431.8
 46
0.0
 47
0.0
 48
0.0
 49
0.0
140
0.0
141
0.0
142
1.0
143
1.0
 70
0
 72
0
 73
0
 74
0
  7

 75
0
147
1.0
148
0.0
149
0.0
100
AcDbLayout
  1
Layout1
 70
0
 71
1
 10
0.0
 20
0.0
 11
22.0
 21
17.0
 12
0.0
 22
0.0
 32
0.0
 14
0.0
 24
0.0
 34
0.0
 15
0.0
 25
0.0
 35
0.0
146
0.0
 13
0.0
 23
0.0
 33
0.0
 16
1.0
 26
0.0
 36
0.0
 17
0.0
 27
1.0
 37
0.0
 76
0
330
217
345
0
346
0
  0
ENDSEC
  0
EOF