999
DXF file: _cgs_temp_output.dxf
999
Pro/ENGINEER 2015110 by Parametric Technology Corporation
  0
SECTION
  2
HEADER
  9
$ACADVER
  1
AC1021
  9
$DWGCODEPAGE
  3
ANSI_1252
  9
$EXTMAX
 10
22.0
 20
17.0
 30
0.0
  9
$EXTMIN
 10
0.0
 20
0.0
 30
0.0
  9
$LIMMIN
 10
0.0
 20
0.0
  9
$LIMMAX
 10
22.0
 20
17.0
  9
$VIEWCTR
 10
11.0
 20
8.5
  9
$VIEWSIZE
 40
17.0
  9
$CLAYER
  8
0
  9
$LTSCALE
 40
1.21
  9
$CELTYPE
  6
BYLAYER
  9
$DIMSCALE
 40
1.0
  9
$DIMASZ
 40
0.1875
  9
$DIMEXO
 40
0.0625
  9
$DIMDLI
 40
0.836
  9
$DIMEXE
 40
0.125
  9
$DIMCEN
 40
0.198
  9
$DIMLFAC
 40
1.0
  9
$DIMBLK
  1
_CLOSED
  9
$DIMALT
 70
0
  9
$DIMALTF
 40
25.4
  9
$DIMTXT
 40
0.15625
  9
$DIMTOL
 70
0
  9
$DIMLIM
 70
0
  9
$DIMTFAC
 40
1.0
  9
$DIMGAP
 40
0.09
  9
$DIMDSEP
 70
46
  9
$AUNITS
 70
0
  9
$PDMODE
 70
3
  9
$PDSIZE
 40
0.3125
  9
$HANDSEED
  5
4BA
  9
$TILEMODE
 70
1
  9
$MEASUREMENT
 70
0
  9
$INSUNITS
 70
1
  0
ENDSEC
  0
SECTION
  2
CLASSES
  0
CLASS
  1
ACDBDICTIONARYWDFLT
  2
AcDbDictionaryWithDefault
  3
AutoCAD 2000
 90
0
 91
1
280
0
281
0
  0
CLASS
  1
ACDBPLACEHOLDER
  2
AcDbPlaceHolder
  3
AutoCAD 2000
 90
0
 91
1
280
0
281
0
  0
CLASS
  1
LAYOUT
  2
AcDbLayout
  3
AutoCAD 2000
 90
0
 91
0
280
0
281
0
  0
ENDSEC
  0
SECTION
  2
TABLES
  0
TABLE
  2
VPORT
  5
8
100
AcDbSymbolTable
 70
2
  0
VPORT
  5
1F4
100
AcDbSymbolTableRecord
100
AcDbViewportTableRecord
  2
*ACTIVE
 70
0
 10
0.0
 20
0.0
 11
1.0
 21
1.0
 12
11.0
 22
8.5
 13
0.0
 23
0.0
 14
1.0
 24
1.0
 15
0.0
 25
0.0
 16
0.0
 26
0.0
 36
1.0
 17
0.0
 27
0.0
 37
0.0
 40
17.0
 41
1.2941176471
 42
50.0
 43
0.0
 44
0.0
 50
0.0
 51
0.0
 71
0
 72
100
 73
1
 74
1
 75
0
 76
0
 77
0
 78
0
  0
ENDTAB
  0
TABLE
  2
LTYPE
  5
5
100
AcDbSymbolTable
 70
6
  0
LTYPE
  5
14
100
AcDbSymbolTableRecord
100
AcDbLinetypeTableRecord
  2
BYBLOCK
 70
0
  3

 72
65
 73
0
 40
0.0
  0
LTYPE
  5
15
100
AcDbSymbolTableRecord
100
AcDbLinetypeTableRecord
  2
BYLAYER
 70
0
  3

 72
65
 73
0
 40
0.0
  0
LTYPE
  5
16
100
AcDbSymbolTableRecord
100
AcDbLinetypeTableRecord
  2
CONTINUOUS
 70
64
  3
Solid line
 72
65
 73
0
 40
0.0
  0
LTYPE
  5
1F5
100
AcDbSymbolTableRecord
100
AcDbLinetypeTableRecord
  2
CENTER
 70
64
  3
____ _ ____ _ ____ _ ____ _ ____ _ ____ _ ____
 72
65
 73
4
 40
0.6
 49
0.375
 74
0
 49
-0.075
 74
0
 49
0.075
 74
0
 49
-0.075
 74
0
  0
LTYPE
  5
1F6
100
AcDbSymbolTableRecord
100
AcDbLinetypeTableRecord
  2
HIDDEN
 70
64
  3
- - - - - - - - - - - - - - - - - - - -
 72
65
 73
2
 40
0.2
 49
0.1
 74
0
 49
-0.1
 74
0
  0
LTYPE
  5
1F7
100
AcDbSymbolTableRecord
100
AcDbLinetypeTableRecord
  2
PHANTOM
 70
64
  3
_____ _ _ _____ _ _ _____ _ _ _____
 72
65
 73
6
 40
0.8
 49
0.45
 74
0
 49
-0.05
 74
0
 49
0.1
 74
0
 49
-0.05
 74
0
 49
0.1
 74
0
 49
-0.05
 74
0
  0
LTYPE
  5
1F8
100
AcDbSymbolTableRecord
100
AcDbLinetypeTableRecord
  2
DOT
 70
64
  3
. . . . . . . . . . . . . . . . . . . .
 72
65
 73
2
 40
0.2
 49
0.1
 74
0
 49
-0.1
 74
0
  0
LTYPE
  5
1F9
100
AcDbSymbolTableRecord
100
AcDbLinetypeTableRecord
  2
DASHED
 70
64
  3
- - - - - - - - - - - - - - - - - - - -
 72
65
 73
2
 40
0.2
 49
0.1
 74
0
 49
-0.1
 74
0
  0
ENDTAB
  0
TABLE
  2
LAYER
  5
2
100
AcDbSymbolTable
 70
36
  0
LAYER
  5
10
100
AcDbSymbolTableRecord
100
AcDbLayerTableRecord
  2
0
 70
0
 62
7
  6
CONTINUOUS
370
-3
390
F
  0
LAYER
  5
1FA
100
AcDbSymbolTableRecord
100
AcDbLayerTableRecord
  2
DEFAULT_1
 70
0
 62
7
  6
CENTER
370
-3
390
F
  0
LAYER
  5
1FB
100
AcDbSymbolTableRecord
100
AcDbLayerTableRecord
  2
DEFAULT_2
 70
0
 62
8
  6
HIDDEN
370
-3
390
F
  0
LAYER
  5
1FC
100
AcDbSymbolTableRecord
100
AcDbLayerTableRecord
  2
DEFAULT_3
 70
0
 62
7
  6
PHANTOM
370
-3
390
F
  0
LAYER
  5
1FD
100
AcDbSymbolTableRecord
100
AcDbLayerTableRecord
  2
01_ALL_DTM_PLN
 70
0
 62
7
  6
CONTINUOUS
370
-3
390
F
  0
LAYER
  5
1FE
100
AcDbSymbolTableRecord
100
AcDbLayerTableRecord
  2
01__ASM_ALL_DTM_PLN
 70
0
 62
7
  6
CONTINUOUS
370
-3
390
F
  0
LAYER
  5
1FF
100
AcDbSymbolTableRecord
100
AcDbLayerTableRecord
  2
01__ASM_DEF_DTM_PLN
 70
0
 62
7
  6
CONTINUOUS
370
-3
390
F
  0
LAYER
  5
200
100
AcDbSymbolTableRecord
100
AcDbLayerTableRecord
  2
01___PRT_ALL_DTM_PLN
 70
0
 62
7
  6
CONTINUOUS
370
-3
390
F
  0
LAYER
  5
201
100
AcDbSymbolTableRecord
100
AcDbLayerTableRecord
  2
01___PRT_DEF_DTM_PLN
 70
0
 62
7
  6
CONTINUOUS
370
-3
390
F
  0
LAYER
  5
202
100
AcDbSymbolTableRecord
100
AcDbLayerTableRecord
  2
02_ALL_AXES
 70
0
 62
7
  6
CONTINUOUS
370
-3
390
F
  0
LAYER
  5
203
100
AcDbSymbolTableRecord
100
AcDbLayerTableRecord
  2
02__ASM_ALL_AXES
 70
0
 62
7
  6
CONTINUOUS
370
-3
390
F
  0
LAYER
  5
204
100
AcDbSymbolTableRecord
100
AcDbLayerTableRecord
  2
02___PRT_ALL_AXES
 70
0
 62
7
  6
CONTINUOUS
370
-3
390
F
  0
LAYER
  5
205
100
AcDbSymbolTableRecord
100
AcDbLayerTableRecord
  2
03_ALL_CURVES
 70
0
 62
7
  6
CONTINUOUS
370
-3
390
F
  0
LAYER
  5
206
100
AcDbSymbolTableRecord
100
AcDbLayerTableRecord
  2
03__ASM_ALL_CURVES
 70
0
 62
7
  6
CONTINUOUS
370
-3
390
F
  0
LAYER
  5
207
100
AcDbSymbolTableRecord
100
AcDbLayerTableRecord
  2
03___PRT_ALL_CURVES
 70
0
 62
7
  6
CONTINUOUS
370
-3
390
F
  0
LAYER
  5
208
100
AcDbSymbolTableRecord
100
AcDbLayerTableRecord
  2
04_ALL_DTM_PNT
 70
0
 62
7
  6
CONTINUOUS
370
-3
390
F
  0
LAYER
  5
209
100
AcDbSymbolTableRecord
100
AcDbLayerTableRecord
  2
04__ASM_ALL_DTM_PNT
 70
0
 62
7
  6
CONTINUOUS
370
-3
390
F
  0
LAYER
  5
20A
100
AcDbSymbolTableRecord
100
AcDbLayerTableRecord
  2
04___PRT_ALL_DTM_PNT
 70
0
 62
7
  6
CONTINUOUS
370
-3
390
F
  0
LAYER
  5
20B
100
AcDbSymbolTableRecord
100
AcDbLayerTableRecord
  2
05_ALL_DTM_CSYS
 70
0
 62
7
  6
CONTINUOUS
370
-3
390
F
  0
LAYER
  5
20C
100
AcDbSymbolTableRecord
100
AcDbLayerTableRecord
  2
05__ASM_ALL_DTM_CSYS
 70
0
 62
7
  6
CONTINUOUS
370
-3
390
F
  0
LAYER
  5
20D
100
AcDbSymbolTableRecord
100
AcDbLayerTableRecord
  2
05__ASM_DEF_DTM_CSYS
 70
0
 62
7
  6
CONTINUOUS
370
-3
390
F
  0
LAYER
  5
20E
100
AcDbSymbolTableRecord
100
AcDbLayerTableRecord
  2
05___PRT_ALL_DTM_CSYS
 70
0
 62
7
  6
CONTINUOUS
370
-3
390
F
  0
LAYER
  5
20F
100
AcDbSymbolTableRecord
100
AcDbLayerTableRecord
  2
05___PRT_DEF_DTM_CSYS
 70
0
 62
7
  6
CONTINUOUS
370
-3
390
F
  0
LAYER
  5
210
100
AcDbSymbolTableRecord
100
AcDbLayerTableRecord
  2
06_ALL_SURFS
 70
0
 62
7
  6
CONTINUOUS
370
-3
390
F
  0
LAYER
  5
211
100
AcDbSymbolTableRecord
100
AcDbLayerTableRecord
  2
06__ASM_ALL_SURFS
 70
0
 62
7
  6
CONTINUOUS
370
-3
390
F
  0
LAYER
  5
212
100
AcDbSymbolTableRecord
100
AcDbLayerTableRecord
  2
06___PRT_ALL_SURFS
 70
0
 62
7
  6
CONTINUOUS
370
-3
390
F
  0
LAYER
  5
213
100
AcDbSymbolTableRecord
100
AcDbLayerTableRecord
  2
07__ASM_ALL_SKELETONS
 70
0
 62
7
  6
CONTINUOUS
370
-3
390
F
  0
LAYER
  5
214
100
AcDbSymbolTableRecord
100
AcDbLayerTableRecord
  2
LAYER_AXIS
 70
0
 62
7
  6
CONTINUOUS
370
-3
390
F
  0
LAYER
  5
215
100
AcDbSymbolTableRecord
100
AcDbLayerTableRecord
  2
LAYER_CHAMFER_FEAT
 70
0
 62
7
  6
CONTINUOUS
370
-3
390
F
  0
LAYER
  5
216
100
AcDbSymbolTableRecord
100
AcDbLayerTableRecord
  2
LAYER_CUT_FEAT
 70
0
 62
7
  6
CONTINUOUS
370
-3
390
F
  0
LAYER
  5
217
100
AcDbSymbolTableRecord
100
AcDbLayerTableRecord
  2
LAYER_DATUM
 70
0
 62
7
  6
CONTINUOUS
370
-3
390
F
  0
LAYER
  5
218
100
AcDbSymbolTableRecord
100
AcDbLayerTableRecord
  2
LAYER_DIM
 70
0
 62
7
  6
CONTINUOUS
370
-3
390
F
  0
LAYER
  5
219
100
AcDbSymbolTableRecord
100
AcDbLayerTableRecord
  2
LAYER_FEATURE
 70
0
 62
7
  6
CONTINUOUS
370
-3
390
F
  0
LAYER
  5
21A
100
AcDbSymbolTableRecord
100
AcDbLayerTableRecord
  2
LAYER_GEOM_FEAT
 70
0
 62
7
  6
CONTINUOUS
370
-3
390
F
  0
LAYER
  5
21B
100
AcDbSymbolTableRecord
100
AcDbLayerTableRecord
  2
LAYER_NOGEOM_FEAT
 70
0
 62
7
  6
CONTINUOUS
370
-3
390
F
  0
LAYER
  5
21C
100
AcDbSymbolTableRecord
100
AcDbLayerTableRecord
  2
LAYER_PARAMETER_DIM
 70
0
 62
7
  6
CONTINUOUS
370
-3
390
F
  0
LAYER
  5
21D
100
AcDbSymbolTableRecord
100
AcDbLayerTableRecord
  2
LAYER_PROTRUSION_FEAT
 70
0
 62
7
  6
CONTINUOUS
370
-3
390
F
  0
LAYER
  5
21E
100
AcDbSymbolTableRecord
100
AcDbLayerTableRecord
  2
LAYER_QUILT
 70
0
 62
7
  6
CONTINUOUS
370
-3
390
F
  0
LAYER
  5
21F
100
AcDbSymbolTableRecord
100
AcDbLayerTableRecord
  2
LAYER_ROUND_FEAT
 70
0
 62
7
  6
CONTINUOUS
370
-3
390
F
  0
ENDTAB
  0
TABLE
  2
STYLE
  5
3
100
AcDbSymbolTable
 70
1
  0
STYLE
  5
11
100
AcDbSymbolTableRecord
100
AcDbTextStyleTableRecord
  2
STANDARD
 70
0
 40
0.0
 41
0.8
 50
0.0
 71
0
 42
0.2
  3
txt
  4

  0
STYLE
  5
220
100
AcDbSymbolTableRecord
100
AcDbTextStyleTableRecord
  2
TEXTSTYLE_1
 70
0
 40
0.0
 41
0.8
 50
0.0
 71
0
 42
0.2
  3
gdt
  4

  0
ENDTAB
  0
TABLE
  2
VIEW
  5
6
100
AcDbSymbolTable
 70
0
  0
ENDTAB
  0
TABLE
  2
UCS
  5
7
100
AcDbSymbolTable
 70
0
  0
ENDTAB
  0
TABLE
  2
APPID
  5
9
100
AcDbSymbolTable
 70
1
  0
APPID
  5
221
100
AcDbSymbolTableRecord
100
AcDbRegAppTableRecord
  2
ACAD
 70
0
  0
ENDTAB
  0
TABLE
  2
BLOCK_RECORD
  5
1
100
AcDbSymbolTable
 70
0
  0
BLOCK_RECORD
  5
222
100
AcDbSymbolTableRecord
100
AcDbBlockTableRecord
  2
*Model_Space
  0
BLOCK_RECORD
  5
223
100
AcDbSymbolTableRecord
100
AcDbBlockTableRecord
  2
*Paper_Space
  0
ENDTAB
  0
TABLE
  2
DIMSTYLE
  5
A
100
AcDbSymbolTable
 70
1
100
AcDbDimStyleTable
 71
0
  0
DIMSTYLE
105
224
100
AcDbSymbolTableRecord
100
AcDbDimStyleTableRecord
  2
STANDARD
 70
0
  3

  4

 40
1.0
 41
0.1875
 42
0.0625
 43
0.38
 44
0.125
 45
0.0
 46
0.0
 47
0.0001
 48
0.0001
140
0.15625
141
0.09
142
0.0
143
25.4
144
1.0
145
0.0
146
1.0
147
0.09
 71
0.0
 72
0.0
 73
1
 74
1
 75
0
 76
0
 77
0
 78
4
170
0
171
2
172
0
173
0
174
0
175
0
176
0
177
0
178
0
270
2
271
4
272
4
273
2
274
2
275
0
280
0
281
0
282
0
283
1
284
4
285
0
286
0
287
3
288
0
340
11
278
46
  0
ENDTAB
  0
ENDSEC
  0
SECTION
  2
BLOCKS
  0
BLOCK
  5
20
100
AcDbEntity
  8
0
100
AcDbBlockBegin
  2
*Model_Space
 70
0
 10
0.0
 20
0.0
 30
0.0
  3
*Model_Space
  1

  0
ENDBLK
  5
21
100
AcDbEntity
  8
0
100
AcDbBlockEnd
  0
BLOCK
  5
1C
100
AcDbEntity
  8
0
100
AcDbBlockBegin
  2
*Paper_Space
 70
0
 10
0.0
 20
0.0
 30
0.0
  3
*Paper_Space
  1

  0
ENDBLK
  5
1D
100
AcDbEntity
  8
0
100
AcDbBlockEnd
  0
ENDSEC
  0
SECTION
  2
ENTITIES
  0
MTEXT
  5
225
100
AcDbEntity
  8
0
100
AcDbMText
 62
7
  6
CONTINUOUS
  7
STANDARD
 71
1
 72
1
 10
15.9560215477
 20
0.9479130325
 30
0.0
 11
1.0
 21
0.0
 31
0.0
 44
0.9
  1
SCALE: 1:1.000
 40
0.3
 41
3.36
  0
LINE
  5
226
100
AcDbEntity
  8
0
100
AcDbLine
 62
7
  6
CONTINUOUS
 10
0.0
 20
0.0
 11
0.0
 21
17.0
  0
LINE
  5
227
100
AcDbEntity
  8
0
100
AcDbLine
 62
7
  6
CONTINUOUS
 10
0.0
 20
0.0
 11
22.0
 21
0.0
  0
LINE
  5
228
100
AcDbEntity
  8
0
100
AcDbLine
 62
7
  6
CONTINUOUS
 10
0.0
 20
17.0
 11
22.0
 21
17.0
  0
LINE
  5
229
100
AcDbEntity
  8
0
100
AcDbLine
 62
7
  6
CONTINUOUS
 10
22.0
 20
0.0
 11
22.0
 21
17.0
  0
LINE
  5
22A
100
AcDbEntity
  8
LAYER_FEATURE
100
AcDbLine
 62
7
  6
CONTINUOUS
 10
6.0647672762
 20
6.1701198968
 11
6.0610399507
 21
6.1663925713
  0
LINE
  5
22B
100
AcDbEntity
  8
LAYER_FEATURE
100
AcDbLine
 62
7
  6
CONTINUOUS
 10
6.7803672762
 20
5.4545198968
 11
6.7765956029
 21
5.4507482235
  0
LINE
  5
22C
100
AcDbEntity
  8
LAYER_FEATURE
100
AcDbLine
 62
7
  6
CONTINUOUS
 10
6.1959672762
 20
6.1701198968
 11
6.1996946016
 21
6.1663925713
  0
LINE
  5
22D
100
AcDbEntity
  8
LAYER_FEATURE
100
AcDbLine
 62
7
  6
CONTINUOUS
 10
6.7803672762
 20
5.5857198968
 11
6.7765956029
 21
5.58949157
  0
LINE
  5
22E
100
AcDbEntity
  8
LAYER_FEATURE
100
AcDbLine
 62
7
  6
CONTINUOUS
 10
6.7803672762
 20
5.5857198968
 11
6.7803672762
 21
5.4545198968
  0
LINE
  5
22F
100
AcDbEntity
  8
LAYER_FEATURE
100
AcDbLine
 62
7
  6
CONTINUOUS
 10
6.0647672762
 20
6.1701198968
 11
6.1959672762
 21
6.1701198968
  0
LINE
  5
230
100
AcDbEntity
  8
LAYER_FEATURE
100
AcDbLine
 62
7
  6
CONTINUOUS
 10
5.1828720839
 20
12.5495477814
 11
5.1828720839
 21
12.5895477814
  0
LINE
  5
231
100
AcDbEntity
  8
LAYER_FEATURE
100
AcDbLine
 62
7
  6
CONTINUOUS
 10
5.1828720839
 20
12.9165477814
 11
5.1828720839
 21
12.9565477814
  0
LINE
  5
232
100
AcDbEntity
  8
LAYER_CUT_FEAT
100
AcDbLine
 62
7
  6
CONTINUOUS
 10
5.2400190691
 20
12.6130477814
 11
5.2400190691
 21
12.8930477814
  0
LINE
  5
233
100
AcDbEntity
  8
LAYER_CUT_FEAT
100
AcDbLine
 62
7
  6
CONTINUOUS
 10
5.243133214
 20
12.6130477814
 11
5.243133214
 21
12.8930477814
  0
LINE
  5
234
100
AcDbEntity
  8
LAYER_CUT_FEAT
100
AcDbLine
 62
7
  6
CONTINUOUS
 10
5.2459297275
 20
12.6130477814
 11
5.2459297275
 21
12.8930477814
  0
LINE
  5
235
100
AcDbEntity
  8
LAYER_CUT_FEAT
100
AcDbLine
 62
7
  6
CONTINUOUS
 10
5.261424667
 20
12.6130477814
 11
5.261424667
 21
12.8930477814
  0
LINE
  5
236
100
AcDbEntity
  8
LAYER_CUT_FEAT
100
AcDbLine
 62
7
  6
CONTINUOUS
 10
5.2678969506
 20
12.6130477814
 11
5.2678969506
 21
12.8930477814
  0
LINE
  5
237
100
AcDbEntity
  8
LAYER_CUT_FEAT
100
AcDbLine
 62
7
  6
CONTINUOUS
 10
5.2954710932
 20
12.6130477814
 11
5.2954710932
 21
12.8930477814
  0
LINE
  5
238
100
AcDbEntity
  8
LAYER_CUT_FEAT
100
AcDbLine
 62
7
  6
CONTINUOUS
 10
5.3054931713
 20
12.6130477814
 11
5.3054931713
 21
12.8930477814
  0
LINE
  5
239
100
AcDbEntity
  8
LAYER_CUT_FEAT
100
AcDbLine
 62
7
  6
CONTINUOUS
 10
5.3446098177
 20
12.6130477814
 11
5.3446098177
 21
12.8930477814
  0
LINE
  5
23A
100
AcDbEntity
  8
LAYER_CUT_FEAT
100
AcDbLine
 62
7
  6
CONTINUOUS
 10
5.3579866219
 20
12.6130477814
 11
5.3579866219
 21
12.8930477814
  0
LINE
  5
23B
100
AcDbEntity
  8
LAYER_CUT_FEAT
100
AcDbLine
 62
7
  6
CONTINUOUS
 10
5.4078844112
 20
12.6130477814
 11
5.4078844112
 21
12.8930477814
  0
LINE
  5
23C
100
AcDbEntity
  8
02___PRT_ALL_AXES
100
AcDbLine
 62
7
  6
CONTINUOUS
 10
5.4208720839
 20
12.2435477814
 11
5.4208720839
 21
12.5495477814
  0
LINE
  5
23D
100
AcDbEntity
  8
LAYER_CUT_FEAT
100
AcDbLine
 62
7
  6
CONTINUOUS
 10
5.4243555771
 20
12.6130477814
 11
5.4243555771
 21
12.8930477814
  0
LINE
  5
23E
100
AcDbEntity
  8
LAYER_CUT_FEAT
100
AcDbLine
 62
7
  6
CONTINUOUS
 10
5.4839099775
 20
12.8930477814
 11
5.4839099775
 21
12.6130477814
  0
LINE
  5
23F
100
AcDbEntity
  8
LAYER_CUT_FEAT
100
AcDbLine
 62
7
  6
CONTINUOUS
 10
5.4840633055
 20
12.6130477814
 11
5.4840633055
 21
12.8930477814
  0
LINE
  5
240
100
AcDbEntity
  8
LAYER_CUT_FEAT
100
AcDbLine
 62
7
  6
CONTINUOUS
 10
5.5033082407
 20
12.6130477814
 11
5.5033082407
 21
12.8930477814
  0
LINE
  5
241
100
AcDbEntity
  8
LAYER_CUT_FEAT
100
AcDbLine
 62
7
  6
CONTINUOUS
 10
5.5711332125
 20
12.8930477814
 11
5.5711332125
 21
12.6130477814
  0
LINE
  5
242
100
AcDbEntity
  8
LAYER_CUT_FEAT
100
AcDbLine
 62
7
  6
CONTINUOUS
 10
5.5716637652
 20
12.6130477814
 11
5.5716637652
 21
12.8930477814
  0
LINE
  5
243
100
AcDbEntity
  8
LAYER_CUT_FEAT
100
AcDbLine
 62
7
  6
CONTINUOUS
 10
5.5933078889
 20
12.6130477814
 11
5.5933078889
 21
12.8930477814
  0
LINE
  5
244
100
AcDbEntity
  8
LAYER_CUT_FEAT
100
AcDbLine
 62
7
  6
CONTINUOUS
 10
5.6678536227
 20
12.8930477814
 11
5.6678536227
 21
12.6130477814
  0
LINE
  5
245
100
AcDbEntity
  8
LAYER_CUT_FEAT
100
AcDbLine
 62
7
  6
CONTINUOUS
 10
5.668980747
 20
12.6130477814
 11
5.668980747
 21
12.8930477814
  0
LINE
  5
246
100
AcDbEntity
  8
LAYER_CUT_FEAT
100
AcDbLine
 62
7
  6
CONTINUOUS
 10
5.692602781
 20
12.6130477814
 11
5.692602781
 21
12.8930477814
  0
LINE
  5
247
100
AcDbEntity
  8
02___PRT_ALL_AXES
100
AcDbLine
 62
7
  6
CONTINUOUS
 10
5.4208720923
 20
12.2435477814
 11
6.7208720754
 21
12.2435477814
  0
LINE
  5
248
100
AcDbEntity
  8
LAYER_CUT_FEAT
100
AcDbLine
 62
7
  6
CONTINUOUS
 10
5.7721886551
 20
12.8930477814
 11
5.7721886551
 21
12.6130477814
  0
LINE
  5
249
100
AcDbEntity
  8
LAYER_CUT_FEAT
100
AcDbLine
 62
7
  6
CONTINUOUS
 10
5.7741200865
 20
12.6130477814
 11
5.7741200865
 21
12.8930477814
  0
LINE
  5
24A
100
AcDbEntity
  8
LAYER_CUT_FEAT
100
AcDbLine
 62
7
  6
CONTINUOUS
 10
5.7992602548
 20
12.6130477814
 11
5.7992602548
 21
12.8930477814
  0
LINE
  5
24B
100
AcDbEntity
  8
LAYER_FEATURE
100
AcDbLine
 62
7
  6
CONTINUOUS
 10
5.1828720839
 20
12.5895477814
 11
5.2458720839
 21
12.6130477814
  0
LINE
  5
24C
100
AcDbEntity
  8
LAYER_CUT_FEAT
100
AcDbLine
 62
7
  6
CONTINUOUS
 10
5.8820992077
 20
12.8930477814
 11
5.8820992077
 21
12.6130477814
  0
LINE
  5
24D
100
AcDbEntity
  8
LAYER_CUT_FEAT
100
AcDbLine
 62
7
  6
CONTINUOUS
 10
5.8850353662
 20
12.6130477814
 11
5.8850353662
 21
12.8930477814
  0
LINE
  5
24E
100
AcDbEntity
  8
LAYER_CUT_FEAT
100
AcDbLine
 62
7
  6
CONTINUOUS
 10
6.0472007228
 20
12.3555477814
 11
6.0945434449
 21
12.3555477814
  0
LINE
  5
24F
100
AcDbEntity
  8
LAYER_CUT_FEAT
100
AcDbLine
 62
7
  6
CONTINUOUS
 10
5.9112043439
 20
12.6130477814
 11
5.9112043439
 21
12.8930477814
  0
LINE
  5
250
100
AcDbEntity
  8
LAYER_CUT_FEAT
100
AcDbLine
 62
7
  6
CONTINUOUS
 10
6.0945434449
 20
12.4375477814
 11
6.0472007228
 21
12.4375477814
  0
LINE
  5
251
100
AcDbEntity
  8
LAYER_CUT_FEAT
100
AcDbLine
 62
7
  6
CONTINUOUS
 10
6.0235293618
 20
12.3965477814
 11
6.0472007228
 21
12.3555477814
  0
LINE
  5
252
100
AcDbEntity
  8
LAYER_CUT_FEAT
100
AcDbLine
 62
7
  6
CONTINUOUS
 10
5.9995677461
 20
12.6130477814
 11
5.9995677461
 21
12.8930477814
  0
LINE
  5
253
100
AcDbEntity
  8
LAYER_CUT_FEAT
100
AcDbLine
 62
7
  6
CONTINUOUS
 10
6.1182148059
 20
12.3965477814
 11
6.0945434449
 21
12.4375477814
  0
LINE
  5
254
100
AcDbEntity
  8
LAYER_CUT_FEAT
100
AcDbLine
 62
7
  6
CONTINUOUS
 10
6.0262561839
 20
12.6130477814
 11
6.0262561839
 21
12.8930477814
  0
LINE
  5
255
100
AcDbEntity
  8
LAYER_FEATURE
100
AcDbLine
 62
7
  6
CONTINUOUS
 10
5.1828720839
 20
12.5495477814
 11
6.9588720839
 21
12.5495477814
  0
LINE
  5
256
100
AcDbEntity
  8
LAYER_FEATURE
100
AcDbLine
 62
7
  6
CONTINUOUS
 10
5.1828720839
 20
12.5895477814
 11
6.9588720839
 21
12.5895477814
  0
LINE
  5
257
100
AcDbEntity
  8
LAYER_FEATURE
100
AcDbLine
 62
7
  6
CONTINUOUS
 10
5.2458720839
 20
12.8930477814
 11
5.1828720839
 21
12.9165477814
  0
LINE
  5
258
100
AcDbEntity
  8
LAYER_CUT_FEAT
100
AcDbLine
 62
7
  6
CONTINUOUS
 10
6.1154879838
 20
12.6130477814
 11
6.1154879838
 21
12.8930477814
  0
LINE
  5
259
100
AcDbEntity
  8
LAYER_CUT_FEAT
100
AcDbLine
 62
7
  6
CONTINUOUS
 10
6.1421764216
 20
12.6130477814
 11
6.1421764216
 21
12.8930477814
  0
LINE
  5
25A
100
AcDbEntity
  8
LAYER_CUT_FEAT
100
AcDbLine
 62
7
  6
CONTINUOUS
 10
6.0472007228
 20
12.4375477814
 11
6.0235293618
 21
12.3965477814
  0
LINE
  5
25B
100
AcDbEntity
  8
LAYER_FEATURE
100
AcDbLine
 62
7
  6
CONTINUOUS
 10
6.8958720839
 20
12.8930477814
 11
6.9588720839
 21
12.9165477814
  0
LINE
  5
25C
100
AcDbEntity
  8
LAYER_FEATURE
100
AcDbLine
 62
7
  6
CONTINUOUS
 10
6.9017250987
 20
12.6130477814
 11
6.8986109538
 21
12.6130477814
  0
LINE
  5
25D
100
AcDbEntity
  8
LAYER_FEATURE
100
AcDbLine
 62
7
  6
CONTINUOUS
 10
5.9995677461
 20
12.6130477814
 11
5.9112043439
 21
12.6130477814
  0
LINE
  5
25E
100
AcDbEntity
  8
LAYER_FEATURE
100
AcDbLine
 62
7
  6
CONTINUOUS
 10
5.8850353662
 20
12.6130477814
 11
5.7992602548
 21
12.6130477814
  0
LINE
  5
25F
100
AcDbEntity
  8
LAYER_FEATURE
100
AcDbLine
 62
7
  6
CONTINUOUS
 10
5.7741200865
 20
12.6130477814
 11
5.692602781
 21
12.6130477814
  0
LINE
  5
260
100
AcDbEntity
  8
LAYER_FEATURE
100
AcDbLine
 62
7
  6
CONTINUOUS
 10
5.668980747
 20
12.6130477814
 11
5.5933078889
 21
12.6130477814
  0
LINE
  5
261
100
AcDbEntity
  8
LAYER_FEATURE
100
AcDbLine
 62
7
  6
CONTINUOUS
 10
5.5716637652
 20
12.6130477814
 11
5.5033082407
 21
12.6130477814
  0
LINE
  5
262
100
AcDbEntity
  8
LAYER_FEATURE
100
AcDbLine
 62
7
  6
CONTINUOUS
 10
5.4840633055
 20
12.6130477814
 11
5.4243555771
 21
12.6130477814
  0
LINE
  5
263
100
AcDbEntity
  8
LAYER_FEATURE
100
AcDbLine
 62
7
  6
CONTINUOUS
 10
5.4078816187
 20
12.6130477814
 11
5.3579866219
 21
12.6130477814
  0
LINE
  5
264
100
AcDbEntity
  8
LAYER_FEATURE
100
AcDbLine
 62
7
  6
CONTINUOUS
 10
5.3446098177
 20
12.6130477814
 11
5.3054931713
 21
12.6130477814
  0
LINE
  5
265
100
AcDbEntity
  8
LAYER_FEATURE
100
AcDbLine
 62
7
  6
CONTINUOUS
 10
5.2954710932
 20
12.6130477814
 11
5.2678969506
 21
12.6130477814
  0
LINE
  5
266
100
AcDbEntity
  8
LAYER_FEATURE
100
AcDbLine
 62
7
  6
CONTINUOUS
 10
5.261424667
 20
12.6130477814
 11
5.2459297275
 21
12.6130477814
  0
LINE
  5
267
100
AcDbEntity
  8
LAYER_FEATURE
100
AcDbLine
 62
7
  6
CONTINUOUS
 10
5.243133214
 20
12.6130477814
 11
5.2400190691
 21
12.6130477814
  0
LINE
  5
268
100
AcDbEntity
  8
LAYER_CUT_FEAT
100
AcDbLine
 62
7
  6
CONTINUOUS
 10
5.243133214
 20
12.6130477814
 11
5.2459297275
 21
12.6130477814
  0
LINE
  5
269
100
AcDbEntity
  8
LAYER_CUT_FEAT
100
AcDbLine
 62
7
  6
CONTINUOUS
 10
5.261424667
 20
12.6130477814
 11
5.2678969506
 21
12.6130477814
  0
LINE
  5
26A
100
AcDbEntity
  8
LAYER_CUT_FEAT
100
AcDbLine
 62
7
  6
CONTINUOUS
 10
5.2954710932
 20
12.6130477814
 11
5.3054931713
 21
12.6130477814
  0
LINE
  5
26B
100
AcDbEntity
  8
LAYER_CUT_FEAT
100
AcDbLine
 62
7
  6
CONTINUOUS
 10
5.3446098177
 20
12.6130477814
 11
5.3579866219
 21
12.6130477814
  0
LINE
  5
26C
100
AcDbEntity
  8
LAYER_CUT_FEAT
100
AcDbLine
 62
7
  6
CONTINUOUS
 10
5.4078844112
 20
12.6130477814
 11
5.4243555771
 21
12.6130477814
  0
LINE
  5
26D
100
AcDbEntity
  8
LAYER_CUT_FEAT
100
AcDbLine
 62
7
  6
CONTINUOUS
 10
5.4840633055
 20
12.6130477814
 11
5.5033082407
 21
12.6130477814
  0
LINE
  5
26E
100
AcDbEntity
  8
LAYER_CUT_FEAT
100
AcDbLine
 62
7
  6
CONTINUOUS
 10
5.5716637652
 20
12.6130477814
 11
5.5933078889
 21
12.6130477814
  0
LINE
  5
26F
100
AcDbEntity
  8
LAYER_CUT_FEAT
100
AcDbLine
 62
7
  6
CONTINUOUS
 10
5.668980747
 20
12.6130477814
 11
5.692602781
 21
12.6130477814
  0
LINE
  5
270
100
AcDbEntity
  8
LAYER_CUT_FEAT
100
AcDbLine
 62
7
  6
CONTINUOUS
 10
5.7741200865
 20
12.6130477814
 11
5.7992602548
 21
12.6130477814
  0
LINE
  5
271
100
AcDbEntity
  8
LAYER_CUT_FEAT
100
AcDbLine
 62
7
  6
CONTINUOUS
 10
5.8850353662
 20
12.6130477814
 11
5.9112043439
 21
12.6130477814
  0
LINE
  5
272
100
AcDbEntity
  8
LAYER_CUT_FEAT
100
AcDbLine
 62
7
  6
CONTINUOUS
 10
5.9995677461
 20
12.6130477814
 11
6.0262561839
 21
12.6130477814
  0
LINE
  5
273
100
AcDbEntity
  8
LAYER_FEATURE
100
AcDbLine
 62
7
  6
CONTINUOUS
 10
6.0262561839
 20
12.6130477814
 11
6.1154879838
 21
12.6130477814
  0
LINE
  5
274
100
AcDbEntity
  8
LAYER_CUT_FEAT
100
AcDbLine
 62
7
  6
CONTINUOUS
 10
6.1154879838
 20
12.6130477814
 11
6.1421764216
 21
12.6130477814
  0
LINE
  5
275
100
AcDbEntity
  8
LAYER_FEATURE
100
AcDbLine
 62
7
  6
CONTINUOUS
 10
6.1421764216
 20
12.6130477814
 11
6.2305398239
 21
12.6130477814
  0
LINE
  5
276
100
AcDbEntity
  8
LAYER_CUT_FEAT
100
AcDbLine
 62
7
  6
CONTINUOUS
 10
6.2305398239
 20
12.6130477814
 11
6.2567088016
 21
12.6130477814
  0
LINE
  5
277
100
AcDbEntity
  8
LAYER_FEATURE
100
AcDbLine
 62
7
  6
CONTINUOUS
 10
6.2567088016
 20
12.6130477814
 11
6.3424839129
 21
12.6130477814
  0
LINE
  5
278
100
AcDbEntity
  8
LAYER_CUT_FEAT
100
AcDbLine
 62
7
  6
CONTINUOUS
 10
6.3424839129
 20
12.6130477814
 11
6.3676240812
 21
12.6130477814
  0
LINE
  5
279
100
AcDbEntity
  8
LAYER_FEATURE
100
AcDbLine
 62
7
  6
CONTINUOUS
 10
6.3676240812
 20
12.6130477814
 11
6.4491413867
 21
12.6130477814
  0
LINE
  5
27A
100
AcDbEntity
  8
LAYER_CUT_FEAT
100
AcDbLine
 62
7
  6
CONTINUOUS
 10
6.4491413867
 20
12.6130477814
 11
6.4727634207
 21
12.6130477814
  0
LINE
  5
27B
100
AcDbEntity
  8
LAYER_FEATURE
100
AcDbLine
 62
7
  6
CONTINUOUS
 10
6.4727634207
 20
12.6130477814
 11
6.5484362788
 21
12.6130477814
  0
LINE
  5
27C
100
AcDbEntity
  8
LAYER_CUT_FEAT
100
AcDbLine
 62
7
  6
CONTINUOUS
 10
6.5484362788
 20
12.6130477814
 11
6.5700804025
 21
12.6130477814
  0
LINE
  5
27D
100
AcDbEntity
  8
LAYER_FEATURE
100
AcDbLine
 62
7
  6
CONTINUOUS
 10
6.5700804025
 20
12.6130477814
 11
6.638435927
 21
12.6130477814
  0
LINE
  5
27E
100
AcDbEntity
  8
LAYER_CUT_FEAT
100
AcDbLine
 62
7
  6
CONTINUOUS
 10
6.638435927
 20
12.6130477814
 11
6.6576808622
 21
12.6130477814
  0
LINE
  5
27F
100
AcDbEntity
  8
LAYER_FEATURE
100
AcDbLine
 62
7
  6
CONTINUOUS
 10
6.6576808622
 20
12.6130477814
 11
6.7173885906
 21
12.6130477814
  0
LINE
  5
280
100
AcDbEntity
  8
LAYER_CUT_FEAT
100
AcDbLine
 62
7
  6
CONTINUOUS
 10
6.7173885906
 20
12.6130477814
 11
6.7338597566
 21
12.6130477814
  0
LINE
  5
281
100
AcDbEntity
  8
LAYER_FEATURE
100
AcDbLine
 62
7
  6
CONTINUOUS
 10
6.7338625208
 20
12.6130477814
 11
6.7837575459
 21
12.6130477814
  0
LINE
  5
282
100
AcDbEntity
  8
LAYER_CUT_FEAT
100
AcDbLine
 62
7
  6
CONTINUOUS
 10
6.7837575459
 20
12.6130477814
 11
6.79713435
 21
12.6130477814
  0
LINE
  5
283
100
AcDbEntity
  8
LAYER_FEATURE
100
AcDbLine
 62
7
  6
CONTINUOUS
 10
6.79713435
 20
12.6130477814
 11
6.8362509965
 21
12.6130477814
  0
LINE
  5
284
100
AcDbEntity
  8
LAYER_CUT_FEAT
100
AcDbLine
 62
7
  6
CONTINUOUS
 10
6.8362509965
 20
12.6130477814
 11
6.8462730745
 21
12.6130477814
  0
LINE
  5
285
100
AcDbEntity
  8
LAYER_FEATURE
100
AcDbLine
 62
7
  6
CONTINUOUS
 10
6.8462730745
 20
12.6130477814
 11
6.8738472171
 21
12.6130477814
  0
LINE
  5
286
100
AcDbEntity
  8
LAYER_CUT_FEAT
100
AcDbLine
 62
7
  6
CONTINUOUS
 10
6.8738472171
 20
12.6130477814
 11
6.8803195007
 21
12.6130477814
  0
LINE
  5
287
100
AcDbEntity
  8
LAYER_FEATURE
100
AcDbLine
 62
7
  6
CONTINUOUS
 10
6.8803195007
 20
12.6130477814
 11
6.8958144402
 21
12.6130477814
  0
LINE
  5
288
100
AcDbEntity
  8
LAYER_CUT_FEAT
100
AcDbLine
 62
7
  6
CONTINUOUS
 10
6.8958144402
 20
12.6130477814
 11
6.8986109538
 21
12.6130477814
  0
LINE
  5
289
100
AcDbEntity
  8
LAYER_CUT_FEAT
100
AcDbLine
 62
7
  6
CONTINUOUS
 10
6.2305398239
 20
12.6130477814
 11
6.2305398239
 21
12.8930477814
  0
LINE
  5
28A
100
AcDbEntity
  8
LAYER_CUT_FEAT
100
AcDbLine
 62
7
  6
CONTINUOUS
 10
6.2567088016
 20
12.6130477814
 11
6.2567088016
 21
12.8930477814
  0
LINE
  5
28B
100
AcDbEntity
  8
LAYER_CUT_FEAT
100
AcDbLine
 62
7
  6
CONTINUOUS
 10
6.25964496
 20
12.8930477814
 11
6.25964496
 21
12.6130477814
  0
LINE
  5
28C
100
AcDbEntity
  8
LAYER_CUT_FEAT
100
AcDbLine
 62
7
  6
CONTINUOUS
 10
6.0945434449
 20
12.3555477814
 11
6.1182148059
 21
12.3965477814
  0
LINE
  5
28D
100
AcDbEntity
  8
LAYER_CUT_FEAT
100
AcDbLine
 62
7
  6
CONTINUOUS
 10
6.3424839129
 20
12.6130477814
 11
6.3424839129
 21
12.8930477814
  0
LINE
  5
28E
100
AcDbEntity
  8
LAYER_CUT_FEAT
100
AcDbLine
 62
7
  6
CONTINUOUS
 10
6.3676240812
 20
12.6130477814
 11
6.3676240812
 21
12.8930477814
  0
LINE
  5
28F
100
AcDbEntity
  8
LAYER_CUT_FEAT
100
AcDbLine
 62
7
  6
CONTINUOUS
 10
6.3695555126
 20
12.8930477814
 11
6.3695555126
 21
12.6130477814
  0
LINE
  5
290
100
AcDbEntity
  8
LAYER_FEATURE
100
AcDbLine
 62
7
  6
CONTINUOUS
 10
6.9017250987
 20
12.8930477814
 11
6.8986109538
 21
12.8930477814
  0
LINE
  5
291
100
AcDbEntity
  8
LAYER_FEATURE
100
AcDbLine
 62
7
  6
CONTINUOUS
 10
5.9995677461
 20
12.8930477814
 11
5.9112043439
 21
12.8930477814
  0
LINE
  5
292
100
AcDbEntity
  8
LAYER_FEATURE
100
AcDbLine
 62
7
  6
CONTINUOUS
 10
5.8850353662
 20
12.8930477814
 11
5.7992602548
 21
12.8930477814
  0
LINE
  5
293
100
AcDbEntity
  8
LAYER_FEATURE
100
AcDbLine
 62
7
  6
CONTINUOUS
 10
5.7741200865
 20
12.8930477814
 11
5.692602781
 21
12.8930477814
  0
LINE
  5
294
100
AcDbEntity
  8
LAYER_FEATURE
100
AcDbLine
 62
7
  6
CONTINUOUS
 10
5.668980747
 20
12.8930477814
 11
5.5933078889
 21
12.8930477814
  0
LINE
  5
295
100
AcDbEntity
  8
LAYER_FEATURE
100
AcDbLine
 62
7
  6
CONTINUOUS
 10
5.5716637652
 20
12.8930477814
 11
5.5033082407
 21
12.8930477814
  0
LINE
  5
296
100
AcDbEntity
  8
LAYER_FEATURE
100
AcDbLine
 62
7
  6
CONTINUOUS
 10
5.4840633055
 20
12.8930477814
 11
5.4243555771
 21
12.8930477814
  0
LINE
  5
297
100
AcDbEntity
  8
LAYER_FEATURE
100
AcDbLine
 62
7
  6
CONTINUOUS
 10
5.4078816187
 20
12.8930477814
 11
5.3579866219
 21
12.8930477814
  0
LINE
  5
298
100
AcDbEntity
  8
LAYER_FEATURE
100
AcDbLine
 62
7
  6
CONTINUOUS
 10
5.3446098177
 20
12.8930477814
 11
5.3054931713
 21
12.8930477814
  0
LINE
  5
299
100
AcDbEntity
  8
LAYER_FEATURE
100
AcDbLine
 62
7
  6
CONTINUOUS
 10
5.2954710932
 20
12.8930477814
 11
5.2678969506
 21
12.8930477814
  0
LINE
  5
29A
100
AcDbEntity
  8
LAYER_FEATURE
100
AcDbLine
 62
7
  6
CONTINUOUS
 10
5.261424667
 20
12.8930477814
 11
5.2459297275
 21
12.8930477814
  0
LINE
  5
29B
100
AcDbEntity
  8
LAYER_FEATURE
100
AcDbLine
 62
7
  6
CONTINUOUS
 10
5.243133214
 20
12.8930477814
 11
5.2400190691
 21
12.8930477814
  0
LINE
  5
29C
100
AcDbEntity
  8
LAYER_CUT_FEAT
100
AcDbLine
 62
7
  6
CONTINUOUS
 10
5.243133214
 20
12.8930477814
 11
5.2459297275
 21
12.8930477814
  0
LINE
  5
29D
100
AcDbEntity
  8
LAYER_CUT_FEAT
100
AcDbLine
 62
7
  6
CONTINUOUS
 10
5.261424667
 20
12.8930477814
 11
5.2678969506
 21
12.8930477814
  0
LINE
  5
29E
100
AcDbEntity
  8
LAYER_CUT_FEAT
100
AcDbLine
 62
7
  6
CONTINUOUS
 10
5.2954710932
 20
12.8930477814
 11
5.3054931713
 21
12.8930477814
  0
LINE
  5
29F
100
AcDbEntity
  8
LAYER_CUT_FEAT
100
AcDbLine
 62
7
  6
CONTINUOUS
 10
5.3446098177
 20
12.8930477814
 11
5.3579866219
 21
12.8930477814
  0
LINE
  5
2A0
100
AcDbEntity
  8
LAYER_CUT_FEAT
100
AcDbLine
 62
7
  6
CONTINUOUS
 10
5.4078844112
 20
12.8930477814
 11
5.4243555771
 21
12.8930477814
  0
LINE
  5
2A1
100
AcDbEntity
  8
LAYER_CUT_FEAT
100
AcDbLine
 62
7
  6
CONTINUOUS
 10
5.4840633055
 20
12.8930477814
 11
5.5033082407
 21
12.8930477814
  0
LINE
  5
2A2
100
AcDbEntity
  8
LAYER_CUT_FEAT
100
AcDbLine
 62
7
  6
CONTINUOUS
 10
5.5716637652
 20
12.8930477814
 11
5.5933078889
 21
12.8930477814
  0
LINE
  5
2A3
100
AcDbEntity
  8
LAYER_CUT_FEAT
100
AcDbLine
 62
7
  6
CONTINUOUS
 10
5.668980747
 20
12.8930477814
 11
5.692602781
 21
12.8930477814
  0
LINE
  5
2A4
100
AcDbEntity
  8
LAYER_CUT_FEAT
100
AcDbLine
 62
7
  6
CONTINUOUS
 10
5.7741200865
 20
12.8930477814
 11
5.7992602548
 21
12.8930477814
  0
LINE
  5
2A5
100
AcDbEntity
  8
LAYER_CUT_FEAT
100
AcDbLine
 62
7
  6
CONTINUOUS
 10
5.8850353662
 20
12.8930477814
 11
5.9112043439
 21
12.8930477814
  0
LINE
  5
2A6
100
AcDbEntity
  8
LAYER_CUT_FEAT
100
AcDbLine
 62
7
  6
CONTINUOUS
 10
5.9995677461
 20
12.8930477814
 11
6.0262561839
 21
12.8930477814
  0
LINE
  5
2A7
100
AcDbEntity
  8
LAYER_FEATURE
100
AcDbLine
 62
7
  6
CONTINUOUS
 10
6.0262561839
 20
12.8930477814
 11
6.1154879838
 21
12.8930477814
  0
LINE
  5
2A8
100
AcDbEntity
  8
LAYER_CUT_FEAT
100
AcDbLine
 62
7
  6
CONTINUOUS
 10
6.1154879838
 20
12.8930477814
 11
6.1421764216
 21
12.8930477814
  0
LINE
  5
2A9
100
AcDbEntity
  8
LAYER_FEATURE
100
AcDbLine
 62
7
  6
CONTINUOUS
 10
6.1421764216
 20
12.8930477814
 11
6.2305398239
 21
12.8930477814
  0
LINE
  5
2AA
100
AcDbEntity
  8
LAYER_CUT_FEAT
100
AcDbLine
 62
7
  6
CONTINUOUS
 10
6.2305398239
 20
12.8930477814
 11
6.2567088016
 21
12.8930477814
  0
LINE
  5
2AB
100
AcDbEntity
  8
LAYER_FEATURE
100
AcDbLine
 62
7
  6
CONTINUOUS
 10
6.2567088016
 20
12.8930477814
 11
6.3424839129
 21
12.8930477814
  0
LINE
  5
2AC
100
AcDbEntity
  8
LAYER_CUT_FEAT
100
AcDbLine
 62
7
  6
CONTINUOUS
 10
6.3424839129
 20
12.8930477814
 11
6.3676240812
 21
12.8930477814
  0
LINE
  5
2AD
100
AcDbEntity
  8
LAYER_FEATURE
100
AcDbLine
 62
7
  6
CONTINUOUS
 10
6.3676240812
 20
12.8930477814
 11
6.4491413867
 21
12.8930477814
  0
LINE
  5
2AE
100
AcDbEntity
  8
LAYER_CUT_FEAT
100
AcDbLine
 62
7
  6
CONTINUOUS
 10
6.4491413867
 20
12.8930477814
 11
6.4727634207
 21
12.8930477814
  0
LINE
  5
2AF
100
AcDbEntity
  8
LAYER_FEATURE
100
AcDbLine
 62
7
  6
CONTINUOUS
 10
6.4727634207
 20
12.8930477814
 11
6.5484362788
 21
12.8930477814
  0
LINE
  5
2B0
100
AcDbEntity
  8
LAYER_CUT_FEAT
100
AcDbLine
 62
7
  6
CONTINUOUS
 10
6.5484362788
 20
12.8930477814
 11
6.5700804025
 21
12.8930477814
  0
LINE
  5
2B1
100
AcDbEntity
  8
LAYER_FEATURE
100
AcDbLine
 62
7
  6
CONTINUOUS
 10
6.5700804025
 20
12.8930477814
 11
6.638435927
 21
12.8930477814
  0
LINE
  5
2B2
100
AcDbEntity
  8
LAYER_CUT_FEAT
100
AcDbLine
 62
7
  6
CONTINUOUS
 10
6.638435927
 20
12.8930477814
 11
6.6576808622
 21
12.8930477814
  0
LINE
  5
2B3
100
AcDbEntity
  8
LAYER_FEATURE
100
AcDbLine
 62
7
  6
CONTINUOUS
 10
6.6576808622
 20
12.8930477814
 11
6.7173885906
 21
12.8930477814
  0
LINE
  5
2B4
100
AcDbEntity
  8
LAYER_CUT_FEAT
100
AcDbLine
 62
7
  6
CONTINUOUS
 10
6.7173885906
 20
12.8930477814
 11
6.7338597566
 21
12.8930477814
  0
LINE
  5
2B5
100
AcDbEntity
  8
LAYER_FEATURE
100
AcDbLine
 62
7
  6
CONTINUOUS
 10
6.7338625208
 20
12.8930477814
 11
6.7837575459
 21
12.8930477814
  0
LINE
  5
2B6
100
AcDbEntity
  8
LAYER_CUT_FEAT
100
AcDbLine
 62
7
  6
CONTINUOUS
 10
6.7837575459
 20
12.8930477814
 11
6.79713435
 21
12.8930477814
  0
LINE
  5
2B7
100
AcDbEntity
  8
LAYER_FEATURE
100
AcDbLine
 62
7
  6
CONTINUOUS
 10
6.79713435
 20
12.8930477814
 11
6.8362509965
 21
12.8930477814
  0
LINE
  5
2B8
100
AcDbEntity
  8
LAYER_CUT_FEAT
100
AcDbLine
 62
7
  6
CONTINUOUS
 10
6.8362509965
 20
12.8930477814
 11
6.8462730745
 21
12.8930477814
  0
LINE
  5
2B9
100
AcDbEntity
  8
LAYER_FEATURE
100
AcDbLine
 62
7
  6
CONTINUOUS
 10
6.8462730745
 20
12.8930477814
 11
6.8738472171
 21
12.8930477814
  0
LINE
  5
2BA
100
AcDbEntity
  8
LAYER_CUT_FEAT
100
AcDbLine
 62
7
  6
CONTINUOUS
 10
6.8738472171
 20
12.8930477814
 11
6.8803195007
 21
12.8930477814
  0
LINE
  5
2BB
100
AcDbEntity
  8
LAYER_FEATURE
100
AcDbLine
 62
7
  6
CONTINUOUS
 10
6.8803195007
 20
12.8930477814
 11
6.8958144402
 21
12.8930477814
  0
LINE
  5
2BC
100
AcDbEntity
  8
LAYER_CUT_FEAT
100
AcDbLine
 62
7
  6
CONTINUOUS
 10
6.8958144402
 20
12.8930477814
 11
6.8986109538
 21
12.8930477814
  0
LINE
  5
2BD
100
AcDbEntity
  8
LAYER_FEATURE
100
AcDbLine
 62
7
  6
CONTINUOUS
 10
5.1828720839
 20
12.9165477814
 11
6.9588720839
 21
12.9165477814
  0
LINE
  5
2BE
100
AcDbEntity
  8
LAYER_FEATURE
100
AcDbLine
 62
7
  6
CONTINUOUS
 10
6.9588720839
 20
12.5895477814
 11
6.8958720839
 21
12.6130477814
  0
LINE
  5
2BF
100
AcDbEntity
  8
LAYER_CUT_FEAT
100
AcDbLine
 62
7
  6
CONTINUOUS
 10
6.4491413867
 20
12.6130477814
 11
6.4491413867
 21
12.8930477814
  0
LINE
  5
2C0
100
AcDbEntity
  8
LAYER_FEATURE
100
AcDbLine
 62
7
  6
CONTINUOUS
 10
5.1828720839
 20
12.9565477814
 11
6.9588720839
 21
12.9565477814
  0
LINE
  5
2C1
100
AcDbEntity
  8
LAYER_FEATURE
100
AcDbLine
 62
7
  6
CONTINUOUS
 10
6.7191826774
 20
12.4638371878
 11
6.7208720839
 21
12.4621477814
  0
LINE
  5
2C2
100
AcDbEntity
  8
LAYER_CUT_FEAT
100
AcDbLine
 62
7
  6
CONTINUOUS
 10
6.4727634207
 20
12.6130477814
 11
6.4727634207
 21
12.8930477814
  0
LINE
  5
2C3
100
AcDbEntity
  8
LAYER_CUT_FEAT
100
AcDbLine
 62
7
  6
CONTINUOUS
 10
6.473890545
 20
12.8930477814
 11
6.473890545
 21
12.6130477814
  0
LINE
  5
2C4
100
AcDbEntity
  8
LAYER_CUT_FEAT
100
AcDbLine
 62
7
  6
CONTINUOUS
 10
6.5484362788
 20
12.6130477814
 11
6.5484362788
 21
12.8930477814
  0
LINE
  5
2C5
100
AcDbEntity
  8
LAYER_CUT_FEAT
100
AcDbLine
 62
7
  6
CONTINUOUS
 10
6.5700804025
 20
12.6130477814
 11
6.5700804025
 21
12.8930477814
  0
LINE
  5
2C6
100
AcDbEntity
  8
LAYER_CUT_FEAT
100
AcDbLine
 62
7
  6
CONTINUOUS
 10
6.5706109552
 20
12.8930477814
 11
6.5706109552
 21
12.6130477814
  0
LINE
  5
2C7
100
AcDbEntity
  8
LAYER_CUT_FEAT
100
AcDbLine
 62
7
  6
CONTINUOUS
 10
6.638435927
 20
12.6130477814
 11
6.638435927
 21
12.8930477814
  0
LINE
  5
2C8
100
AcDbEntity
  8
LAYER_CUT_FEAT
100
AcDbLine
 62
7
  6
CONTINUOUS
 10
6.6576808622
 20
12.6130477814
 11
6.6576808622
 21
12.8930477814
  0
LINE
  5
2C9
100
AcDbEntity
  8
LAYER_CUT_FEAT
100
AcDbLine
 62
7
  6
CONTINUOUS
 10
6.6578341902
 20
12.8930477814
 11
6.6578341902
 21
12.6130477814
  0
LINE
  5
2CA
100
AcDbEntity
  8
LAYER_CUT_FEAT
100
AcDbLine
 62
7
  6
CONTINUOUS
 10
6.7173885906
 20
12.6130477814
 11
6.7173885906
 21
12.8930477814
  0
LINE
  5
2CB
100
AcDbEntity
  8
02___PRT_ALL_AXES
100
AcDbLine
 62
7
  6
CONTINUOUS
 10
6.7208720839
 20
12.2435477814
 11
6.7208720839
 21
12.3145477814
  0
LINE
  5
2CC
100
AcDbEntity
  8
LAYER_FEATURE
100
AcDbLine
 62
7
  6
CONTINUOUS
 10
6.7208720839
 20
12.3309477814
 11
6.7208720839
 21
12.4621477814
  0
LINE
  5
2CD
100
AcDbEntity
  8
02___PRT_ALL_AXES
100
AcDbLine
 62
7
  6
CONTINUOUS
 10
6.7208720839
 20
12.4785477814
 11
6.7208720839
 21
12.5495477814
  0
LINE
  5
2CE
100
AcDbEntity
  8
LAYER_CUT_FEAT
100
AcDbLine
 62
7
  6
CONTINUOUS
 10
6.7338597566
 20
12.6130477814
 11
6.7338597566
 21
12.8930477814
  0
LINE
  5
2CF
100
AcDbEntity
  8
LAYER_FEATURE
100
AcDbLine
 62
7
  6
CONTINUOUS
 10
6.7191826775
 20
12.329258375
 11
6.7208720839
 21
12.3309477814
  0
LINE
  5
2D0
100
AcDbEntity
  8
LAYER_CUT_FEAT
100
AcDbLine
 62
7
  6
CONTINUOUS
 10
6.7837575459
 20
12.6130477814
 11
6.7837575459
 21
12.8930477814
  0
LINE
  5
2D1
100
AcDbEntity
  8
LAYER_CUT_FEAT
100
AcDbLine
 62
7
  6
CONTINUOUS
 10
6.79713435
 20
12.6130477814
 11
6.79713435
 21
12.8930477814
  0
LINE
  5
2D2
100
AcDbEntity
  8
LAYER_CUT_FEAT
100
AcDbLine
 62
7
  6
CONTINUOUS
 10
6.8362509965
 20
12.6130477814
 11
6.8362509965
 21
12.8930477814
  0
LINE
  5
2D3
100
AcDbEntity
  8
LAYER_CUT_FEAT
100
AcDbLine
 62
7
  6
CONTINUOUS
 10
6.8462730745
 20
12.6130477814
 11
6.8462730745
 21
12.8930477814
  0
LINE
  5
2D4
100
AcDbEntity
  8
LAYER_CUT_FEAT
100
AcDbLine
 62
7
  6
CONTINUOUS
 10
6.8738472171
 20
12.6130477814
 11
6.8738472171
 21
12.8930477814
  0
LINE
  5
2D5
100
AcDbEntity
  8
LAYER_CUT_FEAT
100
AcDbLine
 62
7
  6
CONTINUOUS
 10
6.8803195007
 20
12.6130477814
 11
6.8803195007
 21
12.8930477814
  0
LINE
  5
2D6
100
AcDbEntity
  8
LAYER_CUT_FEAT
100
AcDbLine
 62
7
  6
CONTINUOUS
 10
6.8958144402
 20
12.6130477814
 11
6.8958144402
 21
12.8930477814
  0
LINE
  5
2D7
100
AcDbEntity
  8
LAYER_CUT_FEAT
100
AcDbLine
 62
7
  6
CONTINUOUS
 10
6.8986109538
 20
12.6130477814
 11
6.8986109538
 21
12.8930477814
  0
LINE
  5
2D8
100
AcDbEntity
  8
LAYER_CUT_FEAT
100
AcDbLine
 62
7
  6
CONTINUOUS
 10
6.9017250987
 20
12.6130477814
 11
6.9017250987
 21
12.8930477814
  0
LINE
  5
2D9
100
AcDbEntity
  8
LAYER_FEATURE
100
AcDbLine
 62
7
  6
CONTINUOUS
 10
6.9588720839
 20
12.5495477814
 11
6.9588720839
 21
12.5895477814
  0
LINE
  5
2DA
100
AcDbEntity
  8
LAYER_FEATURE
100
AcDbLine
 62
7
  6
CONTINUOUS
 10
6.9588720839
 20
12.9165477814
 11
6.9588720839
 21
12.9565477814
  0
LINE
  5
2DB
100
AcDbEntity
  8
LAYER_FEATURE
100
AcDbLine
 62
7
  6
CONTINUOUS
 10
15.9168552569
 20
4.5726247044
 11
15.8768552569
 21
4.5726247044
  0
LINE
  5
2DC
100
AcDbEntity
  8
LAYER_FEATURE
100
AcDbLine
 62
7
  6
CONTINUOUS
 10
15.5498552569
 20
4.5726247044
 11
15.5098552569
 21
4.5726247044
  0
LINE
  5
2DD
100
AcDbEntity
  8
02___PRT_ALL_AXES
100
AcDbLine
 62
7
  6
CONTINUOUS
 10
15.5733552569
 20
4.6296247044
 11
15.8533552569
 21
4.6296247044
  0
LINE
  5
2DE
100
AcDbEntity
  8
LAYER_CUT_FEAT
100
AcDbLine
 62
7
  6
CONTINUOUS
 10
15.5733552569
 20
4.6297323762
 11
15.8533552569
 21
4.6297323762
  0
LINE
  5
2DF
100
AcDbEntity
  8
LAYER_CUT_FEAT
100
AcDbLine
 62
7
  6
CONTINUOUS
 10
15.5733552569
 20
4.6359568719
 11
15.8533552569
 21
4.6359568719
  0
LINE
  5
2E0
100
AcDbEntity
  8
LAYER_CUT_FEAT
100
AcDbLine
 62
7
  6
CONTINUOUS
 10
15.5733552569
 20
4.6396802545
 11
15.8533552569
 21
4.6396802545
  0
LINE
  5
2E1
100
AcDbEntity
  8
LAYER_CUT_FEAT
100
AcDbLine
 62
7
  6
CONTINUOUS
 10
15.5733552569
 20
4.658232589
 11
15.8533552569
 21
4.658232589
  0
LINE
  5
2E2
100
AcDbEntity
  8
LAYER_CUT_FEAT
100
AcDbLine
 62
7
  6
CONTINUOUS
 10
15.5733552569
 20
4.6656068828
 11
15.8533552569
 21
4.6656068828
  0
LINE
  5
2E3
100
AcDbEntity
  8
LAYER_CUT_FEAT
100
AcDbLine
 62
7
  6
CONTINUOUS
 10
15.5733552569
 20
4.6961259558
 11
15.8533552569
 21
4.6961259558
  0
LINE
  5
2E4
100
AcDbEntity
  8
LAYER_CUT_FEAT
100
AcDbLine
 62
7
  6
CONTINUOUS
 10
15.5733552569
 20
4.7070076286
 11
15.8533552569
 21
4.7070076286
  0
LINE
  5
2E5
100
AcDbEntity
  8
LAYER_CUT_FEAT
100
AcDbLine
 62
7
  6
CONTINUOUS
 10
15.5733552569
 20
4.7488994212
 11
15.8533552569
 21
4.7488994212
  0
LINE
  5
2E6
100
AcDbEntity
  8
LAYER_CUT_FEAT
100
AcDbLine
 62
7
  6
CONTINUOUS
 10
15.5733552569
 20
4.7630766736
 11
15.8533552569
 21
4.7630766736
  0
LINE
  5
2E7
100
AcDbEntity
  8
LAYER_FEATURE
100
AcDbLine
 62
7
  6
CONTINUOUS
 10
15.2895658505
 20
6.108935298
 11
15.2912552569
 21
6.1106247044
  0
LINE
  5
2E8
100
AcDbEntity
  8
02___PRT_ALL_AXES
100
AcDbLine
 62
7
  6
CONTINUOUS
 10
15.5098552569
 20
4.8106247044
 11
15.2038552569
 21
4.8106247044
  0
LINE
  5
2E9
100
AcDbEntity
  8
LAYER_CUT_FEAT
100
AcDbLine
 62
7
  6
CONTINUOUS
 10
15.8533552569
 20
4.8155068718
 11
15.5733552569
 21
4.8155068718
  0
LINE
  5
2EA
100
AcDbEntity
  8
LAYER_CUT_FEAT
100
AcDbLine
 62
7
  6
CONTINUOUS
 10
15.5733552569
 20
4.8155258096
 11
15.8533552569
 21
4.8155258096
  0
LINE
  5
2EB
100
AcDbEntity
  8
LAYER_CUT_FEAT
100
AcDbLine
 62
7
  6
CONTINUOUS
 10
15.5733552569
 20
4.8327226975
 11
15.8533552569
 21
4.8327226975
  0
LINE
  5
2EC
100
AcDbEntity
  8
LAYER_CUT_FEAT
100
AcDbLine
 62
7
  6
CONTINUOUS
 10
15.8533552569
 20
4.89448172
 11
15.5733552569
 21
4.89448172
  0
LINE
  5
2ED
100
AcDbEntity
  8
LAYER_CUT_FEAT
100
AcDbLine
 62
7
  6
CONTINUOUS
 10
15.5733552569
 20
4.8947083143
 11
15.8533552569
 21
4.8947083143
  0
LINE
  5
2EE
100
AcDbEntity
  8
LAYER_CUT_FEAT
100
AcDbLine
 62
7
  6
CONTINUOUS
 10
15.5733552569
 20
4.9145901198
 11
15.8533552569
 21
4.9145901198
  0
LINE
  5
2EF
100
AcDbEntity
  8
LAYER_CUT_FEAT
100
AcDbLine
 62
7
  6
CONTINUOUS
 10
15.8533552569
 20
4.9842462239
 11
15.5733552569
 21
4.9842462239
  0
LINE
  5
2F0
100
AcDbEntity
  8
LAYER_CUT_FEAT
100
AcDbLine
 62
7
  6
CONTINUOUS
 10
15.5733552569
 20
4.9849057377
 11
15.8533552569
 21
4.9849057377
  0
LINE
  5
2F1
100
AcDbEntity
  8
LAYER_CUT_FEAT
100
AcDbLine
 62
7
  6
CONTINUOUS
 10
15.5733552569
 20
5.0070854842
 11
15.8533552569
 21
5.0070854842
  0
LINE
  5
2F2
100
AcDbEntity
  8
LAYER_CUT_FEAT
100
AcDbLine
 62
7
  6
CONTINUOUS
 10
15.8533552569
 20
5.0830532193
 11
15.5733552569
 21
5.0830532193
  0
LINE
  5
2F3
100
AcDbEntity
  8
LAYER_CUT_FEAT
100
AcDbLine
 62
7
  6
CONTINUOUS
 10
15.5733552569
 20
5.0843624898
 11
15.8533552569
 21
5.0843624898
  0
LINE
  5
2F4
100
AcDbEntity
  8
02___PRT_ALL_AXES
100
AcDbLine
 62
7
  6
CONTINUOUS
 10
15.2038552569
 20
6.1106247044
 11
15.2038552569
 21
4.8106247044
  0
LINE
  5
2F5
100
AcDbEntity
  8
LAYER_CUT_FEAT
100
AcDbLine
 62
7
  6
CONTINUOUS
 10
15.5733552569
 20
5.1084084736
 11
15.8533552569
 21
5.1084084736
  0
LINE
  5
2F6
100
AcDbEntity
  8
LAYER_CUT_FEAT
100
AcDbLine
 62
7
  6
CONTINUOUS
 10
15.8533552569
 20
5.1889795407
 11
15.5733552569
 21
5.1889795407
  0
LINE
  5
2F7
100
AcDbEntity
  8
LAYER_CUT_FEAT
100
AcDbLine
 62
7
  6
CONTINUOUS
 10
15.5733552569
 20
5.1911427578
 11
15.8533552569
 21
5.1911427578
  0
LINE
  5
2F8
100
AcDbEntity
  8
LAYER_CUT_FEAT
100
AcDbLine
 62
7
  6
CONTINUOUS
 10
15.3158552569
 20
5.4842960655
 11
15.3158552569
 21
5.4369533434
  0
LINE
  5
2F9
100
AcDbEntity
  8
LAYER_CUT_FEAT
100
AcDbLine
 62
7
  6
CONTINUOUS
 10
15.5733552569
 20
5.2165869513
 11
15.8533552569
 21
5.2165869513
  0
LINE
  5
2FA
100
AcDbEntity
  8
LAYER_CUT_FEAT
100
AcDbLine
 62
7
  6
CONTINUOUS
 10
15.3978552569
 20
5.4369533434
 11
15.3978552569
 21
5.4842960655
  0
LINE
  5
2FB
100
AcDbEntity
  8
LAYER_CUT_FEAT
100
AcDbLine
 62
7
  6
CONTINUOUS
 10
15.3568552569
 20
5.5079674265
 11
15.3158552569
 21
5.4842960655
  0
LINE
  5
2FC
100
AcDbEntity
  8
LAYER_CUT_FEAT
100
AcDbLine
 62
7
  6
CONTINUOUS
 10
15.5733552569
 20
5.3031681854
 11
15.8533552569
 21
5.3031681854
  0
LINE
  5
2FD
100
AcDbEntity
  8
LAYER_CUT_FEAT
100
AcDbLine
 62
7
  6
CONTINUOUS
 10
15.5733552569
 20
5.3295153462
 11
15.8533552569
 21
5.3295153462
  0
LINE
  5
2FE
100
AcDbEntity
  8
LAYER_CUT_FEAT
100
AcDbLine
 62
7
  6
CONTINUOUS
 10
15.3158552569
 20
5.4369533434
 11
15.3568552569
 21
5.4132819824
  0
LINE
  5
2FF
100
AcDbEntity
  8
LAYER_CUT_FEAT
100
AcDbLine
 62
7
  6
CONTINUOUS
 10
15.3568552569
 20
5.4132819824
 11
15.3978552569
 21
5.4369533434
  0
LINE
  5
300
100
AcDbEntity
  8
LAYER_CUT_FEAT
100
AcDbLine
 62
7
  6
CONTINUOUS
 10
15.3978552569
 20
5.4842960655
 11
15.3568552569
 21
5.5079674265
  0
LINE
  5
301
100
AcDbEntity
  8
LAYER_FEATURE
100
AcDbLine
 62
7
  6
CONTINUOUS
 10
15.5098552569
 20
6.3486247044
 11
15.5098552569
 21
4.5726247044
  0
LINE
  5
302
100
AcDbEntity
  8
LAYER_FEATURE
100
AcDbLine
 62
7
  6
CONTINUOUS
 10
15.5498552569
 20
6.3486247044
 11
15.5498552569
 21
4.5726247044
  0
LINE
  5
303
100
AcDbEntity
  8
LAYER_FEATURE
100
AcDbLine
 62
7
  6
CONTINUOUS
 10
15.8768552569
 20
6.3486247044
 11
15.8533552569
 21
6.2856247044
  0
LINE
  5
304
100
AcDbEntity
  8
LAYER_CUT_FEAT
100
AcDbLine
 62
7
  6
CONTINUOUS
 10
15.5733552569
 20
5.418258325
 11
15.8533552569
 21
5.418258325
  0
LINE
  5
305
100
AcDbEntity
  8
LAYER_CUT_FEAT
100
AcDbLine
 62
7
  6
CONTINUOUS
 10
15.5733552569
 20
5.4449956357
 11
15.8533552569
 21
5.4449956357
  0
LINE
  5
306
100
AcDbEntity
  8
LAYER_FEATURE
100
AcDbLine
 62
7
  6
CONTINUOUS
 10
15.8768552569
 20
4.5726247044
 11
15.8533552569
 21
4.6356247044
  0
LINE
  5
307
100
AcDbEntity
  8
LAYER_CUT_FEAT
100
AcDbLine
 62
7
  6
CONTINUOUS
 10
15.5733552569
 20
6.2904261394
 11
15.5733552569
 21
6.288559902
  0
LINE
  5
308
100
AcDbEntity
  8
LAYER_CUT_FEAT
100
AcDbLine
 62
7
  6
CONTINUOUS
 10
15.5733552569
 20
6.2761412357
 11
15.5733552569
 21
6.2705788478
  0
LINE
  5
309
100
AcDbEntity
  8
LAYER_CUT_FEAT
100
AcDbLine
 62
7
  6
CONTINUOUS
 10
15.5733552569
 20
6.2459832304
 11
15.5733552569
 21
6.2368329575
  0
LINE
  5
30A
100
AcDbEntity
  8
LAYER_CUT_FEAT
100
AcDbLine
 62
7
  6
CONTINUOUS
 10
15.5733552569
 20
6.2005391147
 11
15.5733552569
 21
6.1879790564
  0
LINE
  5
30B
100
AcDbEntity
  8
LAYER_CUT_FEAT
100
AcDbLine
 62
7
  6
CONTINUOUS
 10
15.5733552569
 20
6.1406934067
 11
15.5733552569
 21
6.1249680303
  0
LINE
  5
30C
100
AcDbEntity
  8
LAYER_CUT_FEAT
100
AcDbLine
 62
7
  6
CONTINUOUS
 10
15.5733552569
 20
6.0676109349
 11
15.5733552569
 21
6.049026317
  0
LINE
  5
30D
100
AcDbEntity
  8
LAYER_CUT_FEAT
100
AcDbLine
 62
7
  6
CONTINUOUS
 10
15.5733552569
 20
5.9827141666
 11
15.5733552569
 21
5.9616320356
  0
LINE
  5
30E
100
AcDbEntity
  8
LAYER_CUT_FEAT
100
AcDbLine
 62
7
  6
CONTINUOUS
 10
15.5733552569
 20
5.8876555208
 11
15.5733552569
 21
5.8644862164
  0
LINE
  5
30F
100
AcDbEntity
  8
LAYER_CUT_FEAT
100
AcDbLine
 62
7
  6
CONTINUOUS
 10
15.5733552569
 20
5.7842852058
 11
15.5733552569
 21
5.7594796922
  0
LINE
  5
310
100
AcDbEntity
  8
LAYER_CUT_FEAT
100
AcDbLine
 62
7
  6
CONTINUOUS
 10
15.5733552569
 20
5.6746152074
 11
15.5733552569
 21
5.6486562957
  0
LINE
  5
311
100
AcDbEntity
  8
LAYER_CUT_FEAT
100
AcDbLine
 62
7
  6
CONTINUOUS
 10
15.5733552569
 20
5.5607801272
 11
15.5733552569
 21
5.5341730781
  0
LINE
  5
312
100
AcDbEntity
  8
LAYER_CUT_FEAT
100
AcDbLine
 62
7
  6
CONTINUOUS
 10
15.5733552569
 20
5.4449956357
 11
15.5733552569
 21
5.418258325
  0
LINE
  5
313
100
AcDbEntity
  8
LAYER_CUT_FEAT
100
AcDbLine
 62
7
  6
CONTINUOUS
 10
15.5733552569
 20
5.3295153462
 11
15.5733552569
 21
5.3031681854
  0
LINE
  5
314
100
AcDbEntity
  8
LAYER_CUT_FEAT
100
AcDbLine
 62
7
  6
CONTINUOUS
 10
15.5733552569
 20
5.2165869513
 11
15.5733552569
 21
5.1911427578
  0
LINE
  5
315
100
AcDbEntity
  8
LAYER_CUT_FEAT
100
AcDbLine
 62
7
  6
CONTINUOUS
 10
15.5733552569
 20
5.1084084736
 11
15.5733552569
 21
5.0843624898
  0
LINE
  5
316
100
AcDbEntity
  8
LAYER_CUT_FEAT
100
AcDbLine
 62
7
  6
CONTINUOUS
 10
15.5733552569
 20
5.0070854842
 11
15.5733552569
 21
4.9849057377
  0
LINE
  5
317
100
AcDbEntity
  8
LAYER_CUT_FEAT
100
AcDbLine
 62
7
  6
CONTINUOUS
 10
15.5733552569
 20
4.9145901198
 11
15.5733552569
 21
4.8947083143
  0
LINE
  5
318
100
AcDbEntity
  8
LAYER_CUT_FEAT
100
AcDbLine
 62
7
  6
CONTINUOUS
 10
15.5733552569
 20
4.8327226975
 11
15.5733552569
 21
4.8155258096
  0
LINE
  5
319
100
AcDbEntity
  8
LAYER_CUT_FEAT
100
AcDbLine
 62
7
  6
CONTINUOUS
 10
15.5733552569
 20
4.7630766736
 11
15.5733552569
 21
4.7488994212
  0
LINE
  5
31A
100
AcDbEntity
  8
LAYER_CUT_FEAT
100
AcDbLine
 62
7
  6
CONTINUOUS
 10
15.5733552569
 20
4.7070076286
 11
15.5733552569
 21
4.6961259558
  0
LINE
  5
31B
100
AcDbEntity
  8
LAYER_CUT_FEAT
100
AcDbLine
 62
7
  6
CONTINUOUS
 10
15.5733552569
 20
4.6656068828
 11
15.5733552569
 21
4.658232589
  0
LINE
  5
31C
100
AcDbEntity
  8
LAYER_CUT_FEAT
100
AcDbLine
 62
7
  6
CONTINUOUS
 10
15.5733552569
 20
4.6396802545
 11
15.5733552569
 21
4.6359568719
  0
LINE
  5
31D
100
AcDbEntity
  8
LAYER_CUT_FEAT
100
AcDbLine
 62
7
  6
CONTINUOUS
 10
15.5733552569
 20
4.6297323762
 11
15.5733552569
 21
4.6296247044
  0
LINE
  5
31E
100
AcDbEntity
  8
LAYER_FEATURE
100
AcDbLine
 62
7
  6
CONTINUOUS
 10
15.5733552569
 20
4.6396802545
 11
15.5733552569
 21
4.658232589
  0
LINE
  5
31F
100
AcDbEntity
  8
LAYER_FEATURE
100
AcDbLine
 62
7
  6
CONTINUOUS
 10
15.5733552569
 20
4.6297323762
 11
15.5733552569
 21
4.6359568719
  0
LINE
  5
320
100
AcDbEntity
  8
LAYER_FEATURE
100
AcDbLine
 62
7
  6
CONTINUOUS
 10
15.5733552569
 20
4.6656068828
 11
15.5733552569
 21
4.6961259558
  0
LINE
  5
321
100
AcDbEntity
  8
LAYER_FEATURE
100
AcDbLine
 62
7
  6
CONTINUOUS
 10
15.5733552569
 20
4.7070076286
 11
15.5733552569
 21
4.7488994212
  0
LINE
  5
322
100
AcDbEntity
  8
LAYER_FEATURE
100
AcDbLine
 62
7
  6
CONTINUOUS
 10
15.5733552569
 20
4.7630766736
 11
15.5733552569
 21
4.8155258096
  0
LINE
  5
323
100
AcDbEntity
  8
LAYER_FEATURE
100
AcDbLine
 62
7
  6
CONTINUOUS
 10
15.5733552569
 20
4.8327226975
 11
15.5733552569
 21
4.8947083143
  0
LINE
  5
324
100
AcDbEntity
  8
LAYER_FEATURE
100
AcDbLine
 62
7
  6
CONTINUOUS
 10
15.5733552569
 20
4.9145901198
 11
15.5733552569
 21
4.9849057377
  0
LINE
  5
325
100
AcDbEntity
  8
LAYER_FEATURE
100
AcDbLine
 62
7
  6
CONTINUOUS
 10
15.5733552569
 20
5.0070854842
 11
15.5733552569
 21
5.0843624898
  0
LINE
  5
326
100
AcDbEntity
  8
LAYER_FEATURE
100
AcDbLine
 62
7
  6
CONTINUOUS
 10
15.5733552569
 20
5.1084084736
 11
15.5733552569
 21
5.1911427578
  0
LINE
  5
327
100
AcDbEntity
  8
LAYER_FEATURE
100
AcDbLine
 62
7
  6
CONTINUOUS
 10
15.5733552569
 20
5.2165869513
 11
15.5733552569
 21
5.3031681854
  0
LINE
  5
328
100
AcDbEntity
  8
LAYER_FEATURE
100
AcDbLine
 62
7
  6
CONTINUOUS
 10
15.5733552569
 20
5.3295153462
 11
15.5733552569
 21
5.418258325
  0
LINE
  5
329
100
AcDbEntity
  8
LAYER_FEATURE
100
AcDbLine
 62
7
  6
CONTINUOUS
 10
15.5733552569
 20
5.4449956357
 11
15.5733552569
 21
5.5341730781
  0
LINE
  5
32A
100
AcDbEntity
  8
LAYER_FEATURE
100
AcDbLine
 62
7
  6
CONTINUOUS
 10
15.5733552569
 20
5.5607801272
 11
15.5733552569
 21
5.6486562957
  0
LINE
  5
32B
100
AcDbEntity
  8
LAYER_FEATURE
100
AcDbLine
 62
7
  6
CONTINUOUS
 10
15.5733552569
 20
5.6746152074
 11
15.5733552569
 21
5.7594796922
  0
LINE
  5
32C
100
AcDbEntity
  8
LAYER_FEATURE
100
AcDbLine
 62
7
  6
CONTINUOUS
 10
15.5733552569
 20
5.7842852058
 11
15.5733552569
 21
5.8644862164
  0
LINE
  5
32D
100
AcDbEntity
  8
LAYER_FEATURE
100
AcDbLine
 62
7
  6
CONTINUOUS
 10
15.5733552569
 20
5.8876555208
 11
15.5733552569
 21
5.9616320356
  0
LINE
  5
32E
100
AcDbEntity
  8
LAYER_FEATURE
100
AcDbLine
 62
7
  6
CONTINUOUS
 10
15.5733552569
 20
5.9827141666
 11
15.5733552569
 21
6.049026317
  0
LINE
  5
32F
100
AcDbEntity
  8
LAYER_FEATURE
100
AcDbLine
 62
7
  6
CONTINUOUS
 10
15.5733552569
 20
6.0676109349
 11
15.5733552569
 21
6.1249680303
  0
LINE
  5
330
100
AcDbEntity
  8
LAYER_FEATURE
100
AcDbLine
 62
7
  6
CONTINUOUS
 10
15.5733552569
 20
6.1406934067
 11
15.5733552569
 21
6.1879790564
  0
LINE
  5
331
100
AcDbEntity
  8
LAYER_FEATURE
100
AcDbLine
 62
7
  6
CONTINUOUS
 10
15.5733552569
 20
6.2005391147
 11
15.5733552569
 21
6.2368329575
  0
LINE
  5
332
100
AcDbEntity
  8
LAYER_FEATURE
100
AcDbLine
 62
7
  6
CONTINUOUS
 10
15.5733552569
 20
6.2459832304
 11
15.5733552569
 21
6.2705788478
  0
LINE
  5
333
100
AcDbEntity
  8
LAYER_FEATURE
100
AcDbLine
 62
7
  6
CONTINUOUS
 10
15.5733552569
 20
6.2761412357
 11
15.5733552569
 21
6.288559902
  0
LINE
  5
334
100
AcDbEntity
  8
LAYER_CUT_FEAT
100
AcDbLine
 62
7
  6
CONTINUOUS
 10
15.5733552569
 20
5.5341730781
 11
15.8533552569
 21
5.5341730781
  0
LINE
  5
335
100
AcDbEntity
  8
LAYER_CUT_FEAT
100
AcDbLine
 62
7
  6
CONTINUOUS
 10
15.5733552569
 20
5.5607801272
 11
15.8533552569
 21
5.5607801272
  0
LINE
  5
336
100
AcDbEntity
  8
LAYER_CUT_FEAT
100
AcDbLine
 62
7
  6
CONTINUOUS
 10
15.5733552569
 20
5.6486562957
 11
15.8533552569
 21
5.6486562957
  0
LINE
  5
337
100
AcDbEntity
  8
LAYER_CUT_FEAT
100
AcDbLine
 62
7
  6
CONTINUOUS
 10
15.5733552569
 20
5.6746152074
 11
15.8533552569
 21
5.6746152074
  0
LINE
  5
338
100
AcDbEntity
  8
LAYER_CUT_FEAT
100
AcDbLine
 62
7
  6
CONTINUOUS
 10
15.8533552569
 20
5.6772769219
 11
15.5733552569
 21
5.6772769219
  0
LINE
  5
339
100
AcDbEntity
  8
LAYER_CUT_FEAT
100
AcDbLine
 62
7
  6
CONTINUOUS
 10
15.8533552569
 20
6.2904261394
 11
15.8533552569
 21
6.288559902
  0
LINE
  5
33A
100
AcDbEntity
  8
LAYER_CUT_FEAT
100
AcDbLine
 62
7
  6
CONTINUOUS
 10
15.8533552569
 20
6.2761412357
 11
15.8533552569
 21
6.2705788478
  0
LINE
  5
33B
100
AcDbEntity
  8
LAYER_CUT_FEAT
100
AcDbLine
 62
7
  6
CONTINUOUS
 10
15.8533552569
 20
6.2459832304
 11
15.8533552569
 21
6.2368329575
  0
LINE
  5
33C
100
AcDbEntity
  8
LAYER_CUT_FEAT
100
AcDbLine
 62
7
  6
CONTINUOUS
 10
15.8533552569
 20
6.2005391147
 11
15.8533552569
 21
6.1879790564
  0
LINE
  5
33D
100
AcDbEntity
  8
LAYER_CUT_FEAT
100
AcDbLine
 62
7
  6
CONTINUOUS
 10
15.8533552569
 20
6.1406934067
 11
15.8533552569
 21
6.1249680303
  0
LINE
  5
33E
100
AcDbEntity
  8
LAYER_CUT_FEAT
100
AcDbLine
 62
7
  6
CONTINUOUS
 10
15.8533552569
 20
6.0676109349
 11
15.8533552569
 21
6.049026317
  0
LINE
  5
33F
100
AcDbEntity
  8
LAYER_CUT_FEAT
100
AcDbLine
 62
7
  6
CONTINUOUS
 10
15.8533552569
 20
5.9827141666
 11
15.8533552569
 21
5.9616320356
  0
LINE
  5
340
100
AcDbEntity
  8
LAYER_CUT_FEAT
100
AcDbLine
 62
7
  6
CONTINUOUS
 10
15.8533552569
 20
5.8876555208
 11
15.8533552569
 21
5.8644862164
  0
LINE
  5
341
100
AcDbEntity
  8
LAYER_CUT_FEAT
100
AcDbLine
 62
7
  6
CONTINUOUS
 10
15.8533552569
 20
5.7842852058
 11
15.8533552569
 21
5.7594796922
  0
LINE
  5
342
100
AcDbEntity
  8
LAYER_CUT_FEAT
100
AcDbLine
 62
7
  6
CONTINUOUS
 10
15.8533552569
 20
5.6746152074
 11
15.8533552569
 21
5.6486562957
  0
LINE
  5
343
100
AcDbEntity
  8
LAYER_CUT_FEAT
100
AcDbLine
 62
7
  6
CONTINUOUS
 10
15.8533552569
 20
5.5607801272
 11
15.8533552569
 21
5.5341730781
  0
LINE
  5
344
100
AcDbEntity
  8
LAYER_CUT_FEAT
100
AcDbLine
 62
7
  6
CONTINUOUS
 10
15.8533552569
 20
5.4449956357
 11
15.8533552569
 21
5.418258325
  0
LINE
  5
345
100
AcDbEntity
  8
LAYER_CUT_FEAT
100
AcDbLine
 62
7
  6
CONTINUOUS
 10
15.8533552569
 20
5.3295153462
 11
15.8533552569
 21
5.3031681854
  0
LINE
  5
346
100
AcDbEntity
  8
LAYER_CUT_FEAT
100
AcDbLine
 62
7
  6
CONTINUOUS
 10
15.8533552569
 20
5.2165869513
 11
15.8533552569
 21
5.1911427578
  0
LINE
  5
347
100
AcDbEntity
  8
LAYER_CUT_FEAT
100
AcDbLine
 62
7
  6
CONTINUOUS
 10
15.8533552569
 20
5.1084084736
 11
15.8533552569
 21
5.0843624898
  0
LINE
  5
348
100
AcDbEntity
  8
LAYER_CUT_FEAT
100
AcDbLine
 62
7
  6
CONTINUOUS
 10
15.8533552569
 20
5.0070854842
 11
15.8533552569
 21
4.9849057377
  0
LINE
  5
349
100
AcDbEntity
  8
LAYER_CUT_FEAT
100
AcDbLine
 62
7
  6
CONTINUOUS
 10
15.8533552569
 20
4.9145901198
 11
15.8533552569
 21
4.8947083143
  0
LINE
  5
34A
100
AcDbEntity
  8
LAYER_CUT_FEAT
100
AcDbLine
 62
7
  6
CONTINUOUS
 10
15.8533552569
 20
4.8327226975
 11
15.8533552569
 21
4.8155258096
  0
LINE
  5
34B
100
AcDbEntity
  8
LAYER_CUT_FEAT
100
AcDbLine
 62
7
  6
CONTINUOUS
 10
15.8533552569
 20
4.7630766736
 11
15.8533552569
 21
4.7488994212
  0
LINE
  5
34C
100
AcDbEntity
  8
LAYER_CUT_FEAT
100
AcDbLine
 62
7
  6
CONTINUOUS
 10
15.8533552569
 20
4.7070076286
 11
15.8533552569
 21
4.6961259558
  0
LINE
  5
34D
100
AcDbEntity
  8
LAYER_CUT_FEAT
100
AcDbLine
 62
7
  6
CONTINUOUS
 10
15.8533552569
 20
4.6656068828
 11
15.8533552569
 21
4.658232589
  0
LINE
  5
34E
100
AcDbEntity
  8
LAYER_CUT_FEAT
100
AcDbLine
 62
7
  6
CONTINUOUS
 10
15.8533552569
 20
4.6396802545
 11
15.8533552569
 21
4.6359568719
  0
LINE
  5
34F
100
AcDbEntity
  8
LAYER_CUT_FEAT
100
AcDbLine
 62
7
  6
CONTINUOUS
 10
15.8533552569
 20
4.6297323762
 11
15.8533552569
 21
4.6296247044
  0
LINE
  5
350
100
AcDbEntity
  8
LAYER_FEATURE
100
AcDbLine
 62
7
  6
CONTINUOUS
 10
15.8533552569
 20
4.6297323762
 11
15.8533552569
 21
4.6359568719
  0
LINE
  5
351
100
AcDbEntity
  8
LAYER_FEATURE
100
AcDbLine
 62
7
  6
CONTINUOUS
 10
15.8533552569
 20
4.6396802545
 11
15.8533552569
 21
4.658232589
  0
LINE
  5
352
100
AcDbEntity
  8
LAYER_FEATURE
100
AcDbLine
 62
7
  6
CONTINUOUS
 10
15.8533552569
 20
4.6656068828
 11
15.8533552569
 21
4.6961259558
  0
LINE
  5
353
100
AcDbEntity
  8
LAYER_FEATURE
100
AcDbLine
 62
7
  6
CONTINUOUS
 10
15.8533552569
 20
4.7070076286
 11
15.8533552569
 21
4.7488994212
  0
LINE
  5
354
100
AcDbEntity
  8
LAYER_FEATURE
100
AcDbLine
 62
7
  6
CONTINUOUS
 10
15.8533552569
 20
4.7630766736
 11
15.8533552569
 21
4.8155258096
  0
LINE
  5
355
100
AcDbEntity
  8
LAYER_FEATURE
100
AcDbLine
 62
7
  6
CONTINUOUS
 10
15.8533552569
 20
4.8327226975
 11
15.8533552569
 21
4.8947083143
  0
LINE
  5
356
100
AcDbEntity
  8
LAYER_FEATURE
100
AcDbLine
 62
7
  6
CONTINUOUS
 10
15.8533552569
 20
4.9145901198
 11
15.8533552569
 21
4.9849057377
  0
LINE
  5
357
100
AcDbEntity
  8
LAYER_FEATURE
100
AcDbLine
 62
7
  6
CONTINUOUS
 10
15.8533552569
 20
5.0070854842
 11
15.8533552569
 21
5.0843624898
  0
LINE
  5
358
100
AcDbEntity
  8
LAYER_FEATURE
100
AcDbLine
 62
7
  6
CONTINUOUS
 10
15.8533552569
 20
5.1084084736
 11
15.8533552569
 21
5.1911427578
  0
LINE
  5
359
100
AcDbEntity
  8
LAYER_FEATURE
100
AcDbLine
 62
7
  6
CONTINUOUS
 10
15.8533552569
 20
5.2165869513
 11
15.8533552569
 21
5.3031681854
  0
LINE
  5
35A
100
AcDbEntity
  8
LAYER_FEATURE
100
AcDbLine
 62
7
  6
CONTINUOUS
 10
15.8533552569
 20
5.3295153462
 11
15.8533552569
 21
5.418258325
  0
LINE
  5
35B
100
AcDbEntity
  8
LAYER_FEATURE
100
AcDbLine
 62
7
  6
CONTINUOUS
 10
15.8533552569
 20
5.4449956357
 11
15.8533552569
 21
5.5341730781
  0
LINE
  5
35C
100
AcDbEntity
  8
LAYER_FEATURE
100
AcDbLine
 62
7
  6
CONTINUOUS
 10
15.8533552569
 20
5.5607801272
 11
15.8533552569
 21
5.6486562957
  0
LINE
  5
35D
100
AcDbEntity
  8
LAYER_FEATURE
100
AcDbLine
 62
7
  6
CONTINUOUS
 10
15.8533552569
 20
5.6746152074
 11
15.8533552569
 21
5.7594796922
  0
LINE
  5
35E
100
AcDbEntity
  8
LAYER_FEATURE
100
AcDbLine
 62
7
  6
CONTINUOUS
 10
15.8533552569
 20
5.7842852058
 11
15.8533552569
 21
5.8644862164
  0
LINE
  5
35F
100
AcDbEntity
  8
LAYER_FEATURE
100
AcDbLine
 62
7
  6
CONTINUOUS
 10
15.8533552569
 20
5.8876555208
 11
15.8533552569
 21
5.9616320356
  0
LINE
  5
360
100
AcDbEntity
  8
LAYER_FEATURE
100
AcDbLine
 62
7
  6
CONTINUOUS
 10
15.8533552569
 20
5.9827141666
 11
15.8533552569
 21
6.049026317
  0
LINE
  5
361
100
AcDbEntity
  8
LAYER_FEATURE
100
AcDbLine
 62
7
  6
CONTINUOUS
 10
15.8533552569
 20
6.0676109349
 11
15.8533552569
 21
6.1249680303
  0
LINE
  5
362
100
AcDbEntity
  8
LAYER_FEATURE
100
AcDbLine
 62
7
  6
CONTINUOUS
 10
15.8533552569
 20
6.1406934067
 11
15.8533552569
 21
6.1879790564
  0
LINE
  5
363
100
AcDbEntity
  8
LAYER_FEATURE
100
AcDbLine
 62
7
  6
CONTINUOUS
 10
15.8533552569
 20
6.2005391147
 11
15.8533552569
 21
6.2368329575
  0
LINE
  5
364
100
AcDbEntity
  8
LAYER_FEATURE
100
AcDbLine
 62
7
  6
CONTINUOUS
 10
15.8533552569
 20
6.2459832304
 11
15.8533552569
 21
6.2705788478
  0
LINE
  5
365
100
AcDbEntity
  8
LAYER_FEATURE
100
AcDbLine
 62
7
  6
CONTINUOUS
 10
15.8533552569
 20
6.2761412357
 11
15.8533552569
 21
6.288559902
  0
LINE
  5
366
100
AcDbEntity
  8
LAYER_FEATURE
100
AcDbLine
 62
7
  6
CONTINUOUS
 10
15.8768552569
 20
6.3486247044
 11
15.8768552569
 21
4.5726247044
  0
LINE
  5
367
100
AcDbEntity
  8
LAYER_FEATURE
100
AcDbLine
 62
7
  6
CONTINUOUS
 10
15.5733552569
 20
4.6356247044
 11
15.5498552569
 21
4.5726247044
  0
LINE
  5
368
100
AcDbEntity
  8
LAYER_CUT_FEAT
100
AcDbLine
 62
7
  6
CONTINUOUS
 10
15.5733552569
 20
5.7594796922
 11
15.8533552569
 21
5.7594796922
  0
LINE
  5
369
100
AcDbEntity
  8
LAYER_CUT_FEAT
100
AcDbLine
 62
7
  6
CONTINUOUS
 10
15.5733552569
 20
5.7842852058
 11
15.8533552569
 21
5.7842852058
  0
LINE
  5
36A
100
AcDbEntity
  8
LAYER_CUT_FEAT
100
AcDbLine
 62
7
  6
CONTINUOUS
 10
15.8533552569
 20
5.7859968749
 11
15.5733552569
 21
5.7859968749
  0
LINE
  5
36B
100
AcDbEntity
  8
LAYER_FEATURE
100
AcDbLine
 62
7
  6
CONTINUOUS
 10
15.5733552569
 20
6.2856247044
 11
15.5498552569
 21
6.3486247044
  0
LINE
  5
36C
100
AcDbEntity
  8
LAYER_FEATURE
100
AcDbLine
 62
7
  6
CONTINUOUS
 10
15.9168552569
 20
6.3486247044
 11
15.9168552569
 21
4.5726247044
  0
LINE
  5
36D
100
AcDbEntity
  8
LAYER_FEATURE
100
AcDbLine
 62
7
  6
CONTINUOUS
 10
15.4241446632
 20
6.1089352981
 11
15.4224552569
 21
6.1106247044
  0
LINE
  5
36E
100
AcDbEntity
  8
LAYER_CUT_FEAT
100
AcDbLine
 62
7
  6
CONTINUOUS
 10
15.5733552569
 20
5.8644862164
 11
15.8533552569
 21
5.8644862164
  0
LINE
  5
36F
100
AcDbEntity
  8
LAYER_CUT_FEAT
100
AcDbLine
 62
7
  6
CONTINUOUS
 10
15.5733552569
 20
5.8876555208
 11
15.8533552569
 21
5.8876555208
  0
LINE
  5
370
100
AcDbEntity
  8
LAYER_CUT_FEAT
100
AcDbLine
 62
7
  6
CONTINUOUS
 10
15.8533552569
 20
5.8886135023
 11
15.5733552569
 21
5.8886135023
  0
LINE
  5
371
100
AcDbEntity
  8
LAYER_CUT_FEAT
100
AcDbLine
 62
7
  6
CONTINUOUS
 10
15.5733552569
 20
5.9616320356
 11
15.8533552569
 21
5.9616320356
  0
LINE
  5
372
100
AcDbEntity
  8
LAYER_CUT_FEAT
100
AcDbLine
 62
7
  6
CONTINUOUS
 10
15.5733552569
 20
5.9827141666
 11
15.8533552569
 21
5.9827141666
  0
LINE
  5
373
100
AcDbEntity
  8
LAYER_CUT_FEAT
100
AcDbLine
 62
7
  6
CONTINUOUS
 10
15.8533552569
 20
5.9831294881
 11
15.5733552569
 21
5.9831294881
  0
LINE
  5
374
100
AcDbEntity
  8
LAYER_CUT_FEAT
100
AcDbLine
 62
7
  6
CONTINUOUS
 10
15.5733552569
 20
6.049026317
 11
15.8533552569
 21
6.049026317
  0
LINE
  5
375
100
AcDbEntity
  8
LAYER_CUT_FEAT
100
AcDbLine
 62
7
  6
CONTINUOUS
 10
15.5733552569
 20
6.0676109349
 11
15.8533552569
 21
6.0676109349
  0
LINE
  5
376
100
AcDbEntity
  8
LAYER_CUT_FEAT
100
AcDbLine
 62
7
  6
CONTINUOUS
 10
15.8533552569
 20
6.0677051863
 11
15.5733552569
 21
6.0677051863
  0
LINE
  5
377
100
AcDbEntity
  8
02___PRT_ALL_AXES
100
AcDbLine
 62
7
  6
CONTINUOUS
 10
15.5098552569
 20
6.1106247044
 11
15.4388552569
 21
6.1106247044
  0
LINE
  5
378
100
AcDbEntity
  8
02___PRT_ALL_AXES
100
AcDbLine
 62
7
  6
CONTINUOUS
 10
15.2748552569
 20
6.1106247044
 11
15.2038552569
 21
6.1106247044
  0
LINE
  5
379
100
AcDbEntity
  8
LAYER_FEATURE
100
AcDbLine
 62
7
  6
CONTINUOUS
 10
15.2912553099
 20
6.1106247044
 11
15.422455204
 21
6.1106247044
  0
LINE
  5
37A
100
AcDbEntity
  8
LAYER_CUT_FEAT
100
AcDbLine
 62
7
  6
CONTINUOUS
 10
15.5733552569
 20
6.1249680303
 11
15.8533552569
 21
6.1249680303
  0
LINE
  5
37B
100
AcDbEntity
  8
LAYER_CUT_FEAT
100
AcDbLine
 62
7
  6
CONTINUOUS
 10
15.5733552569
 20
6.1406934067
 11
15.8533552569
 21
6.1406934067
  0
LINE
  5
37C
100
AcDbEntity
  8
LAYER_CUT_FEAT
100
AcDbLine
 62
7
  6
CONTINUOUS
 10
15.5733552569
 20
6.1879790564
 11
15.8533552569
 21
6.1879790564
  0
LINE
  5
37D
100
AcDbEntity
  8
LAYER_CUT_FEAT
100
AcDbLine
 62
7
  6
CONTINUOUS
 10
15.5733552569
 20
6.2005391147
 11
15.8533552569
 21
6.2005391147
  0
LINE
  5
37E
100
AcDbEntity
  8
LAYER_CUT_FEAT
100
AcDbLine
 62
7
  6
CONTINUOUS
 10
15.5733552569
 20
6.2368329575
 11
15.8533552569
 21
6.2368329575
  0
LINE
  5
37F
100
AcDbEntity
  8
LAYER_CUT_FEAT
100
AcDbLine
 62
7
  6
CONTINUOUS
 10
15.5733552569
 20
6.2459832304
 11
15.8533552569
 21
6.2459832304
  0
LINE
  5
380
100
AcDbEntity
  8
LAYER_CUT_FEAT
100
AcDbLine
 62
7
  6
CONTINUOUS
 10
15.5733552569
 20
6.2705788478
 11
15.8533552569
 21
6.2705788478
  0
LINE
  5
381
100
AcDbEntity
  8
LAYER_CUT_FEAT
100
AcDbLine
 62
7
  6
CONTINUOUS
 10
15.5733552569
 20
6.2761412357
 11
15.8533552569
 21
6.2761412357
  0
LINE
  5
382
100
AcDbEntity
  8
LAYER_CUT_FEAT
100
AcDbLine
 62
7
  6
CONTINUOUS
 10
15.5733552569
 20
6.288559902
 11
15.8533552569
 21
6.288559902
  0
LINE
  5
383
100
AcDbEntity
  8
LAYER_CUT_FEAT
100
AcDbLine
 62
7
  6
CONTINUOUS
 10
15.5733552569
 20
6.2904261394
 11
15.8533552569
 21
6.2904261394
  0
LINE
  5
384
100
AcDbEntity
  8
LAYER_FEATURE
100
AcDbLine
 62
7
  6
CONTINUOUS
 10
15.9168552569
 20
6.3486247044
 11
15.8768552569
 21
6.3486247044
  0
LINE
  5
385
100
AcDbEntity
  8
LAYER_FEATURE
100
AcDbLine
 62
7
  6
CONTINUOUS
 10
15.5498552569
 20
6.3486247044
 11
15.5098552569
 21
6.3486247044
  0
LINE
  5
386
100
AcDbEntity
  8
LAYER_FEATURE
100
AcDbLine
 62
7
  6
CONTINUOUS
 10
14.573438262
 20
12.6594550636
 11
14.5831209149
 21
12.69078814
  0
LINE
  5
387
100
AcDbEntity
  8
LAYER_FEATURE
100
AcDbLine
 62
7
  6
CONTINUOUS
 10
14.6622766027
 20
12.9469360395
 11
14.6719592556
 21
12.9782691158
  0
LINE
  5
388
100
AcDbEntity
  8
LAYER_CUT_FEAT
100
AcDbLine
 62
7
  6
CONTINUOUS
 10
14.6905825613
 20
12.8452533996
 11
14.7128752396
 21
12.9173925328
  0
LINE
  5
389
100
AcDbEntity
  8
LAYER_CUT_FEAT
100
AcDbLine
 62
7
  6
CONTINUOUS
 10
14.6916397985
 20
12.846077385
 11
14.7181284842
 21
12.9317948034
  0
LINE
  5
38A
100
AcDbEntity
  8
LAYER_CUT_FEAT
100
AcDbLine
 62
7
  6
CONTINUOUS
 10
14.7037357221
 20
12.8555046582
 11
14.7415214574
 21
12.9777793424
  0
LINE
  5
38B
100
AcDbEntity
  8
LAYER_CUT_FEAT
100
AcDbLine
 62
7
  6
CONTINUOUS
 10
14.7098673751
 20
12.8601688555
 11
14.7502614733
 21
12.9908842052
  0
LINE
  5
38C
100
AcDbEntity
  8
LAYER_CUT_FEAT
100
AcDbLine
 62
7
  6
CONTINUOUS
 10
14.7376619088
 20
12.8788279306
 11
14.7850279508
 21
13.0321044989
  0
LINE
  5
38D
100
AcDbEntity
  8
LAYER_CUT_FEAT
100
AcDbLine
 62
7
  6
CONTINUOUS
 10
14.7481740267
 20
12.8853821336
 11
14.7970846235
 21
13.0436568827
  0
LINE
  5
38E
100
AcDbEntity
  8
LAYER_CUT_FEAT
100
AcDbLine
 62
7
  6
CONTINUOUS
 10
14.7893764746
 20
12.9072477796
 11
14.8425479154
 21
13.0793106249
  0
LINE
  5
38F
100
AcDbEntity
  8
LAYER_CUT_FEAT
100
AcDbLine
 62
7
  6
CONTINUOUS
 10
14.8034802729
 20
12.9136740166
 11
14.8576865753
 21
13.0890856756
  0
LINE
  5
390
100
AcDbEntity
  8
LAYER_CUT_FEAT
100
AcDbLine
 62
7
  6
CONTINUOUS
 10
14.7291718596
 20
12.6113297421
 11
14.7348604182
 21
12.6297379244
  0
LINE
  5
391
100
AcDbEntity
  8
LAYER_CUT_FEAT
100
AcDbLine
 62
7
  6
CONTINUOUS
 10
14.8560689665
 20
12.9343736614
 11
14.9129617903
 21
13.1184789069
  0
LINE
  5
392
100
AcDbEntity
  8
LAYER_CUT_FEAT
100
AcDbLine
 62
7
  6
CONTINUOUS
 10
14.8733468815
 20
12.9400839459
 11
14.9308877808
 21
13.1262863643
  0
LINE
  5
393
100
AcDbEntity
  8
02___PRT_ALL_AXES
100
AcDbLine
 62
7
  6
CONTINUOUS
 10
14.7267561279
 20
12.3494881549
 11
14.8008284229
 21
12.5891861892
  0
LINE
  5
394
100
AcDbEntity
  8
LAYER_CUT_FEAT
100
AcDbLine
 62
7
  6
CONTINUOUS
 10
14.9946880332
 20
13.1483095398
 11
14.9355230749
 21
12.9568516647
  0
LINE
  5
395
100
AcDbEntity
  8
LAYER_CUT_FEAT
100
AcDbLine
 62
7
  6
CONTINUOUS
 10
14.9355714644
 20
12.9568628423
 11
14.9948990497
 21
13.1488469787
  0
LINE
  5
396
100
AcDbEntity
  8
LAYER_CUT_FEAT
100
AcDbLine
 62
7
  6
CONTINUOUS
 10
14.9555004145
 20
12.9611415879
 11
15.0152634618
 21
13.1545348796
  0
LINE
  5
397
100
AcDbEntity
  8
LAYER_FEATURE
100
AcDbLine
 62
7
  6
CONTINUOUS
 10
14.9948990497
 20
13.1488469787
 11
14.9946880343
 21
13.1483095395
  0
LINE
  5
398
100
AcDbEntity
  8
LAYER_CUT_FEAT
100
AcDbLine
 62
7
  6
CONTINUOUS
 10
15.0860358794
 20
13.1684717137
 11
15.0254614309
 21
12.9724527265
  0
LINE
  5
399
100
AcDbEntity
  8
LAYER_CUT_FEAT
100
AcDbLine
 62
7
  6
CONTINUOUS
 10
15.025785625
 20
12.9724948253
 11
15.086764878
 21
13.1698237606
  0
LINE
  5
39A
100
AcDbEntity
  8
LAYER_CUT_FEAT
100
AcDbLine
 62
7
  6
CONTINUOUS
 10
15.0478835606
 20
12.9749540648
 11
15.1091713415
 21
13.1732813963
  0
LINE
  5
39B
100
AcDbEntity
  8
LAYER_CUT_FEAT
100
AcDbLine
 62
7
  6
CONTINUOUS
 10
15.1853189848
 20
13.1789284348
 11
15.123838034
 21
12.9799760053
  0
LINE
  5
39C
100
AcDbEntity
  8
LAYER_CUT_FEAT
100
AcDbLine
 62
7
  6
CONTINUOUS
 10
15.1246602485
 20
12.9800098134
 11
15.1867712114
 21
13.1810009631
  0
LINE
  5
39D
100
AcDbEntity
  8
LAYER_CUT_FEAT
100
AcDbLine
 62
7
  6
CONTINUOUS
 10
15.1484449748
 20
12.9804331377
 11
15.2107836099
 21
13.1821610349
  0
LINE
  5
39E
100
AcDbEntity
  8
LAYER_CUT_FEAT
100
AcDbLine
 62
7
  6
CONTINUOUS
 10
15.2906049167
 20
13.1794761751
 11
15.2285660463
 21
12.9787183169
  0
LINE
  5
39F
100
AcDbEntity
  8
LAYER_CUT_FEAT
100
AcDbLine
 62
7
  6
CONTINUOUS
 10
15.2300726465
 20
12.9786201399
 11
15.2929715403
 21
13.1821610349
  0
LINE
  5
3A0
100
AcDbEntity
  8
LAYER_CUT_FEAT
100
AcDbLine
 62
7
  6
CONTINUOUS
 10
15.2550785421
 20
12.976990641
 11
15.3181224999
 21
13.1810009631
  0
LINE
  5
3A1
100
AcDbEntity
  8
LAYER_CUT_FEAT
100
AcDbLine
 62
7
  6
CONTINUOUS
 10
15.1746605628
 20
12.7135892632
 11
15.1429330762
 21
12.6814728599
  0
LINE
  5
3A2
100
AcDbEntity
  8
LAYER_CUT_FEAT
100
AcDbLine
 62
7
  6
CONTINUOUS
 10
15.3998444043
 20
13.1701042734
 11
15.3374925557
 21
12.9683336173
  0
LINE
  5
3A3
100
AcDbEntity
  8
LAYER_CUT_FEAT
100
AcDbLine
 62
7
  6
CONTINUOUS
 10
15.3398628
 20
12.9680024377
 11
15.4032987961
 21
13.1732813963
  0
LINE
  5
3A4
100
AcDbEntity
  8
LAYER_CUT_FEAT
100
AcDbLine
 62
7
  6
CONTINUOUS
 10
15.3655906605
 20
12.9643114045
 11
15.4290987819
 21
13.1698237606
  0
LINE
  5
3A5
100
AcDbEntity
  8
LAYER_FEATURE
100
AcDbLine
 62
7
  6
CONTINUOUS
 10
15.3998534276
 20
13.1701330738
 11
15.3998444011
 21
13.1701042744
  0
LINE
  5
3A6
100
AcDbEntity
  8
LAYER_CUT_FEAT
100
AcDbLine
 62
7
  6
CONTINUOUS
 10
15.1996739959
 20
12.6626172458
 11
15.1865737895
 21
12.6493564567
  0
LINE
  5
3A7
100
AcDbEntity
  8
LAYER_CUT_FEAT
100
AcDbLine
 62
7
  6
CONTINUOUS
 10
15.1984166589
 20
12.6493564567
 11
15.2301441455
 21
12.6814728599
  0
LINE
  5
3A8
100
AcDbEntity
  8
LAYER_CUT_FEAT
100
AcDbLine
 62
7
  6
CONTINUOUS
 10
15.9979469826
 20
12.2479976726
 11
15.9722618217
 21
12.2479976726
  0
LINE
  5
3A9
100
AcDbEntity
  8
LAYER_CUT_FEAT
100
AcDbLine
 62
7
  6
CONTINUOUS
 10
15.1429330762
 20
12.6814728599
 11
15.1548111243
 21
12.6493564567
  0
LINE
  5
3AA
100
AcDbEntity
  8
LAYER_CUT_FEAT
100
AcDbLine
 62
7
  6
CONTINUOUS
 10
15.4518654216
 20
12.9482716375
 11
15.5156055843
 21
13.1545348796
  0
LINE
  5
3AB
100
AcDbEntity
  8
LAYER_CUT_FEAT
100
AcDbLine
 62
7
  6
CONTINUOUS
 10
16.0006509457
 20
12.2948284299
 11
15.9683695502
 21
12.2948284299
  0
LINE
  5
3AC
100
AcDbEntity
  8
LAYER_CUT_FEAT
100
AcDbLine
 62
7
  6
CONTINUOUS
 10
15.1429330762
 20
12.6814728599
 11
15.1586935178
 21
12.6493564567
  0
LINE
  5
3AD
100
AcDbEntity
  8
LAYER_CUT_FEAT
100
AcDbLine
 62
7
  6
CONTINUOUS
 10
15.1746605628
 20
12.7135892632
 11
15.1996739959
 21
12.6626172458
  0
LINE
  5
3AE
100
AcDbEntity
  8
LAYER_CUT_FEAT
100
AcDbLine
 62
7
  6
CONTINUOUS
 10
15.2301441455
 20
12.6814728599
 11
15.2182660975
 21
12.7135892632
  0
LINE
  5
3AF
100
AcDbEntity
  8
LAYER_CUT_FEAT
100
AcDbLine
 62
7
  6
CONTINUOUS
 10
15.4777685296
 20
12.9424422046
 11
15.541552429
 21
13.1488469787
  0
LINE
  5
3B0
100
AcDbEntity
  8
LAYER_CUT_FEAT
100
AcDbLine
 62
7
  6
CONTINUOUS
 10
15.5638677196
 20
12.9197056748
 11
15.627705981
 21
13.1262863643
  0
LINE
  5
3B1
100
AcDbEntity
  8
LAYER_CUT_FEAT
100
AcDbLine
 62
7
  6
CONTINUOUS
 10
15.5894373918
 20
12.9118367154
 11
15.6532946587
 21
13.1184789069
  0
LINE
  5
3B2
100
AcDbEntity
  8
LAYER_CUT_FEAT
100
AcDbLine
 62
7
  6
CONTINUOUS
 10
15.6736291397
 20
12.8826645911
 11
15.7374180795
 21
13.0890856756
  0
LINE
  5
3B3
100
AcDbEntity
  8
LAYER_CUT_FEAT
100
AcDbLine
 62
7
  6
CONTINUOUS
 10
15.6984159485
 20
12.8730654252
 11
15.7621505357
 21
13.0793106249
  0
LINE
  5
3B4
100
AcDbEntity
  8
LAYER_CUT_FEAT
100
AcDbLine
 62
7
  6
CONTINUOUS
 10
15.1548111243
 20
12.6493564567
 11
15.1984166589
 21
12.6493564567
  0
LINE
  5
3B5
100
AcDbEntity
  8
LAYER_CUT_FEAT
100
AcDbLine
 62
7
  6
CONTINUOUS
 10
15.2115168653
 20
12.6626172458
 11
15.1996739959
 21
12.6626172458
  0
LINE
  5
3B6
100
AcDbEntity
  8
LAYER_FEATURE
100
AcDbLine
 62
7
  6
CONTINUOUS
 10
15.8671263581
 20
13.0274419702
 11
15.8671585358
 21
13.0275518598
  0
LINE
  5
3B7
100
AcDbEntity
  8
LAYER_CUT_FEAT
100
AcDbLine
 62
7
  6
CONTINUOUS
 10
15.7790491601
 20
12.8379853896
 11
15.8426064585
 21
13.0436568827
  0
LINE
  5
3B8
100
AcDbEntity
  8
LAYER_CUT_FEAT
100
AcDbLine
 62
7
  6
CONTINUOUS
 10
15.8025359925
 20
12.8267306748
 11
15.8660013042
 21
13.0321044989
  0
LINE
  5
3B9
100
AcDbEntity
  8
LAYER_CUT_FEAT
100
AcDbLine
 62
7
  6
CONTINUOUS
 10
15.8671263515
 20
13.0274419722
 11
15.8047588008
 21
12.8256205041
  0
LINE
  5
3BA
100
AcDbEntity
  8
LAYER_CUT_FEAT
100
AcDbLine
 62
7
  6
CONTINUOUS
 10
15.2182660975
 20
12.7135892632
 11
15.1746605628
 21
12.7135892632
  0
LINE
  5
3BB
100
AcDbEntity
  8
LAYER_CUT_FEAT
100
AcDbLine
 62
7
  6
CONTINUOUS
 10
15.8781203228
 20
12.7866814528
 11
15.941223746
 21
12.9908842052
  0
LINE
  5
3BC
100
AcDbEntity
  8
LAYER_FEATURE
100
AcDbLine
 62
7
  6
CONTINUOUS
 10
15.9819008316
 20
12.3517369276
 11
15.9943060796
 21
12.3368748182
  0
LINE
  5
3BD
100
AcDbEntity
  8
LAYER_CUT_FEAT
100
AcDbLine
 62
7
  6
CONTINUOUS
 10
15.899850381
 20
12.7739913713
 11
15.9628256271
 21
12.9777793424
  0
LINE
  5
3BE
100
AcDbEntity
  8
LAYER_CUT_FEAT
100
AcDbLine
 62
7
  6
CONTINUOUS
 10
15.9633119499
 20
12.9741358556
 11
15.9012120494
 21
12.7731805039
  0
LINE
  5
3BF
100
AcDbEntity
  8
LAYER_CUT_FEAT
100
AcDbLine
 62
7
  6
CONTINUOUS
 10
15.9663599949
 20
12.2600243313
 11
15.9808015072
 21
12.2305956233
  0
LINE
  5
3C0
100
AcDbEntity
  8
LAYER_CUT_FEAT
100
AcDbLine
 62
7
  6
CONTINUOUS
 10
16.0006509457
 20
12.2948284299
 11
15.9862094334
 21
12.3242571379
  0
LINE
  5
3C1
100
AcDbEntity
  8
LAYER_CUT_FEAT
100
AcDbLine
 62
7
  6
CONTINUOUS
 10
15.9689645755
 20
12.7299139789
 11
16.0313504687
 21
12.9317948034
  0
LINE
  5
3C2
100
AcDbEntity
  8
LAYER_CUT_FEAT
100
AcDbLine
 62
7
  6
CONTINUOUS
 10
15.9885310889
 20
12.7160878885
 11
16.050738929
 21
12.9173925328
  0
LINE
  5
3C3
100
AcDbEntity
  8
LAYER_CUT_FEAT
100
AcDbLine
 62
7
  6
CONTINUOUS
 10
16.0507964966
 20
12.9147711917
 11
15.9892430123
 21
12.7155840438
  0
LINE
  5
3C4
100
AcDbEntity
  8
LAYER_CUT_FEAT
100
AcDbLine
 62
7
  6
CONTINUOUS
 10
15.969063958
 20
12.3068550885
 11
15.9663599949
 21
12.2600243313
  0
LINE
  5
3C5
100
AcDbEntity
  8
LAYER_CUT_FEAT
100
AcDbLine
 62
7
  6
CONTINUOUS
 10
15.9979469826
 20
12.2479976726
 11
16.0006509457
 21
12.2948284299
  0
LINE
  5
3C6
100
AcDbEntity
  8
LAYER_CUT_FEAT
100
AcDbLine
 62
7
  6
CONTINUOUS
 10
16.0498491161
 20
12.668902366
 11
16.1112324123
 21
12.8675387852
  0
LINE
  5
3C7
100
AcDbEntity
  8
LAYER_CUT_FEAT
100
AcDbLine
 62
7
  6
CONTINUOUS
 10
16.066947735
 20
12.6544568975
 11
16.1280300776
 21
12.8521194307
  0
LINE
  5
3C8
100
AcDbEntity
  8
LAYER_CUT_FEAT
100
AcDbLine
 62
7
  6
CONTINUOUS
 10
16.1278772043
 20
12.8505034461
 11
16.0672225039
 21
12.6542247638
  0
LINE
  5
3C9
100
AcDbEntity
  8
LAYER_CUT_FEAT
100
AcDbLine
 62
7
  6
CONTINUOUS
 10
15.9862094334
 20
12.3242571379
 11
15.969063958
 21
12.3068550885
  0
LINE
  5
3CA
100
AcDbEntity
  8
LAYER_CUT_FEAT
100
AcDbLine
 62
7
  6
CONTINUOUS
 10
15.9808015072
 20
12.2305956233
 11
15.9979469826
 21
12.2479976726
  0
LINE
  5
3CB
100
AcDbEntity
  8
LAYER_CUT_FEAT
100
AcDbLine
 62
7
  6
CONTINUOUS
 10
16.119393052
 20
12.6054600843
 11
16.1793147657
 21
12.799366821
  0
LINE
  5
3CC
100
AcDbEntity
  8
LAYER_CUT_FEAT
100
AcDbLine
 62
7
  6
CONTINUOUS
 10
16.1337319352
 20
12.5908089623
 11
16.1931946886
 21
12.7832305027
  0
LINE
  5
3CD
100
AcDbEntity
  8
LAYER_CUT_FEAT
100
AcDbLine
 62
7
  6
CONTINUOUS
 10
16.1930537848
 20
12.7825835175
 11
16.1337760522
 21
12.5907607044
  0
LINE
  5
3CE
100
AcDbEntity
  8
02___PRT_ALL_AXES
100
AcDbLine
 62
7
  6
CONTINUOUS
 10
15.9688032255
 20
11.9656665719
 11
16.0428755204
 21
12.2053646063
  0
LINE
  5
3CF
100
AcDbEntity
  8
LAYER_FEATURE
100
AcDbLine
 62
7
  6
CONTINUOUS
 10
15.9819008316
 20
12.2031158336
 11
15.9943060796
 21
12.217977943
  0
LINE
  5
3D0
100
AcDbEntity
  8
LAYER_FEATURE
100
AcDbLine
 62
7
  6
CONTINUOUS
 10
16.1930537842
 20
12.7825835177
 11
16.1931946886
 21
12.7832305027
  0
LINE
  5
3D1
100
AcDbEntity
  8
LAYER_CUT_FEAT
100
AcDbLine
 62
7
  6
CONTINUOUS
 10
16.1764955361
 20
12.5416398542
 11
16.2342723834
 21
12.7286058004
  0
LINE
  5
3D2
100
AcDbEntity
  8
LAYER_CUT_FEAT
100
AcDbLine
 62
7
  6
CONTINUOUS
 10
16.1878522123
 20
12.5272514641
 11
16.2449644069
 21
12.7120665934
  0
LINE
  5
3D3
100
AcDbEntity
  8
LAYER_CUT_FEAT
100
AcDbLine
 62
7
  6
CONTINUOUS
 10
16.1145320837
 20
12.1832210534
 11
16.1202206423
 21
12.2016292358
  0
LINE
  5
3D4
100
AcDbEntity
  8
LAYER_CUT_FEAT
100
AcDbLine
 62
7
  6
CONTINUOUS
 10
16.2204949343
 20
12.4801394194
 11
16.2750355777
 21
12.6566330063
  0
LINE
  5
3D5
100
AcDbEntity
  8
LAYER_CUT_FEAT
100
AcDbLine
 62
7
  6
CONTINUOUS
 10
16.2287413304
 20
12.4665946716
 11
16.2823315938
 21
12.6400128274
  0
LINE
  5
3D6
100
AcDbEntity
  8
LAYER_CUT_FEAT
100
AcDbLine
 62
7
  6
CONTINUOUS
 10
16.2512716218
 20
12.4245400158
 11
16.3008109396
 21
12.5848493072
  0
LINE
  5
3D7
100
AcDbEntity
  8
LAYER_CUT_FEAT
100
AcDbLine
 62
7
  6
CONTINUOUS
 10
16.2565816704
 20
12.4131847892
 11
16.3045689396
 21
12.5684716494
  0
LINE
  5
3D8
100
AcDbEntity
  8
LAYER_CUT_FEAT
100
AcDbLine
 62
7
  6
CONTINUOUS
 10
16.269710677
 20
12.3807264097
 11
16.311096781
 21
12.5146518912
  0
LINE
  5
3D9
100
AcDbEntity
  8
LAYER_CUT_FEAT
100
AcDbLine
 62
7
  6
CONTINUOUS
 10
16.2724485929
 20
12.3732947746
 11
16.3112436196
 21
12.4988355269
  0
LINE
  5
3DA
100
AcDbEntity
  8
LAYER_CUT_FEAT
100
AcDbLine
 62
7
  6
CONTINUOUS
 10
16.2776535205
 20
12.3566716075
 11
16.3056928995
 21
12.4474070711
  0
LINE
  5
3DB
100
AcDbEntity
  8
LAYER_CUT_FEAT
100
AcDbLine
 62
7
  6
CONTINUOUS
 10
16.2782332366
 20
12.3548201471
 11
16.3022257188
 21
12.4324598479
  0
LINE
  5
3DC
100
AcDbEntity
  8
LAYER_FEATURE
100
AcDbLine
 62
7
  6
CONTINUOUS
 10
16.2702656814
 20
12.1350957319
 11
16.2799483343
 21
12.1664288083
  0
LINE
  5
3DD
100
AcDbEntity
  8
LAYER_FEATURE
100
AcDbLine
 62
7
  6
CONTINUOUS
 10
16.359104022
 20
12.4225767077
 11
16.368786675
 21
12.4539097841
  0
CIRCLE
  5
3DE
100
AcDbEntity
  8
LAYER_FEATURE
100
AcDbCircle
 62
7
  6
CONTINUOUS
 10
6.1303672762
 20
5.5201198968
 40
0.888
  0
CIRCLE
  5
3DF
100
AcDbEntity
  8
LAYER_FEATURE
100
AcDbCircle
 62
7
  6
CONTINUOUS
 10
6.1303672762
 20
5.5201198968
 40
0.825
  0
CIRCLE
  5
3E0
100
AcDbEntity
  8
LAYER_CUT_FEAT
100
AcDbCircle
 62
7
  6
CONTINUOUS
 10
6.1303672762
 20
5.5201198968
 40
0.725
  0
CIRCLE
  5
3E1
100
AcDbEntity
  8
02___PRT_ALL_AXES
100
AcDbCircle
 62
7
  6
CONTINUOUS
 10
6.1303672762
 20
5.5201198968
 40
0.65
  0
CIRCLE
  5
3E2
100
AcDbEntity
  8
LAYER_CHAMFER_FEAT
100
AcDbCircle
 62
7
  6
CONTINUOUS
 10
6.1303672762
 20
5.5201198968
 40
0.14375
  0
CIRCLE
  5
3E3
100
AcDbEntity
  8
LAYER_CHAMFER_FEAT
100
AcDbCircle
 62
7
  6
CONTINUOUS
 10
6.1303672762
 20
5.5201198968
 40
0.125
  0
CIRCLE
  5
3E4
100
AcDbEntity
  8
02___PRT_ALL_AXES
100
AcDbCircle
 62
7
  6
CONTINUOUS
 10
6.0708720839
 20
12.3965477814
 40
0.082
  0
CIRCLE
  5
3E5
100
AcDbEntity
  8
LAYER_FEATURE
100
AcDbCircle
 62
7
  6
CONTINUOUS
 10
6.0708720839
 20
12.3965477814
 40
0.0656
  0
CIRCLE
  5
3E6
100
AcDbEntity
  8
02___PRT_ALL_AXES
100
AcDbCircle
 62
7
  6
CONTINUOUS
 10
15.3568552569
 20
5.4606247044
 40
0.082
  0
CIRCLE
  5
3E7
100
AcDbEntity
  8
LAYER_FEATURE
100
AcDbCircle
 62
7
  6
CONTINUOUS
 10
15.3568552569
 20
5.4606247044
 40
0.0656
  0
ARC
  5
3E8
100
AcDbEntity
  8
LAYER_CUT_FEAT
100
AcDbCircle
 62
7
  6
CONTINUOUS
 10
15.2169987966
 20
11.734370712
 40
1.4512441471
100
AcDbArc
 50
72.5042087016
 51
73.5604544663
  0
ARC
  5
3E9
100
AcDbEntity
  8
LAYER_FEATURE
100
AcDbCircle
 62
7
  6
CONTINUOUS
 10
15.2210395835
 20
11.7470342366
 40
1.4345160597
100
AcDbArc
 50
69.1463823289
 51
72.3341715391
  0
ARC
  5
3EA
100
AcDbEntity
  8
LAYER_FEATURE
100
AcDbCircle
 62
7
  6
CONTINUOUS
 10
15.2214575026
 20
11.7495393103
 40
1.4319977239
100
AcDbArc
 50
73.7299665279
 51
76.9214930191
  0
ARC
  5
3EB
100
AcDbEntity
  8
LAYER_CUT_FEAT
100
AcDbCircle
 62
7
  6
CONTINUOUS
 10
15.2254488787
 20
11.7575448715
 40
1.4265739993
100
AcDbArc
 50
67.9004375835
 51
68.9685571477
  0
ARC
  5
3EC
100
AcDbEntity
  8
LAYER_CUT_FEAT
100
AcDbCircle
 62
7
  6
CONTINUOUS
 10
15.224652667
 20
11.7652515872
 40
1.4194230048
100
AcDbArc
 50
77.0994446221
 51
78.1716886497
  0
ARC
  5
3ED
100
AcDbEntity
  8
LAYER_FEATURE
100
AcDbCircle
 62
7
  6
CONTINUOUS
 10
15.2407731299
 20
11.7960884609
 40
1.3816349185
100
AcDbArc
 50
64.4653314646
 51
67.7339723455
  0
ARC
  5
3EE
100
AcDbEntity
  8
LAYER_FEATURE
100
AcDbCircle
 62
7
  6
CONTINUOUS
 10
15.2334830926
 20
11.8058899234
 40
1.3743709483
100
AcDbArc
 50
78.3371881979
 51
81.6173392191
  0
ARC
  5
3EF
100
AcDbEntity
  8
LAYER_CUT_FEAT
100
AcDbCircle
 62
7
  6
CONTINUOUS
 10
15.2573753475
 20
11.829034859
 40
1.3482589194
100
AcDbArc
 50
63.1654159207
 51
64.2742290139
  0
ARC
  5
3F0
100
AcDbEntity
  8
LAYER_CUT_FEAT
100
AcDbCircle
 62
7
  6
CONTINUOUS
 10
15.23890934
 20
11.8486644669
 40
1.334778597
100
AcDbArc
 50
81.8081795185
 51
82.9255706523
  0
ARC
  5
3F1
100
AcDbEntity
  8
LAYER_FEATURE
100
AcDbCircle
 62
7
  6
CONTINUOUS
 10
15.2862810064
 20
11.8875910556
 40
1.2794253941
100
AcDbArc
 50
59.557932825
 51
62.9984642637
  0
ARC
  5
3F2
100
AcDbEntity
  8
LAYER_FEATURE
100
AcDbCircle
 62
7
  6
CONTINUOUS
 10
15.2472938191
 20
11.9110993916
 40
1.2682429763
100
AcDbArc
 50
83.0910393188
 51
86.5517708876
  0
ARC
  5
3F3
100
AcDbEntity
  8
LAYER_CUT_FEAT
100
AcDbCircle
 62
7
  6
CONTINUOUS
 10
15.3165752673
 20
11.9368654249
 40
1.2252107212
100
AcDbArc
 50
58.1659634039
 51
59.3475314331
  0
ARC
  5
3F4
100
AcDbEntity
  8
LAYER_CUT_FEAT
100
AcDbCircle
 62
7
  6
CONTINUOUS
 10
15.2499409877
 20
11.9760132677
 40
1.2069151025
100
AcDbArc
 50
86.7615006772
 51
87.9567811531
  0
ARC
  5
3F5
100
AcDbEntity
  8
LAYER_FEATURE
100
AcDbCircle
 62
7
  6
CONTINUOUS
 10
15.253270195
 20
12.0310702461
 40
1.1481061712
100
AcDbArc
 50
88.1503847095
 51
89.9964059319
  0
ARC
  5
3F6
100
AcDbEntity
  8
LAYER_FEATURE
100
AcDbCircle
 62
7
  6
CONTINUOUS
 10
15.3591537638
 20
12.007247469
 40
1.1393009727
100
AcDbArc
 50
54.2772530751
 51
57.9899066181
  0
ARC
  5
3F7
100
AcDbEntity
  8
LAYER_FEATURE
100
AcDbCircle
 62
7
  6
CONTINUOUS
 10
15.2532670565
 20
12.0761489196
 40
1.1030274979
100
AcDbArc
 50
89.9960960244
 51
91.8927178914
  0
ARC
  5
3F8
100
AcDbEntity
  8
LAYER_CUT_FEAT
100
AcDbCircle
 62
7
  6
CONTINUOUS
 10
15.4024323846
 20
12.0648882844
 40
1.0710111433
100
AcDbArc
 50
52.7479879129
 51
54.0400931975
  0
ARC
  5
3F9
100
AcDbEntity
  8
LAYER_CUT_FEAT
100
AcDbCircle
 62
7
  6
CONTINUOUS
 10
15.24943571
 20
12.1330016606
 40
1.0498711242
100
AcDbArc
 50
92.1098806731
 51
93.4218929564
  0
ARC
  5
3FA
100
AcDbEntity
  8
LAYER_FEATURE
100
AcDbCircle
 62
7
  6
CONTINUOUS
 10
15.2455224687
 20
12.2178756967
 40
0.9610651683
100
AcDbArc
 50
93.6271012999
 51
97.7629529753
  0
ARC
  5
3FB
100
AcDbEntity
  8
LAYER_CUT_FEAT
100
AcDbCircle
 62
7
  6
CONTINUOUS
 10
15.2321594033
 20
12.3019548237
 40
0.8799636694
100
AcDbArc
 50
98.0342440727
 51
99.5104723188
  0
ARC
  5
3FC
100
AcDbEntity
  8
LAYER_FEATURE
100
AcDbCircle
 62
7
  6
CONTINUOUS
 10
15.2195334854
 20
12.3853153488
 40
0.7915737122
100
AcDbArc
 50
99.7803684535
 51
104.4390655017
  0
ARC
  5
3FD
100
AcDbEntity
  8
LAYER_FEATURE
100
AcDbCircle
 62
7
  6
CONTINUOUS
 10
14.5466808491
 20
12.2343726316
 40
0.7850381071
100
AcDbArc
 50
73.6291228374
 51
74.3804142642
  0
ARC
  5
3FE
100
AcDbEntity
  8
LAYER_FEATURE
100
AcDbCircle
 62
7
  6
CONTINUOUS
 10
14.536627058
 20
12.3131605041
 40
0.7771540587
100
AcDbArc
 50
69.0376265796
 51
69.7941260513
  0
ARC
  5
3FF
100
AcDbEntity
  8
LAYER_FEATURE
100
AcDbCircle
 62
7
  6
CONTINUOUS
 10
14.5807997156
 20
12.1865757546
 40
0.7594003214
100
AcDbArc
 50
78.8781204606
 51
79.008461898
  0
ARC
  5
400
100
AcDbEntity
  8
LAYER_FEATURE
100
AcDbCircle
 62
7
  6
CONTINUOUS
 10
14.554563009
 20
12.4161540293
 40
0.7396872847
100
AcDbArc
 50
64.345544011
 51
65.1275184461
  0
ARC
  5
401
100
AcDbEntity
  8
LAYER_CUT_FEAT
100
AcDbCircle
 62
7
  6
CONTINUOUS
 10
15.1969643607
 20
12.464691155
 40
0.7133719794
100
AcDbArc
 50
104.7562293861
 51
106.4544969541
  0
ARC
  5
402
100
AcDbEntity
  8
LAYER_FEATURE
100
AcDbCircle
 62
7
  6
CONTINUOUS
 10
14.6028753181
 20
12.5360711982
 40
0.6769166631
100
AcDbArc
 50
59.4231156126
 51
60.252862682
  0
ARC
  5
403
100
AcDbEntity
  8
LAYER_FEATURE
100
AcDbCircle
 62
7
  6
CONTINUOUS
 10
15.1765234339
 20
12.538762029
 40
0.6321528857
100
AcDbArc
 50
106.8529835075
 51
112.1677063997
  0
ARC
  5
404
100
AcDbEntity
  8
LAYER_FEATURE
100
AcDbCircle
 62
7
  6
CONTINUOUS
 10
14.6813056938
 20
12.6632163753
 40
0.5958182061
100
AcDbArc
 50
54.1223079282
 51
55.0258954448
  0
ARC
  5
405
100
AcDbEntity
  8
LAYER_CUT_FEAT
100
AcDbCircle
 62
7
  6
CONTINUOUS
 10
15.1470681942
 20
12.6054514012
 40
0.5639175737
100
AcDbArc
 50
112.5416316657
 51
114.5283189135
  0
ARC
  5
406
100
AcDbEntity
  8
LAYER_FEATURE
100
AcDbCircle
 62
7
  6
CONTINUOUS
 10
14.7868380297
 20
12.7869418953
 40
0.5049862599
100
AcDbArc
 50
48.2658071953
 51
49.2749049483
  0
ARC
  5
407
100
AcDbEntity
  8
LAYER_CUT_FEAT
100
AcDbCircle
 62
7
  6
CONTINUOUS
 10
15.0895533165
 20
12.7133825534
 40
0.4414918138
100
AcDbArc
 50
121.6809822967
 51
124.0197751846
  0
ARC
  5
408
100
AcDbEntity
  8
LAYER_FEATURE
100
AcDbCircle
 62
7
  6
CONTINUOUS
 10
14.9140146678
 20
12.8972684828
 40
0.4133429232
100
AcDbArc
 50
41.6365518531
 51
42.789946428
  0
ARC
  5
409
100
AcDbEntity
  8
LAYER_FEATURE
100
AcDbCircle
 62
7
  6
CONTINUOUS
 10
15.0632306855
 20
12.7542804798
 40
0.3877010185
100
AcDbArc
 50
125.1614242672
 51
131.9175126587
  0
ARC
  5
40A
100
AcDbEntity
  8
LAYER_CUT_FEAT
100
AcDbCircle
 62
7
  6
CONTINUOUS
 10
15.0341723816
 20
12.7841520038
 40
0.3515016177
100
AcDbArc
 50
132.4153160481
 51
135.1373831736
  0
ARC
  5
40B
100
AcDbEntity
  8
LAYER_FEATURE
100
AcDbCircle
 62
7
  6
CONTINUOUS
 10
15.0556311361
 20
12.9863885991
 40
0.3288764282
100
AcDbArc
 50
33.9731910854
 51
35.3166077703
  0
ARC
  5
40C
100
AcDbEntity
  8
LAYER_FEATURE
100
AcDbCircle
 62
7
  6
CONTINUOUS
 10
15.0121134085
 20
12.8070581152
 40
0.3141338833
100
AcDbArc
 50
137.3150590605
 51
144.2395340668
  0
ARC
  5
40D
100
AcDbEntity
  8
LAYER_CUT_FEAT
100
AcDbCircle
 62
7
  6
CONTINUOUS
 10
14.9916657244
 20
12.8204177398
 40
0.2955246661
100
AcDbArc
 50
144.7723547276
 51
147.8266839774
  0
ARC
  5
40E
100
AcDbEntity
  8
LAYER_FEATURE
100
AcDbCircle
 62
7
  6
CONTINUOUS
 10
14.9791436612
 20
12.8284927242
 40
0.274726329
100
AcDbArc
 50
153.6341167895
 51
157.8235440881
  0
ARC
  5
40F
100
AcDbEntity
  8
LAYER_CUT_FEAT
100
AcDbCircle
 62
7
  6
CONTINUOUS
 10
14.9718815723
 20
12.8310788758
 40
0.2730097577
100
AcDbArc
 50
158.3516131945
 51
161.5693889541
  0
ARC
  5
410
100
AcDbEntity
  8
LAYER_FEATURE
100
AcDbCircle
 62
7
  6
CONTINUOUS
 10
15.2036940843
 20
13.0497970991
 40
0.2576577352
100
AcDbArc
 50
24.9861895729
 51
26.5670169041
  0
ARC
  5
411
100
AcDbEntity
  8
LAYER_FEATURE
100
AcDbCircle
 62
7
  6
CONTINUOUS
 10
15.3504823812
 20
13.0868579686
 40
0.2033541982
100
AcDbArc
 50
14.4247676984
 51
16.2756062598
  0
ARC
  5
412
100
AcDbEntity
  8
LAYER_FEATURE
100
AcDbCircle
 62
7
  6
CONTINUOUS
 10
14.7866850251
 20
13.0513673487
 40
0.0664795805
100
AcDbArc
 50
253.6285206432
 51
256.3671815605
  0
ARC
  5
413
100
AcDbEntity
  8
LAYER_FEATURE
100
AcDbCircle
 62
7
  6
CONTINUOUS
 10
14.7979620253
 20
13.0232228502
 40
0.0205270036
100
AcDbArc
 50
69.7947538873
 51
72.2407465737
  0
ARC
  5
414
100
AcDbEntity
  8
LAYER_FEATURE
100
AcDbCircle
 62
7
  6
CONTINUOUS
 10
14.7525376117
 20
12.9706980349
 40
0.0204780334
100
AcDbArc
 50
74.3795150537
 51
76.8279817465
  0
ARC
  5
415
100
AcDbEntity
  8
LAYER_FEATURE
100
AcDbCircle
 62
7
  6
CONTINUOUS
 10
14.8573556157
 20
13.0692842687
 40
0.0197827965
100
AcDbArc
 50
65.1297224844
 51
67.6381488306
  0
ARC
  5
416
100
AcDbEntity
  8
LAYER_FEATURE
100
AcDbCircle
 62
7
  6
CONTINUOUS
 10
14.7218440007
 20
12.9127641313
 40
0.019641544
100
AcDbArc
 50
79.0052040631
 51
81.5212498932
  0
ARC
  5
417
100
AcDbEntity
  8
LAYER_FEATURE
100
AcDbCircle
 62
7
  6
CONTINUOUS
 10
14.9296489926
 20
13.1078703109
 40
0.0183308603
100
AcDbArc
 50
60.2568177182
 51
62.8975660644
  0
ARC
  5
418
100
AcDbEntity
  8
LAYER_FEATURE
100
AcDbCircle
 62
7
  6
CONTINUOUS
 10
15.0134708349
 20
13.1380509844
 40
0.0163343092
100
AcDbArc
 50
55.0319126376
 51
57.8853638065
  0
ARC
  5
419
100
AcDbEntity
  8
LAYER_FEATURE
100
AcDbCircle
 62
7
  6
CONTINUOUS
 10
15.107168394
 20
13.1590273294
 40
0.0140085493
100
AcDbArc
 50
49.2834387643
 51
52.4463844408
  0
ARC
  5
41A
100
AcDbEntity
  8
LAYER_FEATURE
100
AcDbCircle
 62
7
  6
CONTINUOUS
 10
15.2088433376
 20
13.1701835439
 40
0.0115885519
100
AcDbArc
 50
42.8015658231
 51
46.392707173
  0
ARC
  5
41B
100
AcDbEntity
  8
LAYER_FEATURE
100
AcDbCircle
 62
7
  6
CONTINUOUS
 10
15.3164015997
 20
13.1711348524
 40
0.0092948069
100
AcDbArc
 50
35.3318499644
 51
39.4936430522
  0
ARC
  5
41C
100
AcDbEntity
  8
LAYER_FEATURE
100
AcDbCircle
 62
7
  6
CONTINUOUS
 10
15.4565407845
 20
12.1380329857
 40
0.976205208
100
AcDbArc
 50
48.4471408547
 51
52.5427611491
  0
ARC
  5
41D
100
AcDbEntity
  8
LAYER_CUT_FEAT
100
AcDbCircle
 62
7
  6
CONTINUOUS
 10
15.5098364935
 20
12.1955258038
 40
0.9018195486
100
AcDbArc
 50
46.7253822966
 51
48.1740941242
  0
ARC
  5
41E
100
AcDbEntity
  8
LAYER_FEATURE
100
AcDbCircle
 62
7
  6
CONTINUOUS
 10
15.5713678405
 20
12.2629008473
 40
0.806520905
100
AcDbArc
 50
41.8515300934
 51
46.4579475488
  0
ARC
  5
41F
100
AcDbEntity
  8
LAYER_FEATURE
100
AcDbCircle
 62
7
  6
CONTINUOUS
 10
16.0575243633
 20
11.7729683447
 40
0.7854447583
100
AcDbArc
 50
71.6845917821
 51
72.4356809351
  0
ARC
  5
420
100
AcDbEntity
  8
LAYER_FEATURE
100
AcDbCircle
 62
7
  6
CONTINUOUS
 10
16.1094759547
 20
11.8348229807
 40
0.7756615628
100
AcDbArc
 50
76.2735021004
 51
77.0307580915
  0
ARC
  5
421
100
AcDbEntity
  8
LAYER_FEATURE
100
AcDbCircle
 62
7
  6
CONTINUOUS
 10
16.002316648
 20
11.7491909294
 40
0.7629079254
100
AcDbArc
 50
67.0652828442
 51
67.2745468763
  0
ARC
  5
422
100
AcDbEntity
  8
LAYER_FEATURE
100
AcDbCircle
 62
7
  6
CONTINUOUS
 10
16.1515691641
 20
11.9322504747
 40
0.7364676082
100
AcDbArc
 50
80.9537701346
 51
81.7375202605
  0
ARC
  5
423
100
AcDbEntity
  8
LAYER_CUT_FEAT
100
AcDbCircle
 62
7
  6
CONTINUOUS
 10
15.6298774996
 20
12.3127215252
 40
0.7339652262
100
AcDbArc
 50
39.8702178811
 51
41.531821002
  0
ARC
  5
424
100
AcDbEntity
  8
LAYER_FEATURE
100
AcDbCircle
 62
7
  6
CONTINUOUS
 10
16.1777546521
 20
12.0603420064
 40
0.6723336883
100
AcDbArc
 50
85.854213692
 51
86.6868968635
  0
ARC
  5
425
100
AcDbEntity
  8
LAYER_FEATURE
100
AcDbCircle
 62
7
  6
CONTINUOUS
 10
15.6933758281
 20
12.3676576819
 40
0.6456515173
100
AcDbArc
 50
34.228793609
 51
39.4800146594
  0
ARC
  5
426
100
AcDbEntity
  8
LAYER_FEATURE
100
AcDbCircle
 62
7
  6
CONTINUOUS
 10
16.1828672856
 20
12.2107604134
 40
0.5903709458
100
AcDbArc
 50
91.1211321123
 51
92.0290451361
  0
ARC
  5
427
100
AcDbEntity
  8
LAYER_CUT_FEAT
100
AcDbCircle
 62
7
  6
CONTINUOUS
 10
15.7511980634
 20
12.4045893979
 40
0.5816763943
100
AcDbArc
 50
31.9112655001
 51
33.8512670917
  0
ARC
  5
428
100
AcDbEntity
  8
LAYER_FEATURE
100
AcDbCircle
 62
7
  6
CONTINUOUS
 10
16.1635316431
 20
12.3729129487
 40
0.4992325902
100
AcDbArc
 50
96.9292724876
 51
97.9444007229
  0
ARC
  5
429
100
AcDbEntity
  8
LAYER_FEATURE
100
AcDbCircle
 62
7
  6
CONTINUOUS
 10
16.2919569862
 20
12.4336997063
 40
0.0196422994
100
AcDbArc
 50
64.5544355238
 51
67.0749884891
  0
ARC
  5
42A
100
AcDbEntity
  8
LAYER_CUT_FEAT
100
AcDbCircle
 62
7
  6
CONTINUOUS
 10
15.8617744071
 20
12.4653058693
 40
0.4554018758
100
AcDbArc
 50
22.5588701216
 51
24.8426769221
  0
ARC
  5
42B
100
AcDbEntity
  8
LAYER_FEATURE
100
AcDbCircle
 62
7
  6
CONTINUOUS
 10
16.1187941483
 20
12.5354828058
 40
0.4078178369
100
AcDbArc
 50
103.4924499708
 51
104.653943329
  0
ARC
  5
42C
100
AcDbEntity
  8
LAYER_FEATURE
100
AcDbCircle
 62
7
  6
CONTINUOUS
 10
15.9115050517
 20
12.4872280398
 40
0.3959381586
100
AcDbArc
 50
14.7605676948
 51
21.4651060271
  0
ARC
  5
42D
100
AcDbEntity
  8
LAYER_CUT_FEAT
100
AcDbCircle
 62
7
  6
CONTINUOUS
 10
15.9508210948
 20
12.4959210272
 40
0.361110967
100
AcDbArc
 50
11.5901488818
 51
14.2564870091
  0
ARC
  5
42E
100
AcDbEntity
  8
LAYER_FEATURE
100
AcDbCircle
 62
7
  6
CONTINUOUS
 10
16.0503715855
 20
12.6880604481
 40
0.3240204113
100
AcDbArc
 50
111.0688837587
 51
112.4227317966
  0
ARC
  5
42F
100
AcDbEntity
  8
LAYER_FEATURE
100
AcDbCircle
 62
7
  6
CONTINUOUS
 10
15.9861825347
 20
12.5039674623
 40
0.3193144799
100
AcDbArc
 50
2.5780712964
 51
9.5350279593
  0
ARC
  5
430
100
AcDbEntity
  8
LAYER_CUT_FEAT
100
AcDbCircle
 62
7
  6
CONTINUOUS
 10
16.0104936954
 20
12.5039522374
 40
0.3007934468
100
AcDbArc
 50
359.0253110199
 51
2.0385230036
  0
ARC
  5
431
100
AcDbEntity
  8
LAYER_FEATURE
100
AcDbCircle
 62
7
  6
CONTINUOUS
 10
16.028573608
 20
12.5038979026
 40
0.2768389461
100
AcDbArc
 50
349.0763222042
 51
353.9166823653
  0
ARC
  5
432
100
AcDbEntity
  8
LAYER_CUT_FEAT
100
AcDbCircle
 62
7
  6
CONTINUOUS
 10
16.037098169
 20
12.5018349765
 40
0.2740538745
100
AcDbArc
 50
345.3363562904
 51
348.5447253031
  0
ARC
  5
433
100
AcDbEntity
  8
LAYER_FEATURE
100
AcDbCircle
 62
7
  6
CONTINUOUS
 10
15.9624714002
 20
12.8225989948
 40
0.2537701587
100
AcDbArc
 50
119.9474640038
 51
121.5408375419
  0
ARC
  5
434
100
AcDbEntity
  8
LAYER_FEATURE
100
AcDbCircle
 62
7
  6
CONTINUOUS
 10
15.8612125751
 20
12.9344487272
 40
0.2005833329
100
AcDbArc
 50
130.3859672521
 51
132.250056425
  0
ARC
  5
435
100
AcDbEntity
  8
LAYER_FEATURE
100
AcDbCircle
 62
7
  6
CONTINUOUS
 10
15.4895341485
 20
13.100713275
 40
0.1673813162
100
AcDbArc
 50
2.2306247822
 51
4.3373676882
  0
ARC
  5
436
100
AcDbEntity
  8
LAYER_FEATURE
100
AcDbCircle
 62
7
  6
CONTINUOUS
 10
15.7537443294
 20
13.0227987819
 40
0.1657556239
100
AcDbArc
 50
142.4643459948
 51
144.5818076525
  0
ARC
  5
437
100
AcDbEntity
  8
LAYER_FEATURE
100
AcDbCircle
 62
7
  6
CONTINUOUS
 10
15.6163958385
 20
13.0975539921
 40
0.1496758982
100
AcDbArc
 50
348.7523470336
 51
351.0210753936
  0
ARC
  5
438
100
AcDbEntity
  8
LAYER_FEATURE
100
AcDbCircle
 62
7
  6
CONTINUOUS
 10
15.6472115871
 20
13.0904567111
 40
0.149167643
100
AcDbArc
 50
155.8705082643
 51
158.1432528419
  0
ARC
  5
439
100
AcDbEntity
  8
LAYER_FEATURE
100
AcDbCircle
 62
7
  6
CONTINUOUS
 10
16.3145517604
 20
12.5849985185
 40
0.0662923412
100
AcDbArc
 50
248.7951150337
 51
252.441678716
  0
ARC
  5
43A
100
AcDbEntity
  8
LAYER_FEATURE
100
AcDbCircle
 62
7
  6
CONTINUOUS
 10
16.2886588514
 20
12.5683910017
 40
0.0205267723
100
AcDbArc
 50
73.825570449
 51
76.270331401
  0
ARC
  5
43B
100
AcDbEntity
  8
LAYER_FEATURE
100
AcDbCircle
 62
7
  6
CONTINUOUS
 10
16.2979143907
 20
12.4991820181
 40
0.0204783115
100
AcDbArc
 50
69.2375826606
 51
71.6876242252
  0
ARC
  5
43C
100
AcDbEntity
  8
LAYER_FEATURE
100
AcDbCircle
 62
7
  6
CONTINUOUS
 10
16.2642513103
 20
12.640022245
 40
0.0197820813
100
AcDbArc
 50
78.4398544932
 51
80.9441441624
  0
ARC
  5
43D
100
AcDbEntity
  8
LAYER_FEATURE
100
AcDbCircle
 62
7
  6
CONTINUOUS
 10
16.2250301636
 20
12.7126350307
 40
0.0183297415
100
AcDbArc
 50
83.2039894394
 51
85.8373663567
  0
ARC
  5
43E
100
AcDbEntity
  8
LAYER_FEATURE
100
AcDbCircle
 62
7
  6
CONTINUOUS
 10
16.1716283065
 20
12.7846884199
 40
0.0163329075
100
AcDbArc
 50
88.2534751426
 51
91.0957394522
  0
ARC
  5
43F
100
AcDbEntity
  8
LAYER_FEATURE
100
AcDbCircle
 62
7
  6
CONTINUOUS
 10
16.1049833786
 20
12.8545933084
 40
0.0140070081
100
AcDbArc
 50
93.7463328448
 51
96.8934339652
  0
ARC
  5
440
100
AcDbEntity
  8
LAYER_FEATURE
100
AcDbCircle
 62
7
  6
CONTINUOUS
 10
16.0263371109
 20
12.920775634
 40
0.0115870155
100
AcDbArc
 50
99.8742462699
 51
103.4438417669
  0
ARC
  5
441
100
AcDbEntity
  8
LAYER_FEATURE
100
AcDbCircle
 62
7
  6
CONTINUOUS
 10
15.9372207421
 20
12.9817439199
 40
0.0092934006
100
AcDbArc
 50
106.871861414
 51
111.0054497658
  0
ARC
  5
442
100
AcDbEntity
  8
LAYER_FEATURE
100
AcDbCircle
 62
7
  6
CONTINUOUS
 10
15.4276140386
 20
13.1617639803
 40
0.0073045283
100
AcDbArc
 50
26.5859525654
 51
31.4741408286
  0
ARC
  5
443
100
AcDbEntity
  8
LAYER_FEATURE
100
AcDbCircle
 62
7
  6
CONTINUOUS
 10
15.6259780158
 20
13.1209558568
 40
0.0046375279
100
AcDbArc
 50
135.8113155541
 51
142.387487501
  0
ARC
  5
444
100
AcDbEntity
  8
LAYER_FEATURE
100
AcDbCircle
 62
7
  6
CONTINUOUS
 10
15.7602630306
 20
13.0748211018
 40
0.004023733
100
AcDbArc
 50
351.0324582447
 51
358.2916264438
  0
ARC
  5
445
100
AcDbEntity
  8
LAYER_FEATURE
100
AcDbCircle
 62
7
  6
CONTINUOUS
 10
15.5147483793
 20
13.1497890922
 40
0.0040234645
100
AcDbArc
 50
148.5906224062
 51
155.8299655098
  0
SPLINE
  5
446
100
AcDbEntity
  8
02___PRT_ALL_AXES
100
AcDbSpline
 62
7
  6
CONTINUOUS
 70
0
 71
3
 72
19
 73
15
 74
0
 42
0.0000001
 43
0.0000001
 44
0.0000000001
 40
0.0
 40
0.0
 40
0.0
 40
0.0
 40
0.0382871075
 40
0.1469140869
 40
0.2226507936
 40
0.3089768213
 40
0.4026177183
 40
0.500000001
 40
0.5973822836
 40
0.6910231805
 40
0.777349208
 40
0.8530859145
 40
0.9617128932
 40
1.0
 40
1.0
 40
1.0
 40
1.0
 10
6.7208720839
 20
12.3145477814
 30
0.0
 10
6.7206094189
 20
12.3166298069
 30
0.0
 10
6.7196387415
 20
12.3246237451
 30
0.0
 10
6.7183856305
 20
12.3367646613
 30
0.0
 10
6.7172014752
 20
12.3515548913
 30
0.0
 10
6.7163675417
 20
12.3655465908
 30
0.0
 10
6.7158090943
 20
12.3807395618
 30
0.0
 10
6.7156127267
 20
12.3965477815
 30
0.0
 10
6.7158090943
 20
12.4123560012
 30
0.0
 10
6.7163675417
 20
12.4275489723
 30
0.0
 10
6.7172014752
 20
12.4415406717
 30
0.0
 10
6.7183856306
 20
12.4563309017
 30
0.0
 10
6.7196387415
 20
12.4684718178
 30
0.0
 10
6.7206094189
 20
12.4764657559
 30
0.0
 10
6.7208720839
 20
12.4785477814
 30
0.0
  0
SPLINE
  5
447
100
AcDbEntity
  8
02___PRT_ALL_AXES
100
AcDbSpline
 62
7
  6
CONTINUOUS
 70
0
 71
3
 72
19
 73
15
 74
0
 42
0.0000001
 43
0.0000001
 44
0.0000000001
 40
0.0
 40
0.0
 40
0.0
 40
0.0
 40
0.0382871083
 40
0.1469140878
 40
0.2226507942
 40
0.3089768215
 40
0.4026177181
 40
0.5000000006
 40
0.5973822826
 40
0.6910231791
 40
0.7773492065
 40
0.853085913
 40
0.961712892
 40
1.0
 40
1.0
 40
1.0
 40
1.0
 10
15.4388552569
 20
6.1106247044
 30
0.0
 10
15.4367732314
 20
6.1103620395
 30
0.0
 10
15.4287792931
 20
6.1093913621
 30
0.0
 10
15.4166383769
 20
6.1081382511
 30
0.0
 10
15.4018481469
 20
6.1069540958
 30
0.0
 10
15.3878564475
 20
6.1061201623
 30
0.0
 10
15.3726634765
 20
6.1055617149
 30
0.0
 10
15.3568552569
 20
6.1053653473
 30
0.0
 10
15.3410470372
 20
6.1055617149
 30
0.0
 10
15.3258540663
 20
6.1061201623
 30
0.0
 10
15.3118623669
 20
6.1069540958
 30
0.0
 10
15.2970721369
 20
6.1081382511
 30
0.0
 10
15.2849312207
 20
6.1093913621
 30
0.0
 10
15.2769372825
 20
6.1103620395
 30
0.0
 10
15.2748552569
 20
6.1106247044
 30
0.0
  0
SPLINE
  5
448
100
AcDbEntity
  8
02___PRT_ALL_AXES
100
AcDbSpline
 62
7
  6
CONTINUOUS
 70
0
 71
3
 72
49
 73
45
 74
0
 42
0.0000001
 43
0.0000001
 44
0.0000000001
 40
0.0
 40
0.0
 40
0.0
 40
0.0
 40
0.0137625321
 40
0.0280028592
 40
0.0427042717
 40
0.0578514148
 40
0.0894132624
 40
0.1225389937
 40
0.1570629119
 40
0.1928077288
 40
0.2295877884
 40
0.2672116509
 40
0.305484362
 40
0.3442093823
 40
0.3831902695
 40
0.4222321797
 40
0.4611432149
 40
0.4997358092
 40
0.537828028
 40
0.5752450978
 40
0.6118209106
 40
0.647399832
 40
0.68183855
 40
0.715008205
 40
0.7467966323
 40
0.7771109057
 40
0.8058801241
 40
0.8196723224
 40
0.8330635669
 40
0.8460527118
 40
0.8586408534
 40
0.8708312606
 40
0.8826297724
 40
0.894044824
 40
0.9050878222
 40
0.9157732574
 40
0.9261189776
 40
0.9458692686
 40
0.9553393848
 40
0.9645781534
 40
0.9736221729
 40
0.9825114279
 40
0.9912889363
 40
1.0
 40
1.0
 40
1.0
 40
1.0
 10
15.9636560318
 20
12.213193574
 30
0.0
 10
15.9633280531
 20
12.2138619242
 30
0.0
 10
15.9626783555
 20
12.2152305493
 30
0.0
 10
15.9617375402
 20
12.2173405967
 30
0.0
 10
15.9608150872
 20
12.2195401955
 30
0.0
 10
15.9595950295
 20
12.222630271
 30
0.0
 10
15.9581307948
 20
12.226694382
 30
0.0
 10
15.9564952439
 20
12.2318070568
 30
0.0
 10
15.9549710963
 20
12.2371895829
 30
0.0
 10
15.9535715515
 20
12.2428097136
 30
0.0
 10
15.9523097264
 20
12.2486340337
 30
0.0
 10
15.9511984852
 20
12.254628075
 30
0.0
 10
15.9502502628
 20
12.2607565572
 30
0.0
 10
15.9494768813
 20
12.2669835584
 30
0.0
 10
15.948889362
 20
12.2732726761
 30
0.0
 10
15.948497727
 20
12.2795871694
 30
0.0
 10
15.9483107964
 20
12.2858901002
 30
0.0
 10
15.9483359797
 20
12.2921444759
 30
0.0
 10
15.9485790685
 20
12.2983134161
 30
0.0
 10
15.9490440362
 20
12.304360335
 30
0.0
 10
15.9497328563
 20
12.3102491623
 30
0.0
 10
15.9506453429
 20
12.3159445834
 30
0.0
 10
15.9517790373
 20
12.3214123191
 30
0.0
 10
15.9531291261
 20
12.3266193815
 30
0.0
 10
15.9546884615
 20
12.3315344591
 30
0.0
 10
15.9564475011
 20
12.3361278528
 30
0.0
 10
15.9580926172
 20
12.3397141341
 30
0.0
 10
15.9595023605
 20
12.3423932423
 30
0.0
 10
15.9605864268
 20
12.3442773333
 30
0.0
 10
15.9617100628
 20
12.3460616073
 30
0.0
 10
15.9628710836
 20
12.3477434887
 30
0.0
 10
15.9640672847
 20
12.3493204832
 30
0.0
 10
15.9652962801
 20
12.3507903219
 30
0.0
 10
15.9665556995
 20
12.3521508482
 30
0.0
 10
15.9678429769
 20
12.3534000792
 30
0.0
 10
15.9691557391
 20
12.3545362789
 30
0.0
 10
15.9709086904
 20
12.3558771122
 30
0.0
 10
15.9727309436
 20
12.3570148397
 30
0.0
 10
15.9746065656
 20
12.3579186848
 30
0.0
 10
15.9760056794
 20
12.358467337
 30
0.0
 10
15.9774135603
 20
12.3588951211
 30
0.0
 10
15.9788274016
 20
12.3592012877
 30
0.0
 10
15.9802440474
 20
12.359385316
 30
0.0
 10
15.981190595
 20
12.3594263742
 30
0.0
 10
15.9816618222
 20
12.3594263757
 30
0.0
  0
SPLINE
  5
449
100
AcDbEntity
  8
02___PRT_ALL_AXES
100
AcDbSpline
 62
7
  6
CONTINUOUS
 70
0
 71
3
 72
23
 73
19
 74
0
 42
0.0000001
 43
0.0000001
 44
0.0000000001
 40
0.0
 40
0.0
 40
0.0
 40
0.0
 40
0.0736663175
 40
0.1458458633
 40
0.2164440558
 40
0.2853959302
 40
0.3526575616
 40
0.4182146492
 40
0.4820828865
 40
0.5443106156
 40
0.6049804666
 40
0.6642100277
 40
0.7221517576
 40
0.7789915022
 40
0.8349454464
 40
0.8902554756
 40
0.9451827752
 40
1.0
 40
1.0
 40
1.0
 40
1.0
 10
15.1666891723
 20
12.6172400534
 30
0.0
 10
15.1651703525
 20
12.6172400534
 30
0.0
 10
15.1621628368
 20
12.6173094391
 30
0.0
 10
15.1577099539
 20
12.617628392
 30
0.0
 10
15.1533751635
 20
12.6181604619
 30
0.0
 10
15.1491744469
 20
12.6189042451
 30
0.0
 10
15.1451228609
 20
12.6198578895
 30
0.0
 10
15.1412348283
 20
12.6210189562
 30
0.0
 10
15.1375239785
 20
12.6223845157
 30
0.0
 10
15.134003167
 20
12.6239511145
 30
0.0
 10
15.1306844573
 20
12.6257147813
 30
0.0
 10
15.1275791241
 20
12.6276710148
 30
0.0
 10
15.1246976604
 20
12.6298147549
 30
0.0
 10
15.1220497691
 20
12.6321403527
 30
0.0
 10
15.1196443672
 20
12.6346414881
 30
0.0
 10
15.1174894856
 20
12.6373112654
 30
0.0
 10
15.1155924664
 20
12.6401416616
 30
0.0
 10
15.1145042048
 20
12.6421295098
 30
0.0
 10
15.1140063019
 20
12.6431441227
 30
0.0
  0
SPLINE
  5
44A
100
AcDbEntity
  8
LAYER_CUT_FEAT
100
AcDbSpline
 62
7
  6
CONTINUOUS
 70
0
 71
3
 72
22
 73
18
 74
0
 42
0.0000001
 43
0.0000001
 44
0.0000000001
 40
0.0
 40
0.0
 40
0.0
 40
0.0
 40
0.1366597485
 40
0.2033578603
 40
0.2690189108
 40
0.3336939453
 40
0.397439736
 40
0.4603185607
 40
0.5223982843
 40
0.5837520906
 40
0.6444581889
 40
0.7045994949
 40
0.7642631638
 40
0.8235400294
 40
0.8825239984
 40
0.9413113567
 40
1.0
 40
1.0
 40
1.0
 40
1.0
 10
14.7465073248
 20
12.4136062215
 30
0.0
 10
14.7428080587
 20
12.4220713282
 30
0.0
 10
14.7377426911
 20
12.4348688255
 30
0.0
 10
14.7320342751
 20
12.452138651
 30
0.0
 10
14.728353973
 20
12.4649434209
 30
0.0
 10
14.7252438316
 20
12.477693012
 30
0.0
 10
14.722706359
 20
12.4903773156
 30
0.0
 10
14.7207438054
 20
12.5029858149
 30
0.0
 10
14.719357867
 20
12.515508144
 30
0.0
 10
14.7185497865
 20
12.5279339633
 30
0.0
 10
14.7183203544
 20
12.5402530014
 30
0.0
 10
14.7186698524
 20
12.552455046
 30
0.0
 10
14.7195980664
 20
12.5645299746
 30
0.0
 10
14.7211043089
 20
12.5764677143
 30
0.0
 10
14.7231874292
 20
12.5882584176
 30
0.0
 10
14.7258456006
 20
12.5998918783
 30
0.0
 10
14.7280005221
 20
12.6075392888
 30
0.0
 10
14.7291718596
 20
12.611329742
 30
0.0
  0
SPLINE
  5
44B
100
AcDbEntity
  8
LAYER_CHAMFER_FEAT
100
AcDbSpline
 62
7
  6
CONTINUOUS
 70
0
 71
3
 72
22
 73
18
 74
0
 42
0.0000001
 43
0.0000001
 44
0.0000000001
 40
0.0
 40
0.0
 40
0.0
 40
0.0
 40
0.073923199
 40
0.1460532432
 40
0.2163947567
 40
0.2849671438
 40
0.4169136913
 40
0.4804543726
 40
0.5424676047
 40
0.6030588438
 40
0.662352475
 40
0.7204912417
 40
0.777635651
 40
0.833962528
 40
0.8896627268
 40
0.9449384887
 40
1.0
 40
1.0
 40
1.0
 40
1.0
 10
15.2744535363
 20
12.244500563
 30
0.0
 10
15.2731165513
 20
12.2440889676
 30
0.0
 10
15.2704911978
 20
12.2432218168
 30
0.0
 10
15.2666608458
 20
12.2417700417
 30
0.0
 10
15.2629930808
 20
12.2401855814
 30
0.0
 10
15.2583890996
 20
12.2379296126
 30
0.0
 10
15.2540682773
 20
12.2353971438
 30
0.0
 10
15.2500858337
 20
12.2325852543
 30
0.0
 10
15.2473305188
 20
12.2303870148
 30
0.0
 10
15.2447751157
 20
12.2280774375
 30
0.0
 10
15.2424244711
 20
12.2256607849
 30
0.0
 10
15.24028325
 20
12.2231415977
 30
0.0
 10
15.238355692
 20
12.2205246343
 30
0.0
 10
15.2366456341
 20
12.217814925
 30
0.0
 10
15.235156525
 20
12.2150176117
 30
0.0
 10
15.2338914406
 20
12.2121383708
 30
0.0
 10
15.233198452
 20
12.210166187
 30
0.0
 10
15.2328908155
 20
12.2091706642
 30
0.0
  0
SPLINE
  5
44C
100
AcDbEntity
  8
LAYER_CHAMFER_FEAT
100
AcDbSpline
 62
7
  6
CONTINUOUS
 70
0
 71
3
 72
21
 73
17
 74
0
 42
0.0000001
 43
0.0000001
 44
0.0000000001
 40
0.0
 40
0.0
 40
0.0
 40
0.0
 40
0.146143287
 40
0.2165359874
 40
0.2851510725
 40
0.4171547643
 40
0.4807093748
 40
0.5427264305
 40
0.6033116708
 40
0.6625897804
 40
0.7207041592
 40
0.7778163358
 40
0.8341042625
 40
0.8897602391
 40
0.9449881728
 40
1.0
 40
1.0
 40
1.0
 40
1.0
 10
15.4571583782
 20
12.1882318943
 30
0.0
 10
15.4588983162
 20
12.1860620025
 30
0.0
 10
15.4613491964
 20
12.1827404999
 30
0.0
 10
15.4642630809
 20
12.1781602584
 30
0.0
 10
15.466820693
 20
12.173679654
 30
0.0
 10
15.4689853443
 20
12.1691293209
 30
0.0
 10
15.4707092563
 20
12.164537987
 30
0.0
 10
15.4717582564
 20
12.1611516638
 30
0.0
 10
15.4725772956
 20
12.1577861499
 30
0.0
 10
15.4731647024
 20
12.1544477819
 30
0.0
 10
15.4735191509
 20
12.151143036
 30
0.0
 10
15.4736398357
 20
12.1478783277
 30
0.0
 10
15.4735263728
 20
12.1446600649
 30
0.0
 10
15.4731788136
 20
12.1414945345
 30
0.0
 10
15.4725978587
 20
12.1383882459
 30
0.0
 10
15.4720551343
 20
12.1363591104
 30
0.0
 10
15.4717460251
 20
12.1353588218
 30
0.0
  0
SPLINE
  5
44D
100
AcDbEntity
  8
LAYER_FEATURE
100
AcDbSpline
 62
7
  6
CONTINUOUS
 70
0
 71
3
 72
34
 73
30
 74
0
 42
0.0000001
 43
0.0000001
 44
0.0000000001
 40
0.0
 40
0.0
 40
0.0
 40
0.0
 40
0.0202795182
 40
0.0417779245
 40
0.0645062224
 40
0.0884593734
 40
0.11361859
 40
0.1399532938
 40
0.1674229023
 40
0.1959781244
 40
0.2255619232
 40
0.2561105986
 40
0.287554653
 40
0.3198194088
 40
0.3528256313
 40
0.386490239
 40
0.4207268151
 40
0.4554460442
 40
0.5259595735
 40
0.5972828181
 40
0.6686477673
 40
0.7392856343
 40
0.8084412619
 40
0.8422370556
 40
0.8753930125
 40
0.9078251367
 40
0.9394527287
 40
0.9702027607
 40
1.0
 40
1.0
 40
1.0
 40
1.0
 10
15.9943060796
 20
12.3368748181
 30
0.0
 10
15.99475457
 20
12.3363375031
 30
0.0
 10
15.9956375562
 20
12.3351959496
 30
0.0
 10
15.9968848197
 20
12.3333503739
 30
0.0
 10
15.9980894916
 20
12.3313277231
 30
0.0
 10
15.9992477706
 20
12.3291344208
 30
0.0
 10
16.0003560956
 20
12.3267772848
 30
0.0
 10
16.0014110005
 20
12.3242637228
 30
0.0
 10
16.0024091661
 20
12.3216016341
 30
0.0
 10
16.0033474271
 20
12.3187994065
 30
0.0
 10
16.0042228162
 20
12.3158658926
 30
0.0
 10
16.0050325558
 20
12.3128103723
 30
0.0
 10
16.0057740639
 20
12.3096425173
 30
0.0
 10
16.0064449751
 20
12.3063723665
 30
0.0
 10
16.0070431608
 20
12.3030102913
 30
0.0
 10
16.00756671
 20
12.2995669643
 30
0.0
 10
16.0080139565
 20
12.296053293
 30
0.0
 10
16.0085091293
 20
12.2912650508
 30
0.0
 10
16.0089263007
 20
12.2851837163
 30
0.0
 10
16.0091046976
 20
12.2778255016
 30
0.0
 10
16.0089611121
 20
12.2704621187
 30
0.0
 10
16.0084973758
 20
12.2631869659
 30
0.0
 10
16.0078442466
 20
12.2572292697
 30
0.0
 10
16.0071628628
 20
12.2525811612
 30
0.0
 10
16.0065806701
 20
12.2492005712
 30
0.0
 10
16.0059253242
 20
12.2459096581
 30
0.0
 10
16.0051988995
 20
12.2427187585
 30
0.0
 10
16.0044037124
 20
12.2396381262
 30
0.0
 10
16.003819841
 20
12.2376312952
 30
0.0
 10
16.0035162167
 20
12.2366487667
 30
0.0
  0
SPLINE
  5
44E
100
AcDbEntity
  8
LAYER_FEATURE
100
AcDbSpline
 62
7
  6
CONTINUOUS
 70
0
 71
3
 72
15
 73
11
 74
0
 42
0.0000001
 43
0.0000001
 44
0.0000000001
 40
0.0
 40
0.0
 40
0.0
 40
0.0
 40
0.1030415714
 40
0.2124415823
 40
0.3282548779
 40
0.4504494651
 40
0.5789186576
 40
0.7134883268
 40
0.8539463761
 40
1.0
 40
1.0
 40
1.0
 40
1.0
 10
15.9943060794
 20
12.2179779437
 30
0.0
 10
15.9947670683
 20
12.2185302356
 30
0.0
 10
15.9956742115
 20
12.2197055041
 30
0.0
 10
15.9969533699
 20
12.2216086848
 30
0.0
 10
15.9981873809
 20
12.2236982482
 30
0.0
 10
15.9993721431
 20
12.2259672029
 30
0.0
 10
16.0005037981
 20
12.2284080975
 30
0.0
 10
16.0015786581
 20
12.2310129078
 30
0.0
 10
16.0025930723
 20
12.2337728972
 30
0.0
 10
16.0032151543
 20
12.2356745281
 30
0.0
 10
16.0035162167
 20
12.2366487667
 30
0.0
  0
SPLINE
  5
44F
100
AcDbEntity
  8
02___PRT_ALL_AXES
100
AcDbSpline
 62
7
  6
CONTINUOUS
 70
0
 71
3
 72
24
 73
20
 74
0
 42
0.0000001
 43
0.0000001
 44
0.0000000001
 40
0.0
 40
0.0
 40
0.0
 40
0.0
 40
0.0433205529
 40
0.0874276686
 40
0.1329201995
 40
0.1803347866
 40
0.2049174916
 40
0.2301470745
 40
0.2827116337
 40
0.3383493069
 40
0.3972973532
 40
0.4597326489
 40
0.5257800751
 40
0.5955192539
 40
0.6689925422
 40
0.7462067713
 40
0.8271452269
 40
0.9117699925
 40
1.0
 40
1.0
 40
1.0
 40
1.0
 10
15.9816618222
 20
12.1954263855
 30
0.0
 10
15.9812796529
 20
12.1954263839
 30
0.0
 10
15.9805075386
 20
12.1954754179
 30
0.0
 10
15.9793527683
 20
12.1956943298
 30
0.0
 10
15.9781973239
 20
12.1960579779
 30
0.0
 10
15.9772465301
 20
12.196475595
 30
0.0
 10
15.9764883911
 20
12.1968772877
 30
0.0
 10
15.975710809
 20
12.1973372932
 30
0.0
 10
15.9747392022
 20
12.1980045378
 30
0.0
 10
15.9735924732
 20
12.1989336586
 30
0.0
 10
15.9724502454
 20
12.2000002862
 30
0.0
 10
15.9713137036
 20
12.2012025482
 30
0.0
 10
15.9701840537
 20
12.2025384358
 30
0.0
 10
15.9690626223
 20
12.2040056877
 30
0.0
 10
15.9679508722
 20
12.205601813
 30
0.0
 10
15.9668503131
 20
12.2073240654
 30
0.0
 10
15.965762554
 20
12.2091695244
 30
0.0
 10
15.9646893535
 20
12.2111348889
 30
0.0
 10
15.9639989308
 20
12.2124948193
 30
0.0
 10
15.9636560318
 20
12.213193574
 30
0.0
  0
SPLINE
  5
450
100
AcDbEntity
  8
LAYER_FEATURE
100
AcDbSpline
 62
7
  6
CONTINUOUS
 70
0
 71
3
 72
31
 73
27
 74
0
 42
0.0000001
 43
0.0000001
 44
0.0000000001
 40
0.0
 40
0.0
 40
0.0
 40
0.0
 40
0.0267448466
 40
0.0535238784
 40
0.0803710657
 40
0.1073199534
 40
0.1344034508
 40
0.1616536531
 40
0.1891016561
 40
0.2167773957
 40
0.244709527
 40
0.27292528
 40
0.3014503805
 40
0.3303089769
 40
0.3595235539
 40
0.38911493
 40
0.4494939364
 40
0.5115878591
 40
0.5755019339
 40
0.6413152869
 40
0.7090822613
 40
0.7788339622
 40
0.8505799267
 40
0.8872007397
 40
0.9243146883
 40
1.0
 40
1.0
 40
1.0
 40
1.0
 10
14.5734382622
 20
12.6594550635
 30
0.0
 10
14.5721879364
 20
12.6554090017
 30
0.0
 10
14.5698621583
 20
12.647255956
 30
0.0
 10
14.5669070375
 20
12.6348737219
 30
0.0
 10
14.5644862135
 20
12.622342908
 30
0.0
 10
14.5626013136
 20
12.6096717266
 30
0.0
 10
14.5612534254
 20
12.5968680983
 30
0.0
 10
14.5604433884
 20
12.5839401137
 30
0.0
 10
14.5601716624
 20
12.5708959106
 30
0.0
 10
14.5604383337
 20
12.5577436947
 30
0.0
 10
14.5612432137
 20
12.5444917272
 30
0.0
 10
14.5625857083
 20
12.5311483234
 30
0.0
 10
14.5644649117
 20
12.5177218277
 30
0.0
 10
14.5668795992
 20
12.5042206912
 30
0.0
 10
14.5698282168
 20
12.4906531699
 30
0.0
 10
14.574499939
 20
12.4723649744
 30
0.0
 10
14.5816954822
 20
12.4493652534
 30
0.0
 10
14.5923694566
 20
12.4218287307
 30
0.0
 10
14.6051128301
 20
12.3942368389
 30
0.0
 10
14.6198925575
 20
12.3666585972
 30
0.0
 10
14.6366712145
 20
12.3391615085
 30
0.0
 10
14.6554062509
 20
12.3118136827
 30
0.0
 10
14.6724919566
 20
12.2893593473
 30
0.0
 10
14.6870771034
 20
12.2715267467
 30
0.0
 10
14.7024734628
 20
12.2535600824
 30
0.0
 10
14.7145514363
 20
12.2403918559
 30
0.0
 10
14.722835314
 20
12.2317316854
 30
0.0
  0
SPLINE
  5
451
100
AcDbEntity
  8
LAYER_FEATURE
100
AcDbSpline
 62
7
  6
CONTINUOUS
 70
0
 71
3
 72
15
 73
11
 74
0
 42
0.0000001
 43
0.0000001
 44
0.0000000001
 40
0.0
 40
0.0
 40
0.0
 40
0.0
 40
0.1221730859
 40
0.2446243505
 40
0.3676288522
 40
0.4914555213
 40
0.6163643632
 40
0.7426039531
 40
0.8704092847
 40
1.0
 40
1.0
 40
1.0
 40
1.0
 10
14.6622766029
 20
12.9469360394
 30
0.0
 10
14.6606066994
 20
12.9415322218
 30
0.0
 10
14.6575779779
 20
12.9306120814
 30
0.0
 10
14.6539891898
 20
12.9139662353
 30
0.0
 10
14.6513561152
 20
12.8970647769
 30
0.0
 10
14.6496818239
 20
12.879927606
 30
0.0
 10
14.6489679536
 20
12.8625739802
 30
0.0
 10
14.6492151249
 20
12.8450233993
 30
0.0
 10
14.6504227163
 20
12.8272962039
 30
0.0
 10
14.6518565039
 20
12.8154604118
 30
0.0
 10
14.6527284934
 20
12.80952477
 30
0.0
  0
SPLINE
  5
452
100
AcDbEntity
  8
LAYER_FEATURE
100
AcDbSpline
 62
7
  6
CONTINUOUS
 70
0
 71
3
 72
30
 73
26
 74
0
 42
0.0000001
 43
0.0000001
 44
0.0000000001
 40
0.0
 40
0.0
 40
0.0
 40
0.0
 40
0.0267447735
 40
0.0535237343
 40
0.0803708557
 40
0.1073196831
 40
0.1344031286
 40
0.1616532912
 40
0.1891012642
 40
0.2167769893
 40
0.244709122
 40
0.2729248908
 40
0.3014500284
 40
0.3303086782
 40
0.3595233278
 40
0.3891148006
 40
0.4494940556
 40
0.511588313
 40
0.5755028088
 40
0.6413166628
 40
0.7090842104
 40
0.7788365561
 40
0.8505832289
 40
0.9243138915
 40
1.0
 40
1.0
 40
1.0
 40
1.0
 10
16.2702656811
 20
12.1350957319
 30
0.0
 10
16.2690153133
 20
12.1310495342
 30
0.0
 10
16.2663357946
 20
12.1230055043
 30
0.0
 10
16.2617898462
 20
12.1111144261
 30
0.0
 10
16.256718875
 20
12.0994021257
 30
0.0
 10
16.2511261986
 20
12.0878762915
 30
0.0
 10
16.2450153773
 20
12.0765440809
 30
0.0
 10
16.2383902728
 20
12.0654126556
 30
0.0
 10
16.2312551192
 20
12.0544889807
 30
0.0
 10
16.2236144564
 20
12.0437798925
 30
0.0
 10
16.2154731062
 20
12.033292104
 30
0.0
 10
16.2068362612
 20
12.023032137
 30
0.0
 10
16.1977093591
 20
12.0130063869
 30
0.0
 10
16.188098196
 20
12.0032211265
 30
0.0
 10
16.1780087085
 20
11.9936823
 30
0.0
 10
16.1638330227
 20
11.9812178946
 30
0.0
 10
16.1449151641
 20
11.9662872204
 30
0.0
 10
16.1205654774
 20
11.9495731713
 30
0.0
 10
16.0944758434
 20
11.9339809916
 30
0.0
 10
16.066712473
 20
11.9195490176
 30
0.0
 10
16.0373444419
 20
11.9063118997
 30
0.0
 10
16.0064449901
 20
11.8943017521
 30
0.0
 10
15.9740907259
 20
11.8835476498
 30
0.0
 10
15.9403628345
 20
11.8740759336
 30
0.0
 10
15.917312624
 20
11.868700616
 30
0.0
 10
15.9055865521
 20
11.8662239498
 30
0.0
  0
SPLINE
  5
453
100
AcDbEntity
  8
LAYER_FEATURE
100
AcDbSpline
 62
7
  6
CONTINUOUS
 70
0
 71
3
 72
15
 73
11
 74
0
 42
0.0000001
 43
0.0000001
 44
0.0000000001
 40
0.0
 40
0.0
 40
0.0
 40
0.0
 40
0.1221758086
 40
0.2446295183
 40
0.367635917
 40
0.4914636771
 40
0.6163725639
 40
0.7426109354
 40
0.8704135905
 40
1.0
 40
1.0
 40
1.0
 40
1.0
 10
16.3591040218
 20
12.4225767078
 30
0.0
 10
16.3574349709
 20
12.4171756491
 30
0.0
 10
16.3537768587
 20
12.4064560748
 30
0.0
 10
16.3473528772
 20
12.3906954291
 30
0.0
 10
16.3399965374
 20
12.3752625677
 30
0.0
 10
16.3317165207
 20
12.3601756241
 30
0.0
 10
16.3225223204
 20
12.3454513983
 30
0.0
 10
16.3124244059
 20
12.3311063168
 30
0.0
 10
16.3014347444
 20
12.3171568005
 30
0.0
 10
16.2935797019
 20
12.3081968464
 30
0.0
 10
16.2895142396
 20
12.3037896372
 30
0.0
  0
SPLINE
  5
454
100
AcDbEntity
  8
LAYER_CUT_FEAT
100
AcDbSpline
 62
7
  6
CONTINUOUS
 70
0
 71
3
 72
22
 73
18
 74
0
 42
0.0000001
 43
0.0000001
 44
0.0000000001
 40
0.0
 40
0.0
 40
0.0
 40
0.0
 40
0.0586876307
 40
0.1174740055
 40
0.1764570498
 40
0.2357330777
 40
0.2953960199
 40
0.3555367372
 40
0.4162424089
 40
0.4775959657
 40
0.5396756388
 40
0.602554627
 40
0.6663007979
 40
0.7309764735
 40
0.7966383638
 40
0.8633375082
 40
1.0
 40
1.0
 40
1.0
 40
1.0
 10
16.1145320837
 20
12.1832210534
 30
0.0
 10
16.1133605611
 20
12.1794300015
 30
0.0
 10
16.1108249063
 20
12.1718989305
 30
0.0
 10
16.1064555639
 20
12.1607922949
 30
0.0
 10
16.1015225336
 20
12.1498803234
 30
0.0
 10
16.096030069
 20
12.139172478
 30
0.0
 10
16.0899827842
 20
12.1286775395
 30
0.0
 10
16.0833857926
 20
12.1184042184
 30
0.0
 10
16.0762446284
 20
12.1083609998
 30
0.0
 10
16.068565296
 20
12.098556155
 30
0.0
 10
16.0603542434
 20
12.0889977245
 30
0.0
 10
16.0516183306
 20
12.0796935512
 30
0.0
 10
16.0423648148
 20
12.0706512334
 30
0.0
 10
16.0326014903
 20
12.0618781932
 30
0.0
 10
16.0223361385
 20
12.0533813664
 30
0.0
 10
16.0078761126
 20
12.0423419879
 30
0.0
 10
15.9964709808
 20
12.0346328799
 30
0.0
 10
15.9886389194
 20
12.0297303546
 30
0.0
  0
SPLINE
  5
455
100
AcDbEntity
  8
02___PRT_ALL_AXES
100
AcDbSpline
 62
7
  6
CONTINUOUS
 70
0
 71
3
 72
38
 73
34
 74
0
 42
0.0000001
 43
0.0000001
 44
0.0000000001
 40
0.0
 40
0.0
 40
0.0
 40
0.0
 40
0.0264423621
 40
0.0528849916
 40
0.0793998793
 40
0.1060592206
 40
0.132933914
 40
0.1600920056
 40
0.187597093
 40
0.2155068775
 40
0.2438717786
 40
0.2727338312
 40
0.3021257666
 40
0.3320703658
 40
0.3625801073
 40
0.3936569605
 40
0.4574389275
 40
0.4901262987
 40
0.5232876508
 40
0.5568765147
 40
0.5908382761
 40
0.6251108579
 40
0.6596254698
 40
0.6943073696
 40
0.7290767631
 40
0.7638497426
 40
0.7985393481
 40
0.8330567898
 40
0.8673126801
 40
0.9012186592
 40
0.9346886087
 40
0.9676411373
 40
1.0
 40
1.0
 40
1.0
 40
1.0
 10
15.2612342848
 20
12.7153931228
 30
0.0
 10
15.2618549711
 20
12.7141283044
 30
0.0
 10
15.2629846582
 20
12.7115420333
 30
0.0
 10
15.2643275373
 20
12.7075245837
 30
0.0
 10
15.2653102564
 20
12.7033919976
 30
0.0
 10
15.2659266799
 20
12.6991660272
 30
0.0
 10
15.2661727698
 20
12.6948681843
 30
0.0
 10
15.2660463644
 20
12.6905202238
 30
0.0
 10
15.2655473114
 20
12.686143811
 30
0.0
 10
15.2646774824
 20
12.6817604098
 30
0.0
 10
15.2634407789
 20
12.6773911115
 30
0.0
 10
15.2618431149
 20
12.6730564996
 30
0.0
 10
15.2598923489
 20
12.6687764954
 30
0.0
 10
15.2575982817
 20
12.6645703266
 30
0.0
 10
15.2549722947
 20
12.660456122
 30
0.0
 10
15.2510130753
 20
12.655071288
 30
0.0
 10
15.2464704544
 20
12.6499898178
 30
0.0
 10
15.2414387308
 20
12.6452546044
 30
0.0
 10
15.2373818795
 20
12.6418422481
 30
0.0
 10
15.2330940075
 20
12.6386118258
 30
0.0
 10
15.2285956823
 20
12.6355745128
 30
0.0
 10
15.2239087259
 20
12.6327409707
 30
0.0
 10
15.2190556528
 20
12.6301208646
 30
0.0
 10
15.2140597092
 20
12.6277230328
 30
0.0
 10
15.2089447486
 20
12.6255554736
 30
0.0
 10
15.2037351501
 20
12.6236253699
 30
0.0
 10
15.1984557135
 20
12.6219390958
 30
0.0
 10
15.1931315553
 20
12.6205022179
 30
0.0
 10
15.1877879744
 20
12.6193194834
 30
0.0
 10
15.1824503528
 20
12.6183948231
 30
0.0
 10
15.1771438987
 20
12.617731309
 30
0.0
 10
15.1718938456
 20
12.6173311904
 30
0.0
 10
15.1684133226
 20
12.6172400534
 30
0.0
 10
15.1666891723
 20
12.6172400534
 30
0.0
  0
LINE
  5
456
100
AcDbEntity
  8
LAYER_FEATURE
100
AcDbLine
 62
7
  6
CONTINUOUS
 10
16.1278772015
 20
12.850503447
 11
16.1280300776
 21
12.8521194307
  0
SPLINE
  5
457
100
AcDbEntity
  8
LAYER_FEATURE
100
AcDbSpline
 62
7
  6
CONTINUOUS
 70
0
 71
3
 72
11
 73
7
 74
0
 42
0.0000001
 43
0.0000001
 44
0.0000000001
 40
0.0
 40
0.0
 40
0.0
 40
0.0
 40
0.2398227938
 40
0.4839258032
 40
0.7362240329
 40
1.0
 40
1.0
 40
1.0
 40
1.0
 10
16.0507964958
 20
12.9147711919
 30
0.0
 10
16.0508592945
 20
12.9149743987
 30
0.0
 10
16.0509521135
 20
12.9153957587
 30
0.0
 10
16.0509874141
 20
12.9160503766
 30
0.0
 10
16.0509196454
 20
12.9167235713
 30
0.0
 10
16.0508092665
 20
12.9171694254
 30
0.0
 10
16.050738929
 20
12.9173925328
 30
0.0
  0
SPLINE
  5
458
100
AcDbEntity
  8
LAYER_FEATURE
100
AcDbSpline
 62
7
  6
CONTINUOUS
 70
0
 71
3
 72
13
 73
9
 74
0
 42
0.0000001
 43
0.0000001
 44
0.0000000001
 40
0.0
 40
0.0
 40
0.0
 40
0.0
 40
0.1158542225
 40
0.2326923952
 40
0.3514531691
 40
0.4730014565
 40
0.727111989
 40
1.0
 40
1.0
 40
1.0
 40
1.0
 10
15.9633119502
 20
12.9741358555
 30
0.0
 10
15.9633549302
 20
12.9742749405
 30
0.0
 10
15.9634254965
 20
12.974559439
 30
0.0
 10
15.9634832338
 20
12.9749981263
 30
0.0
 10
15.9634928828
 20
12.9754476801
 30
0.0
 10
15.9634409581
 20
12.9760677565
 30
0.0
 10
15.9632497873
 20
12.9768652589
 30
0.0
 10
15.9629845314
 20
12.977475493
 30
0.0
 10
15.9628256271
 20
12.9777793424
 30
0.0
  0
SPLINE
  5
459
100
AcDbEntity
  8
02___PRT_ALL_AXES
100
AcDbSpline
 62
7
  6
CONTINUOUS
 70
0
 71
3
 72
60
 73
56
 74
0
 42
0.0000001
 43
0.0000001
 44
0.0000000001
 40
0.0
 40
0.0
 40
0.0
 40
0.0
 40
0.0106255587
 40
0.0212737612
 40
0.0319670138
 40
0.0427272552
 40
0.0535757418
 40
0.0645328538
 40
0.0756179274
 40
0.0868491147
 40
0.0982432739
 40
0.1098158872
 40
0.1215810065
 40
0.1335512242
 40
0.1457376651
 40
0.1581499962
 40
0.1707964515
 40
0.1836838681
 40
0.1968177305
 40
0.2102022229
 40
0.2238402837
 40
0.2377336633
 40
0.2518829829
 40
0.2662877921
 40
0.2809466278
 40
0.2958570703
 40
0.3110157985
 40
0.3264186423
 40
0.3420606332
 40
0.357936053
 40
0.3740384806
 40
0.3903608367
 40
0.4068954263
 40
0.4236339794
 40
0.4405676895
 40
0.4576872521
 40
0.4749829005
 40
0.4924444406
 40
0.5100612849
 40
0.5278224843
 40
0.563730788
 40
0.6000775303
 40
0.6367652336
 40
0.6736935074
 40
0.7107599397
 40
0.7478609693
 40
0.7848927486
 40
0.8217520038
 40
0.8583369001
 40
0.8945479199
 40
0.912483857
 40
0.930290532
 40
0.9479565621
 40
0.9654708955
 40
1.0
 40
1.0
 40
1.0
 40
1.0
 10
14.7267561287
 20
12.3494881546
 30
0.0
 10
14.7255737009
 20
12.3456618145
 30
0.0
 10
14.7234220009
 20
12.3379324136
 30
0.0
 10
14.7208478652
 20
12.3261557658
 30
0.0
 10
14.7189281244
 20
12.3142031826
 30
0.0
 10
14.7176648774
 20
12.3020878274
 30
0.0
 10
14.7170593059
 20
12.2898224024
 30
0.0
 10
14.7171119216
 20
12.277419902
 30
0.0
 10
14.7178225116
 20
12.2648933832
 30
0.0
 10
14.7191901652
 20
12.2522560071
 30
0.0
 10
14.72121328
 20
12.239521009
 30
0.0
 10
14.723889573
 20
12.2267016918
 30
0.0
 10
14.7272160873
 20
12.2138114146
 30
0.0
 10
14.7311892023
 20
12.200863584
 30
0.0
 10
14.7358046408
 20
12.1878716456
 30
0.0
 10
14.7410574749
 20
12.1748490747
 30
0.0
 10
14.7469421318
 20
12.1618093681
 30
0.0
 10
14.7534523979
 20
12.1487660333
 30
0.0
 10
14.7605814239
 20
12.1357325779
 30
0.0
 10
14.7683217323
 20
12.1227224987
 30
0.0
 10
14.7766652223
 20
12.1097492701
 30
0.0
 10
14.7856031772
 20
12.0968263309
 30
0.0
 10
14.7951262707
 20
12.083967072
 30
0.0
 10
14.8052245742
 20
12.0711848222
 30
0.0
 10
14.8158875671
 20
12.0584928351
 30
0.0
 10
14.8271041459
 20
12.045904276
 30
0.0
 10
14.8388626355
 20
12.0334322071
 30
0.0
 10
14.8511507993
 20
12.0210895749
 30
0.0
 10
14.8639558511
 20
12.008889195
 30
0.0
 10
14.8772644676
 20
11.996843739
 30
0.0
 10
14.8910628025
 20
11.9849657214
 30
0.0
 10
14.9053365003
 20
11.9732674856
 30
0.0
 10
14.9200707111
 20
11.9617611915
 30
0.0
 10
14.9352501055
 20
11.9504588021
 30
0.0
 10
14.9508588897
 20
11.9393720694
 30
0.0
 10
14.9668808211
 20
11.9285125246
 30
0.0
 10
14.9832992333
 20
11.9178914596
 30
0.0
 10
15.000097021
 20
11.9075199382
 30
0.0
 10
15.0172567809
 20
11.8974086965
 30
0.0
 10
15.0406791981
 20
11.8842409906
 30
0.0
 10
15.0707495294
 20
11.8685076424
 30
0.0
 10
15.1078537478
 20
11.8508969473
 30
0.0
 10
15.1459549393
 20
11.8345601074
 30
0.0
 10
15.184894442
 20
11.8195651666
 30
0.0
 10
15.2245106184
 20
11.8059743591
 30
0.0
 10
15.2646388735
 20
11.7938441593
 30
0.0
 10
15.3051124785
 20
11.7832249579
 30
0.0
 10
15.3457634173
 20
11.77416085
 30
0.0
 10
15.3864224056
 20
11.7666895638
 30
0.0
 10
15.4202784038
 20
11.7618011289
 30
0.0
 10
15.4472242618
 20
11.7587195582
 30
0.0
 10
15.4672670585
 20
11.7568308285
 30
0.0
 10
15.4871856026
 20
11.7553592541
 30
0.0
 10
15.5134237684
 20
11.7539621934
 30
0.0
 10
15.5330425431
 20
11.753530884
 30
0.0
 10
15.54605689
 20
11.753530884
 30
0.0
  0
SPLINE
  5
45A
100
AcDbEntity
  8
02___PRT_ALL_AXES
100
AcDbSpline
 62
7
  6
CONTINUOUS
 70
0
 71
3
 72
39
 73
35
 74
0
 42
0.0000001
 43
0.0000001
 44
0.0000000001
 40
0.0
 40
0.0
 40
0.0
 40
0.0
 40
0.0248034971
 40
0.049664333
 40
0.0746391943
 40
0.0997834852
 40
0.1251507432
 40
0.1507921175
 40
0.1767559202
 40
0.2030872603
 40
0.2298277625
 40
0.2570153682
 40
0.2846842107
 40
0.3128645574
 40
0.3415828099
 40
0.3708615534
 40
0.4007196417
 40
0.4311723101
 40
0.4622313087
 40
0.4939050525
 40
0.5261987784
 40
0.5591147048
 40
0.5926521913
 40
0.6268078999
 40
0.6615759515
 40
0.6969480766
 40
0.7329137591
 40
0.7694603763
 40
0.8065733344
 40
0.8442361954
 40
0.8824307958
 40
0.9211373851
 40
0.9603346179
 40
1.0
 40
1.0
 40
1.0
 40
1.0
 10
15.9688032247
 20
11.9656665722
 30
0.0
 10
15.9675715471
 20
11.96168086
 30
0.0
 10
15.9648700845
 20
11.9537707557
 30
0.0
 10
15.9601209668
 20
11.9421428848
 30
0.0
 10
15.9546782806
 20
11.9307590998
 30
0.0
 10
15.9485485629
 20
11.9196330037
 30
0.0
 10
15.9417389407
 20
11.9087771664
 30
0.0
 10
15.9342573803
 20
11.8982039821
 30
0.0
 10
15.9261125903
 20
11.887925421
 30
0.0
 10
15.9173140234
 20
11.8779530824
 30
0.0
 10
15.9078718465
 20
11.868298174
 30
0.0
 10
15.8977969249
 20
11.8589715132
 30
0.0
 10
15.8871008056
 20
11.8499835235
 30
0.0
 10
15.8757957066
 20
11.8413442292
 30
0.0
 10
15.8638945028
 20
11.8330632529
 30
0.0
 10
15.8514107125
 20
11.8251498124
 30
0.0
 10
15.8383584862
 20
11.8176127148
 30
0.0
 10
15.8247525954
 20
11.8104603494
 30
0.0
 10
15.8106084207
 20
11.8037006787
 30
0.0
 10
15.7959419359
 20
11.7973412334
 30
0.0
 10
15.7807696935
 20
11.7913891045
 30
0.0
 10
15.7651088096
 20
11.7858509346
 30
0.0
 10
15.7489769478
 20
11.7807329075
 30
0.0
 10
15.7323923001
 20
11.7760407429
 30
0.0
 10
15.7153735675
 20
11.7717796897
 30
0.0
 10
15.6979399407
 20
11.7679545188
 30
0.0
 10
15.6801110798
 20
11.7645695143
 30
0.0
 10
15.6619070924
 20
11.7616284692
 30
0.0
 10
15.6433485118
 20
11.7591346814
 30
0.0
 10
15.6244562705
 20
11.7570909493
 30
0.0
 10
15.6052516889
 20
11.7554995654
 30
0.0
 10
15.5857564121
 20
11.7543623167
 30
0.0
 10
15.5659925562
 20
11.7536804724
 30
0.0
 10
15.5527281817
 20
11.753530884
 30
0.0
 10
15.54605689
 20
11.753530884
 30
0.0
  0
SPLINE
  5
45B
100
AcDbEntity
  8
LAYER_CHAMFER_FEAT
100
AcDbSpline
 62
7
  6
CONTINUOUS
 70
0
 71
3
 72
11
 73
7
 74
0
 42
0.0000001
 43
0.0000001
 44
0.0000000001
 40
0.0
 40
0.0
 40
0.0
 40
0.0
 40
0.2617774358
 40
0.5161275252
 40
0.7623843597
 40
1.0
 40
1.0
 40
1.0
 40
1.0
 10
15.3039299084
 20
12.2469337963
 30
0.0
 10
15.300632792
 20
12.2469337963
 30
0.0
 10
15.2941306983
 20
12.2467701218
 30
0.0
 10
15.2845535208
 20
12.2460121938
 30
0.0
 10
15.27533649
 20
12.2447494952
 30
0.0
 10
15.2693555791
 20
12.2435534689
 30
0.0
 10
15.2664422636
 20
12.2428683264
 30
0.0
  0
SPLINE
  5
45C
100
AcDbEntity
  8
LAYER_CHAMFER_FEAT
100
AcDbSpline
 62
7
  6
CONTINUOUS
 70
0
 71
3
 72
23
 73
19
 74
0
 42
0.0000001
 43
0.0000001
 44
0.0000000001
 40
0.0
 40
0.0
 40
0.0
 40
0.0
 40
0.0614590447
 40
0.1243125325
 40
0.1883141298
 40
0.2531994668
 40
0.3186929627
 40
0.3845108457
 40
0.4503651262
 40
0.5159673434
 40
0.5810323133
 40
0.6452819412
 40
0.7084491053
 40
0.7702816971
 40
0.8305469308
 40
0.8890359517
 40
0.9455688125
 40
1.0
 40
1.0
 40
1.0
 40
1.0
 10
15.3039299084
 20
12.2469337963
 30
0.0
 10
15.3075407269
 20
12.2469337963
 30
0.0
 10
15.314845603
 20
12.2467324154
 30
0.0
 10
15.3258789972
 20
12.2458549882
 30
0.0
 10
15.3370548509
 20
12.2444041999
 30
0.0
 10
15.3483002482
 20
12.2423894397
 30
0.0
 10
15.3595422749
 20
12.2398238
 30
0.0
 10
15.3707078967
 20
12.2367239484
 30
0.0
 10
15.381724597
 20
12.2331100216
 30
0.0
 10
15.392520812
 20
12.2290054884
 30
0.0
 10
15.4030264224
 20
12.2244370029
 30
0.0
 10
15.4131732214
 20
12.2194342326
 30
0.0
 10
15.4228953545
 20
12.2140296388
 30
0.0
 10
15.4321297671
 20
12.2082582326
 30
0.0
 10
15.4408165663
 20
12.202157403
 30
0.0
 10
15.4488996257
 20
12.1957664173
 30
0.0
 10
15.4563261594
 20
12.1891269353
 30
0.0
 10
15.4608980212
 20
12.1844710529
 30
0.0
 10
15.4630552494
 20
12.1821103195
 30
0.0
  0
SPLINE
  5
45D
100
AcDbEntity
  8
LAYER_FEATURE
100
AcDbSpline
 62
7
  6
CONTINUOUS
 70
0
 71
3
 72
14
 73
10
 74
0
 42
0.0000001
 43
0.0000001
 44
0.0000000001
 40
0.0
 40
0.0
 40
0.0
 40
0.0
 40
0.11137611
 40
0.2273069725
 40
0.3475443068
 40
0.4717742434
 40
0.5996086134
 40
0.7306018569
 40
1.0
 40
1.0
 40
1.0
 40
1.0
 10
15.3235743572
 20
13.1770462809
 30
0.0
 10
15.3234142368
 20
13.177241003
 30
0.0
 10
15.3230723225
 20
13.1776261669
 30
0.0
 10
15.3225108904
 20
13.1781779572
 30
0.0
 10
15.3218938147
 20
13.178712311
 30
0.0
 10
15.3212250694
 20
13.1792258221
 30
0.0
 10
15.3205088339
 20
13.179715281
 30
0.0
 10
15.3194873043
 20
13.1803373442
 30
0.0
 10
15.3186780658
 20
13.1807495935
 30
0.0
 10
15.3181224999
 20
13.1810009631
 30
0.0
  0
SPLINE
  5
45E
100
AcDbEntity
  8
LAYER_FEATURE
100
AcDbSpline
 62
7
  6
CONTINUOUS
 70
0
 71
3
 72
13
 73
9
 74
0
 42
0.0000001
 43
0.0000001
 44
0.0000000001
 40
0.0
 40
0.0
 40
0.0
 40
0.0
 40
0.2720422722
 40
0.5259597844
 40
0.6476277903
 40
0.7666247394
 40
0.8837829468
 40
1.0
 40
1.0
 40
1.0
 40
1.0
 10
15.2929715403
 20
13.1821610349
 30
0.0
 10
15.2926803933
 20
13.1820004091
 30
0.0
 10
15.2921384729
 20
13.1816489298
 30
0.0
 10
15.2915544996
 20
13.1811073466
 30
0.0
 10
15.2911765198
 20
13.1806343728
 30
0.0
 10
15.2909395283
 20
13.1802657916
 30
0.0
 10
15.2907462275
 20
13.1798800081
 30
0.0
 10
15.2906468574
 20
13.1796118943
 30
0.0
 10
15.2906049167
 20
13.1794761751
 30
0.0
  0
SPLINE
  5
45F
100
AcDbEntity
  8
LAYER_FEATURE
100
AcDbSpline
 62
7
  6
CONTINUOUS
 70
0
 71
3
 72
13
 73
9
 74
0
 42
0.0000001
 43
0.0000001
 44
0.0000000001
 40
0.0
 40
0.0
 40
0.0
 40
0.0
 40
0.2226021935
 40
0.3414199394
 40
0.4649877746
 40
0.5930285753
 40
0.7251835609
 40
1.0
 40
1.0
 40
1.0
 40
1.0
 10
15.4338438947
 20
13.1655777745
 30
0.0
 10
15.4335952664
 20
13.1659851635
 30
0.0
 10
15.4331569625
 20
13.1665764565
 30
0.0
 10
15.4324817601
 20
13.1673104094
 30
0.0
 10
15.4319058268
 20
13.1678581999
 30
0.0
 10
15.431275305
 20
13.168387585
 30
0.0
 10
15.4303552248
 20
13.1690733759
 30
0.0
 10
15.4296131692
 20
13.169536396
 30
0.0
 10
15.4290987819
 20
13.1698237606
 30
0.0
  0
SPLINE
  5
460
100
AcDbEntity
  8
LAYER_FEATURE
100
AcDbSpline
 62
7
  6
CONTINUOUS
 70
0
 71
3
 72
15
 73
11
 74
0
 42
0.0000001
 43
0.0000001
 44
0.0000000001
 40
0.0
 40
0.0
 40
0.0
 40
0.0
 40
0.1439702776
 40
0.2813873781
 40
0.4125333934
 40
0.5379245563
 40
0.6582964302
 40
0.7746167846
 40
0.8880718436
 40
1.0
 40
1.0
 40
1.0
 40
1.0
 10
15.4032987961
 20
13.1732813963
 30
0.0
 10
15.403081105
 20
13.1732014478
 30
0.0
 10
15.4026614951
 20
13.1730284301
 30
0.0
 10
15.4020709466
 20
13.1727217927
 30
0.0
 10
15.4015376521
 20
13.1723758523
 30
0.0
 10
15.4010651293
 20
13.1719926664
 30
0.0
 10
15.4006565551
 20
13.1715744806
 30
0.0
 10
15.4003147801
 20
13.1711238128
 30
0.0
 10
15.4000423962
 20
13.1706436643
 30
0.0
 10
15.3999080013
 20
13.17030491
 30
0.0
 10
15.3998534276
 20
13.1701330738
 30
0.0
  0
SPLINE
  5
461
100
AcDbEntity
  8
LAYER_FEATURE
100
AcDbSpline
 62
7
  6
CONTINUOUS
 70
0
 71
3
 72
13
 73
9
 74
0
 42
0.0000001
 43
0.0000001
 44
0.0000000001
 40
0.0
 40
0.0
 40
0.0
 40
0.0
 40
0.2190018526
 40
0.3364922995
 40
0.459311885
 40
0.5873516442
 40
0.7203885538
 40
1.0
 40
1.0
 40
1.0
 40
1.0
 10
15.545498439
 20
13.1443923322
 30
0.0
 10
15.5453338751
 20
13.1448006313
 30
0.0
 10
15.5450135671
 20
13.1454021652
 30
0.0
 10
15.5444821391
 20
13.1461576558
 30
0.0
 10
15.5440102174
 20
13.146729222
 30
0.0
 10
15.5434775673
 20
13.1472883883
 30
0.0
 10
15.542677677
 20
13.1480250209
 30
0.0
 10
15.5420163436
 20
13.1485296785
 30
0.0
 10
15.541552429
 20
13.1488469787
 30
0.0
  0
SPLINE
  5
462
100
AcDbEntity
  8
LAYER_FEATURE
100
AcDbSpline
 62
7
  6
CONTINUOUS
 70
0
 71
3
 72
15
 73
11
 74
0
 42
0.0000001
 43
0.0000001
 44
0.0000000001
 40
0.0
 40
0.0
 40
0.0
 40
0.0
 40
0.1452499883
 40
0.2843259902
 40
0.4171873992
 40
0.5439783005
 40
0.6650190652
 40
0.780836635
 40
0.8921804761
 40
1.0
 40
1.0
 40
1.0
 40
1.0
 10
15.5156055843
 20
13.1545348796
 30
0.0
 10
15.5153611492
 20
13.1544797205
 30
0.0
 10
15.5148861053
 20
13.1543555459
 30
0.0
 10
15.5142046891
 20
13.1541216919
 30
0.0
 10
15.5135737452
 20
13.1538455545
 30
0.0
 10
15.5129973132
 20
13.1535287907
 30
0.0
 10
15.512479086
 20
13.1531732384
 30
0.0
 10
15.5120224301
 20
13.1527809548
 30
0.0
 10
15.511630539
 20
13.1523543724
 30
0.0
 10
15.5114113846
 20
13.1520446959
 30
0.0
 10
15.5113144911
 20
13.151885918
 30
0.0
  0
SPLINE
  5
463
100
AcDbEntity
  8
LAYER_FEATURE
100
AcDbSpline
 62
7
  6
CONTINUOUS
 70
0
 71
3
 72
15
 73
11
 74
0
 42
0.0000001
 43
0.0000001
 44
0.0000000001
 40
0.0
 40
0.0
 40
0.0
 40
0.0
 40
0.1063514297
 40
0.2174638928
 40
0.3338354329
 40
0.4557866424
 40
0.5834578245
 40
0.7168332739
 40
0.8557726438
 40
1.0
 40
1.0
 40
1.0
 40
1.0
 10
15.6563647615
 20
13.1139023045
 30
0.0
 10
15.6563271792
 20
13.114097718
 30
0.0
 10
15.6562260066
 20
13.1144929277
 30
0.0
 10
15.6560055948
 20
13.1150785254
 30
0.0
 10
15.6557150466
 20
13.1156653737
 30
0.0
 10
15.6553563745
 20
13.1162497427
 30
0.0
 10
15.6549319035
 20
13.1168280584
 30
0.0
 10
15.654444363
 20
13.1173967545
 30
0.0
 10
15.6538968754
 20
13.1179522519
 30
0.0
 10
15.6535012216
 20
13.1183052444
 30
0.0
 10
15.6532946587
 20
13.1184789069
 30
0.0
  0
SPLINE
  5
464
100
AcDbEntity
  8
LAYER_FEATURE
100
AcDbSpline
 62
7
  6
CONTINUOUS
 70
0
 71
3
 72
15
 73
11
 74
0
 42
0.0000001
 43
0.0000001
 44
0.0000000001
 40
0.0
 40
0.0
 40
0.0
 40
0.0
 40
0.1443805036
 40
0.2833890182
 40
0.4167650051
 40
0.5443871014
 40
0.6662624933
 40
0.7825585255
 40
0.8936268719
 40
1.0
 40
1.0
 40
1.0
 40
1.0
 10
15.627705981
 20
13.1262863643
 30
0.0
 10
15.6274392172
 20
13.1262571535
 30
0.0
 10
15.6269171485
 20
13.1261842429
 30
0.0
 10
15.6261579754
 20
13.1260274212
 30
0.0
 10
15.6254415816
 20
13.125826047
 30
0.0
 10
15.6247725205
 20
13.1255813539
 30
0.0
 10
15.6241550113
 20
13.1252947837
 30
0.0
 10
15.6235929428
 20
13.12496801
 30
0.0
 10
15.6230900336
 20
13.1246030147
 30
0.0
 10
15.6227904286
 20
13.1243301591
 30
0.0
 10
15.6226526844
 20
13.1241883227
 30
0.0
  0
SPLINE
  5
465
100
AcDbEntity
  8
LAYER_FEATURE
100
AcDbSpline
 62
7
  6
CONTINUOUS
 70
0
 71
3
 72
15
 73
11
 74
0
 42
0.0000001
 43
0.0000001
 44
0.0000000001
 40
0.0
 40
0.0
 40
0.0
 40
0.0
 40
0.1075899663
 40
0.218843034
 40
0.334670263
 40
0.45578247
 40
0.5826703513
 40
0.715621879
 40
0.854753155
 40
1.0
 40
1.0
 40
1.0
 40
1.0
 10
15.7642849751
 20
13.074701145
 30
0.0
 10
15.7642907045
 20
13.07488789
 30
0.0
 10
15.764276665
 20
13.0752689262
 30
0.0
 10
15.7641823268
 20
13.0758437426
 30
0.0
 10
15.7640153314
 20
13.0764262003
 30
0.0
 10
15.7637770074
 20
13.0770124986
 30
0.0
 10
15.7634690316
 20
13.0775990432
 30
0.0
 10
15.7630934743
 20
13.0781822354
 30
0.0
 10
15.7626527955
 20
13.0787584314
 30
0.0
 10
15.7623243249
 20
13.0791278277
 30
0.0
 10
15.7621505357
 20
13.0793106249
 30
0.0
  0
SPLINE
  5
466
100
AcDbEntity
  8
LAYER_FEATURE
100
AcDbSpline
 62
7
  6
CONTINUOUS
 70
0
 71
3
 72
13
 73
9
 74
0
 42
0.0000001
 43
0.0000001
 44
0.0000000001
 40
0.0
 40
0.0
 40
0.0
 40
0.0
 40
0.2799918637
 40
0.4130882712
 40
0.5411150332
 40
0.6638643637
 40
0.7812459024
 40
1.0
 40
1.0
 40
1.0
 40
1.0
 10
15.7374180795
 20
13.0890856756
 30
0.0
 10
15.7368587646
 20
13.0890806896
 30
0.0
 10
15.7360326325
 20
13.0890300213
 30
0.0
 10
15.7349639897
 20
13.0888633528
 30
0.0
 10
15.7342151861
 20
13.0886951696
 30
0.0
 10
15.7335102452
 20
13.0884826588
 30
0.0
 10
15.7326555221
 20
13.0881501134
 30
0.0
 10
15.7320605421
 20
13.0878276946
 30
0.0
 10
15.7317009362
 20
13.0875793901
 30
0.0
  0
SPLINE
  5
467
100
AcDbEntity
  8
LAYER_FEATURE
100
AcDbSpline
 62
7
  6
CONTINUOUS
 70
0
 71
3
 72
40
 73
36
 74
0
 42
0.0000001
 43
0.0000001
 44
0.0000000001
 40
0.0
 40
0.0
 40
0.0
 40
0.0
 40
0.039665119
 40
0.0788625779
 40
0.1175689642
 40
0.1557635445
 40
0.1934263296
 40
0.2305392284
 40
0.2670857827
 40
0.3030514013
 40
0.3384234642
 40
0.3731914561
 40
0.4073471071
 40
0.4408845372
 40
0.4738004077
 40
0.5060940775
 40
0.5377677657
 40
0.5688267098
 40
0.5992793256
 40
0.6291373641
 40
0.6584160591
 40
0.6728447437
 40
0.6871359821
 40
0.7153162787
 40
0.7429850724
 40
0.7701726315
 40
0.7969130885
 40
0.8232443842
 40
0.8492081426
 40
0.8748494725
 40
0.9002166865
 40
0.9253609337
 40
0.950335752
 40
0.9751965454
 40
1.0
 40
1.0
 40
1.0
 40
1.0
 10
15.160657447
 20
12.980598126
 30
0.0
 10
15.151543481
 20
12.980598126
 30
0.0
 10
15.1334222823
 20
12.9803937579
 30
0.0
 10
15.1064218228
 20
12.979462269
 30
0.0
 10
15.0797882299
 20
12.9779085945
 30
0.0
 10
15.0535518398
 20
12.9757345287
 30
0.0
 10
15.0277421231
 20
12.9729424736
 30
0.0
 10
15.0023882479
 20
12.9695355802
 30
0.0
 10
14.9775188
 20
12.9655176597
 30
0.0
 10
14.9531618345
 20
12.9608932201
 30
0.0
 10
14.9293448195
 20
12.9556674463
 30
0.0
 10
14.9060946126
 20
12.9498461926
 30
0.0
 10
14.8834374314
 20
12.9434359754
 30
0.0
 10
14.8613988253
 20
12.9364439643
 30
0.0
 10
14.8400036478
 20
12.9288779727
 30
0.0
 10
14.8192760319
 20
12.9207464486
 30
0.0
 10
14.7992393558
 20
12.9120584649
 30
0.0
 10
14.7799162485
 20
12.9028237201
 30
0.0
 10
14.7613284723
 20
12.8930524646
 30
0.0
 10
14.7434972535
 20
12.8827557173
 30
0.0
 10
14.7292160147
 20
12.873702877
 30
0.0
 10
14.7181963662
 20
12.8662070051
 30
0.0
 10
14.7075489661
 20
12.858618291
 30
0.0
 10
14.6947389045
 20
12.8488289142
 30
0.0
 10
14.680126473
 20
12.836550019
 30
0.0
 10
14.6663625507
 20
12.8238083445
 30
0.0
 10
14.6534630903
 20
12.8106182611
 30
0.0
 10
14.6414428904
 20
12.7969945121
 30
0.0
 10
14.6303158541
 20
12.782952417
 30
0.0
 10
14.6200948926
 20
12.7685078198
 30
0.0
 10
14.610791903
 20
12.753677075
 30
0.0
 10
14.6024177674
 20
12.7384771155
 30
0.0
 10
14.5949822208
 20
12.7229251138
 30
0.0
 10
14.5884941937
 20
12.7070396541
 30
0.0
 10
14.5848035747
 20
12.6962332365
 30
0.0
 10
14.5831209151
 20
12.6907881399
 30
0.0
  0
SPLINE
  5
468
100
AcDbEntity
  8
LAYER_FEATURE
100
AcDbSpline
 62
7
  6
CONTINUOUS
 70
0
 71
3
 72
15
 73
11
 74
0
 42
0.0000001
 43
0.0000001
 44
0.0000000001
 40
0.0
 40
0.0
 40
0.0
 40
0.0
 40
0.1114430319
 40
0.2246217697
 40
0.3408454142
 40
0.4612629459
 40
0.5868015005
 40
0.718156329
 40
0.8558062337
 40
1.0
 40
1.0
 40
1.0
 40
1.0
 10
15.8671585358
 20
13.0275518598
 30
0.0
 10
15.8672067087
 20
13.0277258401
 30
0.0
 10
15.8672792448
 20
13.0280838183
 30
0.0
 10
15.867313681
 20
13.028636476
 30
0.0
 10
15.8672742267
 20
13.0292033434
 30
0.0
 10
15.8671614118
 20
13.0297804915
 30
0.0
 10
15.8669762363
 20
13.0303642449
 30
0.0
 10
15.8667201165
 20
13.0309509643
 30
0.0
 10
15.8663948545
 20
13.0315369704
 30
0.0
 10
15.8661392652
 20
13.0319160153
 30
0.0
 10
15.8660013042
 20
13.0321044989
 30
0.0
  0
SPLINE
  5
469
100
AcDbEntity
  8
LAYER_FEATURE
100
AcDbSpline
 62
7
  6
CONTINUOUS
 70
0
 71
3
 72
13
 73
9
 74
0
 42
0.0000001
 43
0.0000001
 44
0.0000000001
 40
0.0
 40
0.0
 40
0.0
 40
0.0
 40
0.2752762254
 40
0.4075232086
 40
0.5355730861
 40
0.6590769331
 40
0.7777700088
 40
1.0
 40
1.0
 40
1.0
 40
1.0
 10
15.8426064585
 20
13.0436568827
 30
0.0
 10
15.842021401
 20
13.0437050603
 30
0.0
 10
15.8411507018
 20
13.0437342489
 30
0.0
 10
15.840009521
 20
13.0436772555
 30
0.0
 10
15.8391953575
 20
13.0435886692
 30
0.0
 10
15.8384166679
 20
13.0434541899
 30
0.0
 10
15.8374539658
 20
13.0432200867
 30
0.0
 10
15.8367661105
 20
13.0429722736
 30
0.0
 10
15.8363367462
 20
13.0427716712
 30
0.0
  0
SPLINE
  5
46A
100
AcDbEntity
  8
LAYER_FEATURE
100
AcDbSpline
 62
7
  6
CONTINUOUS
 70
0
 71
3
 72
14
 73
10
 74
0
 42
0.0000001
 43
0.0000001
 44
0.0000000001
 40
0.0
 40
0.0
 40
0.0
 40
0.0
 40
0.2698913139
 40
0.4009933014
 40
0.5288497493
 40
0.6530213274
 40
0.7731280004
 40
0.888866112
 40
1.0
 40
1.0
 40
1.0
 40
1.0
 10
15.941223746
 20
12.9908842052
 30
0.0
 10
15.940623981
 20
12.9909853978
 30
0.0
 10
15.9397249574
 20
12.9910944779
 30
0.0
 10
15.9385339017
 20
12.9911474176
 30
0.0
 10
15.9376700376
 20
12.9911400797
 30
0.0
 10
15.9368326585
 20
12.9910861159
 30
0.0
 10
15.9360269959
 20
12.9909858628
 30
0.0
 10
15.935258219
 20
12.9908399354
 30
0.0
 10
15.9347631474
 20
12.9907100768
 30
0.0
 10
15.9345234975
 20
12.9906372976
 30
0.0
  0
SPLINE
  5
46B
100
AcDbEntity
  8
LAYER_FEATURE
100
AcDbSpline
 62
7
  6
CONTINUOUS
 70
0
 71
3
 72
11
 73
7
 74
0
 42
0.0000001
 43
0.0000001
 44
0.0000000001
 40
0.0
 40
0.0
 40
0.0
 40
0.0
 40
0.2643731131
 40
0.5217639984
 40
0.7681140918
 40
1.0
 40
1.0
 40
1.0
 40
1.0
 10
16.0313504687
 20
12.9317948034
 30
0.0
 10
16.0307475481
 20
12.9319478236
 30
0.0
 10
16.0295431177
 20
12.9321958877
 30
0.0
 10
16.0277436492
 20
12.9323917206
 30
0.0
 10
16.0260098144
 20
12.9324037574
 30
0.0
 10
16.0248875856
 20
12.9322847189
 30
0.0
 10
16.0243500966
 20
12.9321910053
 30
0.0
  0
SPLINE
  5
46C
100
AcDbEntity
  8
LAYER_FEATURE
100
AcDbSpline
 62
7
  6
CONTINUOUS
 70
0
 71
3
 72
11
 73
7
 74
0
 42
0.0000001
 43
0.0000001
 44
0.0000000001
 40
0.0
 40
0.0
 40
0.0
 40
0.0
 40
0.2587048521
 40
0.5143834928
 40
0.7627725636
 40
1.0
 40
1.0
 40
1.0
 40
1.0
 10
16.1112324123
 20
12.8675387852
 30
0.0
 10
16.1106381447
 20
12.8677414074
 30
0.0
 10
16.1094374602
 20
12.8680905479
 30
0.0
 10
16.1076174906
 20
12.8684431323
 30
0.0
 10
16.1058239811
 20
12.8686159551
 30
0.0
 10
16.1046426697
 20
12.8686081218
 30
0.0
 10
16.104068171
 20
12.868570385
 30
0.0
  0
SPLINE
  5
46D
100
AcDbEntity
  8
LAYER_FEATURE
100
AcDbSpline
 62
7
  6
CONTINUOUS
 70
0
 71
3
 72
40
 73
36
 74
0
 42
0.0000001
 43
0.0000001
 44
0.0000000001
 40
0.0
 40
0.0
 40
0.0
 40
0.0
 40
0.039665119
 40
0.0788625779
 40
0.1175689642
 40
0.1557635445
 40
0.1934263296
 40
0.2305392284
 40
0.2670857827
 40
0.3030514013
 40
0.3384234642
 40
0.3731914561
 40
0.4073471071
 40
0.4408845372
 40
0.4738004077
 40
0.5060940775
 40
0.5377677657
 40
0.5688267098
 40
0.5992793256
 40
0.6291373641
 40
0.6584160591
 40
0.6728447437
 40
0.6871359821
 40
0.7153162787
 40
0.7429850724
 40
0.7701726315
 40
0.7969130885
 40
0.8232443842
 40
0.8492081426
 40
0.8748494725
 40
0.9002166865
 40
0.9253609337
 40
0.950335752
 40
0.9751965454
 40
1.0
 40
1.0
 40
1.0
 40
1.0
 10
15.2494957877
 20
13.2680791018
 30
0.0
 10
15.2403818217
 20
13.2680791018
 30
0.0
 10
15.222260623
 20
13.2678747337
 30
0.0
 10
15.1952601635
 20
13.2669432449
 30
0.0
 10
15.1686265706
 20
13.2653895704
 30
0.0
 10
15.1423901805
 20
13.2632155046
 30
0.0
 10
15.1165804638
 20
13.2604234495
 30
0.0
 10
15.0912265885
 20
13.257016556
 30
0.0
 10
15.0663571407
 20
13.2529986355
 30
0.0
 10
15.0420001752
 20
13.248374196
 30
0.0
 10
15.0181831601
 20
13.2431484222
 30
0.0
 10
14.9949329532
 20
13.2373271684
 30
0.0
 10
14.9722757721
 20
13.2309169512
 30
0.0
 10
14.950237166
 20
13.2239249402
 30
0.0
 10
14.9288419885
 20
13.2163589486
 30
0.0
 10
14.9081143726
 20
13.2082274244
 30
0.0
 10
14.8880776965
 20
13.1995394408
 30
0.0
 10
14.8687545892
 20
13.1903046959
 30
0.0
 10
14.8501668129
 20
13.1805334404
 30
0.0
 10
14.8323355942
 20
13.1702366932
 30
0.0
 10
14.8180543554
 20
13.1611838528
 30
0.0
 10
14.8070347069
 20
13.1536879809
 30
0.0
 10
14.7963873068
 20
13.1460992668
 30
0.0
 10
14.7835772452
 20
13.13630989
 30
0.0
 10
14.7689648137
 20
13.1240309948
 30
0.0
 10
14.7552008914
 20
13.1112893203
 30
0.0
 10
14.7423014309
 20
13.098099237
 30
0.0
 10
14.730281231
 20
13.0844754879
 30
0.0
 10
14.7191541948
 20
13.0704333928
 30
0.0
 10
14.7089332333
 20
13.0559887956
 30
0.0
 10
14.6996302437
 20
13.0411580508
 30
0.0
 10
14.6912561081
 20
13.0259580913
 30
0.0
 10
14.6838205615
 20
13.0104060896
 30
0.0
 10
14.6773325344
 20
12.99452063
 30
0.0
 10
14.6736419154
 20
12.9837142123
 30
0.0
 10
14.6719592558
 20
12.9782691158
 30
0.0
  0
SPLINE
  5
46E
100
AcDbEntity
  8
LAYER_FEATURE
100
AcDbSpline
 62
7
  6
CONTINUOUS
 70
0
 71
3
 72
11
 73
7
 74
0
 42
0.0000001
 43
0.0000001
 44
0.0000000001
 40
0.0
 40
0.0
 40
0.0
 40
0.0
 40
0.2530563235
 40
0.5069330221
 40
0.7572978886
 40
1.0
 40
1.0
 40
1.0
 40
1.0
 10
16.1793147657
 20
12.799366821
 30
0.0
 10
16.1787409694
 20
12.7996158099
 30
0.0
 10
16.1775673964
 20
12.8000607778
 30
0.0
 10
16.1757616907
 20
12.8005633651
 30
0.0
 10
16.173942621
 20
12.800893656
 30
0.0
 10
16.17272572
 20
12.8009955433
 30
0.0
 10
16.172126099
 20
12.8010137398
 30
0.0
  0
SPLINE
  5
46F
100
AcDbEntity
  8
LAYER_FEATURE
100
AcDbSpline
 62
7
  6
CONTINUOUS
 70
0
 71
3
 72
11
 73
7
 74
0
 42
0.0000001
 43
0.0000001
 44
0.0000000001
 40
0.0
 40
0.0
 40
0.0
 40
0.0
 40
0.2474552882
 40
0.4994655563
 40
0.7517465144
 40
1.0
 40
1.0
 40
1.0
 40
1.0
 10
16.2342723834
 20
12.7286058004
 30
0.0
 10
16.2337306551
 20
12.7288969587
 30
0.0
 10
16.2326073745
 20
12.7294305526
 30
0.0
 10
16.2308504831
 20
12.7300735194
 30
0.0
 10
16.2290405972
 20
12.7305549715
 30
0.0
 10
16.2278118803
 20
12.7307630287
 30
0.0
 10
16.2271992105
 20
12.7308359829
 30
0.0
  0
SPLINE
  5
470
100
AcDbEntity
  8
LAYER_FEATURE
100
AcDbSpline
 62
7
  6
CONTINUOUS
 70
0
 71
3
 72
68
 73
64
 74
0
 42
0.0000001
 43
0.0000001
 44
0.0000000001
 40
0.0
 40
0.0
 40
0.0
 40
0.0
 40
0.0171788456
 40
0.0345306534
 40
0.0520446775
 40
0.0697104889
 40
0.0875169165
 40
0.1054526097
 40
0.1235058945
 40
0.141664841
 40
0.1599172928
 40
0.1782508911
 40
0.1966531056
 40
0.2151112604
 40
0.2521425354
 40
0.28924306
 40
0.3263089876
 40
0.3447973805
 40
0.3632383651
 40
0.3816191845
 40
0.3999272075
 40
0.4181499573
 40
0.4362751395
 40
0.4542906697
 40
0.4721847023
 40
0.4899456599
 40
0.5075622638
 40
0.525023566
 40
0.5423189791
 40
0.5594383092
 40
0.576371789
 40
0.5931101135
 40
0.6096444775
 40
0.6259666114
 40
0.6420688205
 40
0.6579440247
 40
0.6735858021
 40
0.6889884354
 40
0.704146957
 40
0.7190571972
 40
0.7337158342
 40
0.7481204471
 40
0.7622695731
 40
0.7761627631
 40
0.7898006386
 40
0.8031849497
 40
0.8163186336
 40
0.8292058738
 40
0.8418521562
 40
0.8542643185
 40
0.8664505942
 40
0.8784206496
 40
0.8901856082
 40
0.9017580632
 40
0.9131520671
 40
0.924383102
 40
0.9354680251
 40
0.9464249879
 40
0.9572733264
 40
0.9680334211
 40
0.9787265282
 40
0.9893745859
 40
1.0
 40
1.0
 40
1.0
 40
1.0
 10
15.160657447
 20
12.980598126
 30
0.0
 10
15.1695032357
 20
12.980598126
 30
0.0
 10
15.1872844431
 20
12.980403485
 30
0.0
 10
15.2140713933
 20
12.9795386481
 30
0.0
 10
15.2410848613
 20
12.9781002676
 30
0.0
 10
15.2682964444
 20
12.9760898992
 30
0.0
 10
15.2956779728
 20
12.9735095979
 30
0.0
 10
15.3232008946
 20
12.9703620641
 30
0.0
 10
15.3508365804
 20
12.9666505706
 30
0.0
 10
15.378556261
 20
12.9623789854
 30
0.0
 10
15.406331093
 20
12.9575517544
 30
0.0
 10
15.4341321322
 20
12.9521739068
 30
0.0
 10
15.4619305673
 20
12.9462510181
 30
0.0
 10
15.498990611
 20
12.9376265475
 30
0.0
 10
15.5451180771
 20
12.9255238913
 30
0.0
 10
15.599938806
 20
12.90895237
 30
0.0
 10
15.6450785309
 20
12.8934666715
 30
0.0
 10
15.6807619068
 20
12.8801029527
 30
0.0
 10
15.7072440522
 20
12.8696179783
 30
0.0
 10
15.7334390958
 20
12.858673963
 30
0.0
 10
15.7593198859
 20
12.8472822405
 30
0.0
 10
15.784859452
 20
12.835454685
 30
0.0
 10
15.81003122
 20
12.8232036061
 30
0.0
 10
15.8348089879
 20
12.810541756
 30
0.0
 10
15.8591669664
 20
12.7974823119
 30
0.0
 10
15.8830798018
 20
12.784038862
 30
0.0
 10
15.9065226062
 20
12.7702253955
 30
0.0
 10
15.9294709851
 20
12.7560562887
 30
0.0
 10
15.9519010581
 20
12.7415462839
 30
0.0
 10
15.9737894842
 20
12.7267104757
 30
0.0
 10
15.9951134852
 20
12.7115642942
 30
0.0
 10
16.0158508712
 20
12.6961234895
 30
0.0
 10
16.0359800684
 20
12.6804041206
 30
0.0
 10
16.0554801359
 20
12.6644225312
 30
0.0
 10
16.074330786
 20
12.648195333
 30
0.0
 10
16.0925124054
 20
12.6317393884
 30
0.0
 10
16.1100060745
 20
12.6150717913
 30
0.0
 10
16.1267935942
 20
12.5982098555
 30
0.0
 10
16.1428574995
 20
12.5811710907
 30
0.0
 10
16.1581810738
 20
12.563973183
 30
0.0
 10
16.1727483651
 20
12.5466339775
 30
0.0
 10
16.1865442008
 20
12.5291714574
 30
0.0
 10
16.1995542081
 20
12.51160373
 30
0.0
 10
16.2117648282
 20
12.4939490067
 30
0.0
 10
16.2231633208
 20
12.476225581
 30
0.0
 10
16.233737776
 20
12.4584518124
 30
0.0
 10
16.2434771236
 20
12.4406461076
 30
0.0
 10
16.2523711448
 20
12.4228269044
 30
0.0
 10
16.2604104888
 20
12.4050126588
 30
0.0
 10
16.2675866691
 20
12.3872218239
 30
0.0
 10
16.2738920715
 20
12.3694728376
 30
0.0
 10
16.2793199609
 20
12.3517841095
 30
0.0
 10
16.2838644882
 20
12.3341740072
 30
0.0
 10
16.287520712
 20
12.3166608477
 30
0.0
 10
16.2902845978
 20
12.2992628813
 30
0.0
 10
16.292153026
 20
12.2819982813
 30
0.0
 10
16.2931238055
 20
12.2648851294
 30
0.0
 10
16.2931956857
 20
12.2479414055
 30
0.0
 10
16.292368377
 20
12.2311849487
 30
0.0
 10
16.2906425853
 20
12.2146335101
 30
0.0
 10
16.288019926
 20
12.1983044425
 30
0.0
 10
16.2845032662
 20
12.1822157283
 30
0.0
 10
16.2815637111
 20
12.171656178
 30
0.0
 10
16.2799483341
 20
12.1664288083
 30
0.0
  0
SPLINE
  5
471
100
AcDbEntity
  8
LAYER_FEATURE
100
AcDbSpline
 62
7
  6
CONTINUOUS
 70
0
 71
3
 72
11
 73
7
 74
0
 42
0.0000001
 43
0.0000001
 44
0.0000000001
 40
0.0
 40
0.0
 40
0.0
 40
0.0
 40
0.2419131836
 40
0.49199904
 40
0.7461379117
 40
1.0
 40
1.0
 40
1.0
 40
1.0
 10
16.2750355777
 20
12.6566330063
 30
0.0
 10
16.2745370793
 20
12.6569612298
 30
0.0
 10
16.2734866203
 20
12.6575744184
 30
0.0
 10
16.2718121524
 20
12.6583454573
 30
0.0
 10
16.2700460825
 20
12.6589688653
 30
0.0
 10
16.268829203
 20
12.6592775619
 30
0.0
 10
16.2682155699
 20
12.6594030444
 30
0.0
  0
SPLINE
  5
472
100
AcDbEntity
  8
LAYER_FEATURE
100
AcDbSpline
 62
7
  6
CONTINUOUS
 70
0
 71
3
 72
11
 73
7
 74
0
 42
0.0000001
 43
0.0000001
 44
0.0000000001
 40
0.0
 40
0.0
 40
0.0
 40
0.0
 40
0.236452802
 40
0.48455398
 40
0.7404840976
 40
1.0
 40
1.0
 40
1.0
 40
1.0
 10
16.3008109396
 20
12.5848493072
 30
0.0
 10
16.3003662006
 20
12.5852086351
 30
0.0
 10
16.2994100176
 20
12.5858907065
 30
0.0
 10
16.2978499419
 20
12.5867750979
 30
0.0
 10
16.2961614798
 20
12.5875285407
 30
0.0
 10
16.2949795323
 20
12.587930488
 30
0.0
 10
16.2943768406
 20
12.5881052853
 30
0.0
  0
SPLINE
  5
473
100
AcDbEntity
  8
LAYER_FEATURE
100
AcDbSpline
 62
7
  6
CONTINUOUS
 70
0
 71
3
 72
11
 73
7
 74
0
 42
0.0000001
 43
0.0000001
 44
0.0000000001
 40
0.0
 40
0.0
 40
0.0
 40
0.0
 40
0.2311388552
 40
0.4771920038
 40
0.7348177339
 40
1.0
 40
1.0
 40
1.0
 40
1.0
 10
16.311096781
 20
12.5146518912
 30
0.0
 10
16.3107155122
 20
12.5150355347
 30
0.0
 10
16.309873612
 20
12.5157742514
 30
0.0
 10
16.3084576007
 20
12.5167552191
 30
0.0
 10
16.3068789952
 20
12.5176243239
 30
0.0
 10
16.3057540597
 20
12.5181104442
 30
0.0
 10
16.3051738231
 20
12.5183304354
 30
0.0
  0
SPLINE
  5
474
100
AcDbEntity
  8
LAYER_FEATURE
100
AcDbSpline
 62
7
  6
CONTINUOUS
 70
0
 71
3
 72
14
 73
10
 74
0
 42
0.0000001
 43
0.0000001
 44
0.0000000001
 40
0.0
 40
0.0
 40
0.0
 40
0.0
 40
0.1107522243
 40
0.226184606
 40
0.3460825745
 40
0.4701596364
 40
0.5980494216
 40
0.7293231602
 40
1.0
 40
1.0
 40
1.0
 40
1.0
 10
16.3056928995
 20
12.4474070711
 30
0.0
 10
16.3055414491
 20
12.4476032153
 30
0.0
 10
16.305216346
 20
12.4479917891
 30
0.0
 10
16.3046785365
 20
12.4485496913
 30
0.0
 10
16.304083594
 20
12.4490915534
 30
0.0
 10
16.3034353537
 20
12.4496139233
 30
0.0
 10
16.3027378641
 20
12.4501135419
 30
0.0
 10
16.3017381536
 20
12.4507515009
 30
0.0
 10
16.300943243
 20
12.4511763316
 30
0.0
 10
16.3003963664
 20
12.4514365828
 30
0.0
  0
SPLINE
  5
475
100
AcDbEntity
  8
LAYER_FEATURE
100
AcDbSpline
 62
7
  6
CONTINUOUS
 70
0
 71
3
 72
14
 73
10
 74
0
 42
0.0000001
 43
0.0000001
 44
0.0000000001
 40
0.0
 40
0.0
 40
0.0
 40
0.0
 40
0.2711646321
 40
0.4025440394
 40
0.5304533234
 40
0.6544706641
 40
0.7742386686
 40
0.8894820471
 40
1.0
 40
1.0
 40
1.0
 40
1.0
 10
14.7247400009
 20
12.9321910053
 30
0.0
 10
14.7241426395
 20
12.9322799394
 30
0.0
 10
14.7232487021
 20
12.9323705198
 30
0.0
 10
14.7220671792
 20
12.9323979897
 30
0.0
 10
14.721213407
 20
12.9323716922
 30
0.0
 10
14.7203882946
 20
12.932298869
 30
0.0
 10
14.7195969916
 20
12.9321799707
 30
0.0
 10
14.7188445764
 20
12.9320157284
 30
0.0
 10
14.7183616736
 20
12.9318736188
 30
0.0
 10
14.7181284842
 20
12.9317948034
 30
0.0
  0
SPLINE
  5
476
100
AcDbEntity
  8
LAYER_FEATURE
100
AcDbSpline
 62
7
  6
CONTINUOUS
 70
0
 71
3
 72
11
 73
7
 74
0
 42
0.0000001
 43
0.0000001
 44
0.0000000001
 40
0.0
 40
0.0
 40
0.0
 40
0.0
 40
0.265686965
 40
0.5234577558
 40
0.7693248255
 40
1.0
 40
1.0
 40
1.0
 40
1.0
 10
14.7572040512
 20
12.9906372976
 30
0.0
 10
14.7566008161
 20
12.9907784286
 30
0.0
 10
14.7553988396
 20
12.9910024559
 30
0.0
 10
14.7536090781
 20
12.9911611933
 30
0.0
 10
14.7518938746
 20
12.9911356905
 30
0.0
 10
14.7507886879
 20
12.9909908099
 30
0.0
 10
14.7502614733
 20
12.9908842052
 30
0.0
  0
SPLINE
  5
477
100
AcDbEntity
  8
LAYER_FEATURE
100
AcDbSpline
 62
7
  6
CONTINUOUS
 70
0
 71
3
 72
11
 73
7
 74
0
 42
0.0000001
 43
0.0000001
 44
0.0000000001
 40
0.0
 40
0.0
 40
0.0
 40
0.0
 40
0.2600226628
 40
0.5161088831
 40
0.7640295926
 40
1.0
 40
1.0
 40
1.0
 40
1.0
 10
14.8042231331
 20
13.0427716712
 30
0.0
 10
14.8036257959
 20
13.0429630131
 30
0.0
 10
14.8024221592
 20
13.0432890479
 30
0.0
 10
14.8006038618
 20
13.0436056813
 30
0.0
 10
14.7988212211
 20
13.0437413071
 30
0.0
 10
14.7976515681
 20
13.0437076737
 30
0.0
 10
14.7970846235
 20
13.0436568827
 30
0.0
  0
SPLINE
  5
478
100
AcDbEntity
  8
LAYER_FEATURE
100
AcDbSpline
 62
7
  6
CONTINUOUS
 70
0
 71
3
 72
11
 73
7
 74
0
 42
0.0000001
 43
0.0000001
 44
0.0000000001
 40
0.0
 40
0.0
 40
0.0
 40
0.0
 40
0.2543658495
 40
0.508667787
 40
0.7585787634
 40
1.0
 40
1.0
 40
1.0
 40
1.0
 10
14.8648820738
 20
13.0875793901
 30
0.0
 10
14.8643024716
 20
13.0878179386
 30
0.0
 10
14.8631205125
 20
13.0882411992
 30
0.0
 10
14.8613083882
 20
13.0887096662
 30
0.0
 10
14.8594921722
 20
13.0890037995
 30
0.0
 10
14.8582814285
 20
13.0890804188
 30
0.0
 10
14.8576865753
 20
13.0890856756
 30
0.0
  0
SPLINE
  5
479
100
AcDbEntity
  8
LAYER_FEATURE
100
AcDbSpline
 62
7
  6
CONTINUOUS
 70
0
 71
3
 72
11
 73
7
 74
0
 42
0.0000001
 43
0.0000001
 44
0.0000000001
 40
0.0
 40
0.0
 40
0.0
 40
0.0
 40
0.248752621
 40
0.5012020417
 40
0.7530426561
 40
1.0
 40
1.0
 40
1.0
 40
1.0
 10
14.9380002159
 20
13.1241883227
 30
0.0
 10
14.9374500168
 20
13.1244700996
 30
0.0
 10
14.9363130021
 20
13.1249838287
 30
0.0
 10
14.9345417167
 20
13.1255951605
 30
0.0
 10
14.9327265894
 20
13.1260421849
 30
0.0
 10
14.9314984978
 20
13.12622598
 30
0.0
 10
14.9308877808
 20
13.1262863643
 30
0.0
  0
SPLINE
  5
47A
100
AcDbEntity
  8
LAYER_FEATURE
100
AcDbSpline
 62
7
  6
CONTINUOUS
 70
0
 71
3
 72
11
 73
7
 74
0
 42
0.0000001
 43
0.0000001
 44
0.0000000001
 40
0.0
 40
0.0
 40
0.0
 40
0.0
 40
0.2431956391
 40
0.4937341418
 40
0.7474464444
 40
1.0
 40
1.0
 40
1.0
 40
1.0
 10
15.022154398
 20
13.151885918
 30
0.0
 10
15.0216448829
 20
13.1522060248
 30
0.0
 10
15.0205755329
 20
13.1528016041
 30
0.0
 10
15.0188789782
 20
13.153544096
 30
0.0
 10
15.0170996634
 20
13.1541354669
 30
0.0
 10
15.0158779431
 20
13.1544213582
 30
0.0
 10
15.0152634618
 20
13.1545348796
 30
0.0
  0
SPLINE
  5
47B
100
AcDbEntity
  8
LAYER_FEATURE
100
AcDbSpline
 62
7
  6
CONTINUOUS
 70
0
 71
3
 72
11
 73
7
 74
0
 42
0.0000001
 43
0.0000001
 44
0.0000000001
 40
0.0
 40
0.0
 40
0.0
 40
0.0
 40
0.2377125992
 40
0.4862808113
 40
0.7418014829
 40
1.0
 40
1.0
 40
1.0
 40
1.0
 10
15.1157066546
 20
13.1701330738
 30
0.0
 10
15.1152485171
 20
13.1704857452
 30
0.0
 10
15.1142685712
 20
13.1711528395
 30
0.0
 10
15.1126791576
 20
13.1720123042
 30
0.0
 10
15.1109697065
 20
13.1727367113
 30
0.0
 10
15.1097776224
 20
13.1731177289
 30
0.0
 10
15.1091713415
 20
13.1732813963
 30
0.0
  0
LINE
  5
47C
100
AcDbEntity
  8
LAYER_FEATURE
100
AcDbLine
 62
7
  6
CONTINUOUS
 10
15.086764878
 20
13.1698237606
 11
15.0860358824
 21
13.1684717127
  0
SPLINE
  5
47D
100
AcDbEntity
  8
LAYER_FEATURE
100
AcDbSpline
 62
7
  6
CONTINUOUS
 70
0
 71
3
 72
11
 73
7
 74
0
 42
0.0000001
 43
0.0000001
 44
0.0000000001
 40
0.0
 40
0.0
 40
0.0
 40
0.0
 40
0.2323552118
 40
0.478890129
 40
0.73613283
 40
1.0
 40
1.0
 40
1.0
 40
1.0
 10
15.2168360975
 20
13.1785746298
 30
0.0
 10
15.2164392555
 20
13.178953269
 30
0.0
 10
15.2155690875
 20
13.1796799823
 30
0.0
 10
15.2141170765
 20
13.1806400854
 30
0.0
 10
15.2125101574
 20
13.1814836981
 30
0.0
 10
15.2113700664
 20
13.1819511391
 30
0.0
 10
15.2107836099
 20
13.1821610349
 30
0.0
  0
SPLINE
  5
47E
100
AcDbEntity
  8
LAYER_FEATURE
100
AcDbSpline
 62
7
  6
CONTINUOUS
 70
0
 71
3
 72
11
 73
7
 74
0
 42
0.0000001
 43
0.0000001
 44
0.0000000001
 40
0.0
 40
0.0
 40
0.0
 40
0.0
 40
0.2629941179
 40
0.5151439955
 40
0.7595802779
 40
1.0
 40
1.0
 40
1.0
 40
1.0
 10
15.1867712114
 20
13.1810009631
 30
0.0
 10
15.1865967561
 20
13.1808589792
 30
0.0
 10
15.1862716939
 20
13.1805593521
 30
0.0
 10
15.1858581575
 20
13.1800554576
 30
0.0
 10
15.1855342068
 20
13.1795119408
 30
0.0
 10
15.1853796941
 20
13.1791248925
 30
0.0
 10
15.1853189848
 20
13.1789284348
 30
0.0
  0
SPLINE
  5
47F
100
AcDbEntity
  8
LAYER_FEATURE
100
AcDbSpline
 62
7
  6
CONTINUOUS
 70
0
 71
3
 72
68
 73
64
 74
0
 42
0.0000001
 43
0.0000001
 44
0.0000000001
 40
0.0
 40
0.0
 40
0.0
 40
0.0
 40
0.0171788456
 40
0.0345306534
 40
0.0520446775
 40
0.0697104889
 40
0.0875169165
 40
0.1054526097
 40
0.1235058945
 40
0.141664841
 40
0.1599172928
 40
0.1782508911
 40
0.1966531056
 40
0.2151112604
 40
0.2521425354
 40
0.28924306
 40
0.3263089876
 40
0.3447973805
 40
0.3632383651
 40
0.3816191845
 40
0.3999272075
 40
0.4181499573
 40
0.4362751395
 40
0.4542906697
 40
0.4721847023
 40
0.4899456599
 40
0.5075622638
 40
0.525023566
 40
0.5423189791
 40
0.5594383092
 40
0.576371789
 40
0.5931101135
 40
0.6096444775
 40
0.6259666114
 40
0.6420688205
 40
0.6579440247
 40
0.6735858021
 40
0.6889884354
 40
0.704146957
 40
0.7190571972
 40
0.7337158342
 40
0.7481204471
 40
0.7622695731
 40
0.7761627631
 40
0.7898006386
 40
0.8031849497
 40
0.8163186336
 40
0.8292058738
 40
0.8418521562
 40
0.8542643185
 40
0.8664505942
 40
0.8784206496
 40
0.8901856082
 40
0.9017580632
 40
0.9131520671
 40
0.924383102
 40
0.9354680251
 40
0.9464249879
 40
0.9572733264
 40
0.9680334211
 40
0.9787265282
 40
0.9893745859
 40
1.0
 40
1.0
 40
1.0
 40
1.0
 10
15.2494957877
 20
13.2680791018
 30
0.0
 10
15.2583415764
 20
13.2680791018
 30
0.0
 10
15.2761227838
 20
13.2678844608
 30
0.0
 10
15.302909734
 20
13.2670196239
 30
0.0
 10
15.329923202
 20
13.2655812435
 30
0.0
 10
15.3571347851
 20
13.263570875
 30
0.0
 10
15.3845163135
 20
13.2609905737
 30
0.0
 10
15.4120392353
 20
13.2578430399
 30
0.0
 10
15.4396749211
 20
13.2541315464
 30
0.0
 10
15.4673946017
 20
13.2498599612
 30
0.0
 10
15.4951694337
 20
13.2450327303
 30
0.0
 10
15.5229704729
 20
13.2396548826
 30
0.0
 10
15.5507689079
 20
13.2337319939
 30
0.0
 10
15.5878289517
 20
13.2251075233
 30
0.0
 10
15.6339564178
 20
13.2130048672
 30
0.0
 10
15.6887771467
 20
13.1964333458
 30
0.0
 10
15.7339168716
 20
13.1809476473
 30
0.0
 10
15.7696002474
 20
13.1675839285
 30
0.0
 10
15.7960823929
 20
13.1570989541
 30
0.0
 10
15.8222774364
 20
13.1461549388
 30
0.0
 10
15.8481582266
 20
13.1347632163
 30
0.0
 10
15.8736977927
 20
13.1229356609
 30
0.0
 10
15.8988695607
 20
13.1106845819
 30
0.0
 10
15.9236473286
 20
13.0980227318
 30
0.0
 10
15.9480053071
 20
13.0849632877
 30
0.0
 10
15.9719181425
 20
13.0715198379
 30
0.0
 10
15.9953609469
 20
13.0577063713
 30
0.0
 10
16.0183093258
 20
13.0435372645
 30
0.0
 10
16.0407393988
 20
13.0290272597
 30
0.0
 10
16.0626278249
 20
13.0141914516
 30
0.0
 10
16.0839518259
 20
12.9990452701
 30
0.0
 10
16.1046892119
 20
12.9836044653
 30
0.0
 10
16.1248184091
 20
12.9678850965
 30
0.0
 10
16.1443184766
 20
12.9519035071
 30
0.0
 10
16.1631691267
 20
12.9356763088
 30
0.0
 10
16.1813507461
 20
12.9192203642
 30
0.0
 10
16.1988444152
 20
12.9025527671
 30
0.0
 10
16.2156319349
 20
12.8856908313
 30
0.0
 10
16.2316958402
 20
12.8686520665
 30
0.0
 10
16.2470194145
 20
12.8514541588
 30
0.0
 10
16.2615867058
 20
12.8341149533
 30
0.0
 10
16.2753825415
 20
12.8166524333
 30
0.0
 10
16.2883925488
 20
12.7990847058
 30
0.0
 10
16.3006031689
 20
12.7814299825
 30
0.0
 10
16.3120016614
 20
12.7637065569
 30
0.0
 10
16.3225761167
 20
12.7459327882
 30
0.0
 10
16.3323154643
 20
12.7281270834
 30
0.0
 10
16.3412094855
 20
12.7103078802
 30
0.0
 10
16.3492488294
 20
12.6924936346
 30
0.0
 10
16.3564250098
 20
12.6747027997
 30
0.0
 10
16.3627304122
 20
12.6569538134
 30
0.0
 10
16.3681583016
 20
12.6392650853
 30
0.0
 10
16.3727028289
 20
12.6216549831
 30
0.0
 10
16.3763590527
 20
12.6041418235
 30
0.0
 10
16.3791229385
 20
12.5867438571
 30
0.0
 10
16.3809913667
 20
12.5694792571
 30
0.0
 10
16.3819621462
 20
12.5523661052
 30
0.0
 10
16.3820340264
 20
12.5354223814
 30
0.0
 10
16.3812067177
 20
12.5186659245
 30
0.0
 10
16.379480926
 20
12.5021144859
 30
0.0
 10
16.3768582667
 20
12.4857854183
 30
0.0
 10
16.3733416069
 20
12.4696967042
 30
0.0
 10
16.3704020518
 20
12.4591371539
 30
0.0
 10
16.3687866748
 20
12.4539097842
 30
0.0
  0
SPLINE
  5
480
100
AcDbEntity
  8
LAYER_FEATURE
100
AcDbSpline
 62
7
  6
CONTINUOUS
 70
0
 71
3
 72
11
 73
7
 74
0
 42
0.0000001
 43
0.0000001
 44
0.0000000001
 40
0.0
 40
0.0
 40
0.0
 40
0.0
 40
0.2268379804
 40
0.4679203218
 40
0.7251819062
 40
1.0
 40
1.0
 40
1.0
 40
1.0
 10
15.9745485663
 20
12.3578919584
 30
0.0
 10
15.9752002176
 20
12.357563601
 30
0.0
 10
15.9765004789
 20
12.3567964285
 30
0.0
 10
15.9783636031
 20
12.3553855911
 30
0.0
 10
15.9801875073
 20
12.3536892642
 30
0.0
 10
15.9813343316
 20
12.3524156156
 30
0.0
 10
15.9819008311
 20
12.3517369251
 30
0.0
  0
SPLINE
  5
481
100
AcDbEntity
  8
02___PRT_ALL_AXES
100
AcDbSpline
 62
7
  6
CONTINUOUS
 70
0
 71
3
 72
39
 73
35
 74
0
 42
0.0000001
 43
0.0000001
 44
0.0000000001
 40
0.0
 40
0.0
 40
0.0
 40
0.0
 40
0.0248034973
 40
0.0496643335
 40
0.0746391947
 40
0.0997834851
 40
0.1251507427
 40
0.1507921168
 40
0.1767559198
 40
0.2030872608
 40
0.2298277638
 40
0.2570153696
 40
0.284684211
 40
0.312864556
 40
0.3415828085
 40
0.3708615539
 40
0.4007196437
 40
0.4311723119
 40
0.4622313094
 40
0.493905052
 40
0.5261987774
 40
0.5591147045
 40
0.5926521923
 40
0.6268079021
 40
0.6615759537
 40
0.6969480775
 40
0.7329137579
 40
0.7694603751
 40
0.8065733377
 40
0.8442361876
 40
0.8824308336
 40
0.9211372865
 40
0.9603348127
 40
1.0
 40
1.0
 40
1.0
 40
1.0
 10
14.8008284231
 20
12.5891861892
 30
0.0
 10
14.8020600996
 20
12.5931719017
 30
0.0
 10
14.8047615662
 20
12.6010820047
 30
0.0
 10
14.8095106851
 20
12.612709875
 30
0.0
 10
14.8149533713
 20
12.62409366
 30
0.0
 10
14.8210830876
 20
12.6352197565
 30
0.0
 10
14.8278927084
 20
12.6460755944
 30
0.0
 10
14.835374268
 20
12.6566487793
 30
0.0
 10
14.8435190584
 20
12.6669273402
 30
0.0
 10
14.8523176267
 20
12.6768996779
 30
0.0
 10
14.8617598048
 20
12.6865545854
 30
0.0
 10
14.8718347268
 20
12.6958812457
 30
0.0
 10
14.8825308445
 20
12.7048692365
 30
0.0
 10
14.8938359414
 20
12.7135085326
 30
0.0
 10
14.9057371451
 20
12.7217895091
 30
0.0
 10
14.9182209372
 20
12.7297029478
 30
0.0
 10
14.9312731649
 20
12.737240044
 30
0.0
 10
14.9448790554
 20
12.7443924096
 30
0.0
 10
14.9590232292
 20
12.7511520812
 30
0.0
 10
14.9736897131
 20
12.7575115274
 30
0.0
 10
14.988861955
 20
12.7634636569
 30
0.0
 10
15.0045228393
 20
12.7690018264
 30
0.0
 10
15.0206547019
 20
12.7741198525
 30
0.0
 10
15.0372393502
 20
12.778812016
 30
0.0
 10
15.0542580828
 20
12.7830730688
 30
0.0
 10
15.0716917087
 20
12.7868982411
 30
0.0
 10
15.0895205685
 20
12.7902832475
 30
0.0
 10
15.1077245563
 20
12.7932242929
 30
0.0
 10
15.1262831361
 20
12.7957180776
 30
0.0
 10
15.1451753837
 20
12.7977618116
 30
0.0
 10
15.1643799485
 20
12.7993531886
 30
0.0
 10
15.1838752586
 20
12.8004904503
 30
0.0
 10
15.2036391085
 20
12.8011722834
 30
0.0
 10
15.2169034995
 20
12.8013218771
 30
0.0
 10
15.2235747583
 20
12.8013218771
 30
0.0
  0
SPLINE
  5
482
100
AcDbEntity
  8
02___PRT_ALL_AXES
100
AcDbSpline
 62
7
  6
CONTINUOUS
 70
0
 71
3
 72
23
 73
19
 74
0
 42
0.0000001
 43
0.0000001
 44
0.0000000001
 40
0.0
 40
0.0
 40
0.0
 40
0.0
 40
0.0518483789
 40
0.1039030555
 40
0.1564936032
 40
0.2099381482
 40
0.2645365683
 40
0.3205651377
 40
0.378273094
 40
0.4378801636
 40
0.499576158
 40
0.5635212794
 40
0.629847233
 40
0.698658763
 40
0.7700334567
 40
0.8440290935
 40
0.9206847033
 40
1.0
 40
1.0
 40
1.0
 40
1.0
 10
15.9816618222
 20
12.3594263757
 30
0.0
 10
15.9821722997
 20
12.3594263773
 30
0.0
 10
15.9831959399
 20
12.3593782465
 30
0.0
 10
15.9847235305
 20
12.3591613682
 30
0.0
 10
15.9862398176
 20
12.3588002355
 30
0.0
 10
15.987740872
 20
12.3582955956
 30
0.0
 10
15.9892230914
 20
12.3576484143
 30
0.0
 10
15.9906829863
 20
12.3568599991
 30
0.0
 10
15.9921171823
 20
12.3559318013
 30
0.0
 10
15.9935224706
 20
12.3548655575
 30
0.0
 10
15.9948957634
 20
12.3536631917
 30
0.0
 10
15.9962340827
 20
12.3523268257
 30
0.0
 10
15.9975346289
 20
12.3508588443
 30
0.0
 10
15.9987946517
 20
12.3492618009
 30
0.0
 10
16.000011637
 20
12.3475385377
 30
0.0
 10
16.0011831723
 20
12.3456920103
 30
0.0
 10
16.0023069099
 20
12.3437255739
 30
0.0
 10
16.0030108867
 20
12.3423602305
 30
0.0
 10
16.0033549088
 20
12.3416591872
 30
0.0
  0
SPLINE
  5
483
100
AcDbEntity
  8
LAYER_CHAMFER_FEAT
100
AcDbSpline
 62
7
  6
CONTINUOUS
 70
0
 71
3
 72
42
 73
38
 74
0
 42
0.0000001
 43
0.0000001
 44
0.0000000001
 40
0.0
 40
0.0
 40
0.0
 40
0.0
 40
0.0106262457
 40
0.0212751341
 40
0.0319690801
 40
0.0427300124
 40
0.0535792044
 40
0.0645370181
 40
0.0868474343
 40
0.1098090065
 40
0.133539822
 40
0.1581347448
 40
0.1836654037
 40
0.2101811314
 40
0.2377104723
 40
0.266262969
 40
0.2958310269
 40
0.3263917377
 40
0.3579085984
 40
0.3903331019
 40
0.4236061957
 40
0.4576596171
 40
0.492417122
 40
0.5277956214
 40
0.5637062427
 40
0.6000553312
 40
0.6367454026
 40
0.6736760603
 40
0.7107448857
 40
0.7478483114
 40
0.7848824815
 40
0.82174412
 40
0.8583313726
 40
0.894544752
 40
0.9302878508
 40
0.965468723
 40
1.0
 40
1.0
 40
1.0
 40
1.0
 10
15.2328908155
 20
12.2091706642
 30
0.0
 10
15.2326634276
 20
12.2084348288
 30
0.0
 10
15.2322496468
 20
12.2069484037
 30
0.0
 10
15.2317546049
 20
12.2046836677
 30
0.0
 10
15.2313854421
 20
12.2023850885
 30
0.0
 10
15.2311424893
 20
12.2000552257
 30
0.0
 10
15.2310260607
 20
12.1976964461
 30
0.0
 10
15.2310395615
 20
12.1944976597
 30
0.0
 10
15.2313796757
 20
12.1904285849
 30
0.0
 10
15.2322912361
 20
12.1855035169
 30
0.0
 10
15.2337037169
 20
12.1805262093
 30
0.0
 10
15.2356103574
 20
12.1755175988
 30
0.0
 10
15.2380025269
 20
12.1704980443
 30
0.0
 10
15.2408698023
 20
12.1654880089
 30
0.0
 10
15.2441999674
 20
12.160507866
 30
0.0
 10
15.2479790226
 20
12.1555779129
 30
0.0
 10
15.2521911998
 20
12.1507182921
 30
0.0
 10
15.256818994
 20
12.1459489173
 30
0.0
 10
15.2618432091
 20
12.1412893859
 30
0.0
 10
15.2672430201
 20
12.1367588907
 30
0.0
 10
15.2729960472
 20
12.132376131
 30
0.0
 10
15.2790784419
 20
12.1281592263
 30
0.0
 10
15.2854649813
 20
12.124125634
 30
0.0
 10
15.2921291711
 20
12.1202920697
 30
0.0
 10
15.2990433554
 20
12.1166744332
 30
0.0
 10
15.3061788313
 20
12.1132877376
 30
0.0
 10
15.3135059694
 20
12.1101460438
 30
0.0
 10
15.3209943385
 20
12.1072623995
 30
0.0
 10
15.3286128328
 20
12.1046487829
 30
0.0
 10
15.3363298038
 20
12.1023160519
 30
0.0
 10
15.3441131931
 20
12.1002738966
 30
0.0
 10
15.3519306662
 20
12.0985308017
 30
0.0
 10
15.3597497574
 20
12.0970940048
 30
0.0
 10
15.3675379754
 20
12.095969479
 30
0.0
 10
15.3752630485
 20
12.0951618863
 30
0.0
 10
15.3828927067
 20
12.0946745971
 30
0.0
 10
15.3879458988
 20
12.0945634969
 30
0.0
 10
15.3904486536
 20
12.0945634969
 30
0.0
  0
SPLINE
  5
484
100
AcDbEntity
  8
02___PRT_ALL_AXES
100
AcDbSpline
 62
7
  6
CONTINUOUS
 70
0
 71
3
 72
39
 73
35
 74
0
 42
0.0000001
 43
0.0000001
 44
0.0000000001
 40
0.0
 40
0.0
 40
0.0
 40
0.0
 40
0.0396653821
 40
0.0788626149
 40
0.1175692042
 40
0.1557638046
 40
0.1934266656
 40
0.2305396237
 40
0.2670862409
 40
0.3030519234
 40
0.3384240485
 40
0.3731921001
 40
0.4073478087
 40
0.4408852952
 40
0.4738012216
 40
0.5060949475
 40
0.5377686913
 40
0.5688276899
 40
0.5992803583
 40
0.6291384466
 40
0.6584171901
 40
0.6871354426
 40
0.7153157893
 40
0.7429846318
 40
0.7701722375
 40
0.7969127397
 40
0.8232440798
 40
0.8492078825
 40
0.8748492568
 40
0.9002165148
 40
0.9253608057
 40
0.950335667
 40
0.9751965029
 40
1.0
 40
1.0
 40
1.0
 40
1.0
 10
15.1495024634
 20
12.5616238428
 30
0.0
 10
15.1428311717
 20
12.5616238428
 30
0.0
 10
15.1295667972
 20
12.5614742544
 30
0.0
 10
15.1098029413
 20
12.5607924101
 30
0.0
 10
15.0903076645
 20
12.5596551614
 30
0.0
 10
15.0711030829
 20
12.5580637775
 30
0.0
 10
15.0522108416
 20
12.5560200454
 30
0.0
 10
15.033652261
 20
12.5535262576
 30
0.0
 10
15.0154482736
 20
12.5505852125
 30
0.0
 10
14.9976194127
 20
12.547200208
 30
0.0
 10
14.9801857859
 20
12.5433750371
 30
0.0
 10
14.9631670533
 20
12.5391139839
 30
0.0
 10
14.9465824056
 20
12.5344218193
 30
0.0
 10
14.9304505438
 20
12.5293037922
 30
0.0
 10
14.9147896599
 20
12.5237656223
 30
0.0
 10
14.8996174175
 20
12.5178134934
 30
0.0
 10
14.8849509327
 20
12.5114540481
 30
0.0
 10
14.870806758
 20
12.5046943774
 30
0.0
 10
14.8572008672
 20
12.497542012
 30
0.0
 10
14.8441486409
 20
12.4900049144
 30
0.0
 10
14.8316648506
 20
12.4820914739
 30
0.0
 10
14.8197636468
 20
12.4738104976
 30
0.0
 10
14.8084585478
 20
12.4651712033
 30
0.0
 10
14.7977624285
 20
12.4561832136
 30
0.0
 10
14.7876875068
 20
12.4468565528
 30
0.0
 10
14.77824533
 20
12.4372016444
 30
0.0
 10
14.7694467631
 20
12.4272293058
 30
0.0
 10
14.7613019731
 20
12.4169507447
 30
0.0
 10
14.7538204127
 20
12.4063775604
 30
0.0
 10
14.7470107905
 20
12.3955217231
 30
0.0
 10
14.7408810728
 20
12.384395627
 30
0.0
 10
14.7354383866
 20
12.373011842
 30
0.0
 10
14.7306892689
 20
12.3613839711
 30
0.0
 10
14.7279878063
 20
12.3534738668
 30
0.0
 10
14.7267561287
 20
12.3494881546
 30
0.0
  0
SPLINE
  5
485
100
AcDbEntity
  8
LAYER_CHAMFER_FEAT
100
AcDbSpline
 62
7
  6
CONTINUOUS
 70
0
 71
3
 72
27
 73
23
 74
0
 42
0.0000001
 43
0.0000001
 44
0.0000000001
 40
0.0
 40
0.0
 40
0.0
 40
0.0
 40
0.024806397
 40
0.0496701371
 40
0.0746479227
 40
0.0997951463
 40
0.1251653792
 40
0.1508097402
 40
0.1767765913
 40
0.2031109945
 40
0.257028775
 40
0.3128695199
 40
0.3708599276
 40
0.4311658473
 40
0.4938953618
 40
0.5591032351
 40
0.6267959386
 40
0.6969367633
 40
0.7694506966
 40
0.8442290415
 40
0.9211334428
 40
1.0
 40
1.0
 40
1.0
 40
1.0
 10
15.4717460251
 20
12.1353588218
 30
0.0
 10
15.4715091662
 20
12.134592338
 30
0.0
 10
15.4709896409
 20
12.1330711689
 30
0.0
 10
15.4700763651
 20
12.1308350333
 30
0.0
 10
15.4690296799
 20
12.128645851
 30
0.0
 10
15.4678509029
 20
12.1265062096
 30
0.0
 10
15.4665413442
 20
12.1244185556
 30
0.0
 10
15.4651026041
 20
12.1223852486
 30
0.0
 10
15.4635362536
 20
12.1204085852
 30
0.0
 10
15.4612627152
 20
12.1178316649
 30
0.0
 10
15.4580980323
 20
12.1147613594
 30
0.0
 10
15.4538540115
 20
12.1113700677
 30
0.0
 10
15.4491529773
 20
12.1082564917
 30
0.0
 10
15.4440167783
 20
12.1054341805
 30
0.0
 10
15.4384686158
 20
12.1029150261
 30
0.0
 10
15.4325334742
 20
12.1007098081
 30
0.0
 10
15.4262379587
 20
12.0988279934
 30
0.0
 10
15.4196102608
 20
12.0972777248
 30
0.0
 10
15.4126800745
 20
12.0960657466
 30
0.0
 10
15.4054784087
 20
12.09519736
 30
0.0
 10
15.3980377634
 20
12.0946763694
 30
0.0
 10
15.3929992224
 20
12.0945634969
 30
0.0
 10
15.3904486536
 20
12.0945634969
 30
0.0
  0
SPLINE
  5
486
100
AcDbEntity
  8
LAYER_FEATURE
100
AcDbSpline
 62
7
  6
CONTINUOUS
 70
0
 71
3
 72
78
 73
74
 74
0
 42
0.0000001
 43
0.0000001
 44
0.0000000001
 40
0.0
 40
0.0
 40
0.0
 40
0.0
 40
0.0053541108
 40
0.0107129107
 40
0.0160810692
 40
0.0214632142
 40
0.0268639159
 40
0.0322876632
 40
0.0377388523
 40
0.0432217632
 40
0.0487405524
 40
0.0542992305
 40
0.0655500317
 40
0.0770046161
 40
0.0828172546
 40
0.0886903354
 40
0.1006274884
 40
0.1128373038
 40
0.1190503845
 40
0.1253376627
 40
0.1381401075
 40
0.1512565204
 40
0.1646948606
 40
0.1784604065
 40
0.1925559104
 40
0.2069817575
 40
0.2217361245
 40
0.2368151342
 40
0.2522130044
 40
0.2679221909
 40
0.2839335216
 40
0.3002363252
 40
0.3168185514
 40
0.3336668852
 40
0.3507668548
 40
0.3681029343
 40
0.385658641
 40
0.4034166287
 40
0.4213587768
 40
0.4394662766
 40
0.4577197143
 40
0.4760991513
 40
0.4945842036
 40
0.5131541179
 40
0.5317878479
 40
0.5504641282
 40
0.5691615485
 40
0.5878586267
 40
0.6065338817
 40
0.6251659068
 40
0.6437334425
 40
0.6622154505
 40
0.6805911883
 40
0.6988402846
 40
0.7169428166
 40
0.7348793883
 40
0.7526312117
 40
0.7701801894
 40
0.7875090014
 40
0.804601194
 40
0.8214412733
 40
0.8380148027
 40
0.8543085058
 40
0.8703103744
 40
0.886009783
 40
0.9013976095
 40
0.9164663633
 40
0.931210321
 40
0.9456256683
 40
0.9597106497
 40
0.9734657235
 40
0.9868937197
 40
1.0
 40
1.0
 40
1.0
 40
1.0
 10
14.7348604182
 20
12.6297379244
 30
0.0
 10
14.7357051851
 20
12.6324715936
 30
0.0
 10
14.7374944509
 20
12.637911298
 30
0.0
 10
14.7404730586
 20
12.645974147
 30
0.0
 10
14.7437457046
 20
12.6539385065
 30
0.0
 10
14.7473108686
 20
12.6618008325
 30
0.0
 10
14.7511670775
 20
12.6695577537
 30
0.0
 10
14.7553125987
 20
12.6772059539
 30
0.0
 10
14.7597456979
 20
12.6847421256
 30
0.0
 10
14.7644643815
 20
12.6921630478
 30
0.0
 10
14.7694667311
 20
12.6994655822
 30
0.0
 10
14.7765394417
 20
12.7090779979
 30
0.0
 10
14.786096148
 20
12.7207894631
 30
0.0
 10
14.7964776811
 20
12.7319609954
 30
0.0
 10
14.8053061942
 20
12.7406223029
 30
0.0
 10
14.8145827418
 20
12.7491870088
 30
0.0
 10
14.8268525812
 20
12.7595373102
 30
0.0
 10
14.8398349778
 20
12.7692825116
 30
0.0
 10
14.8507087641
 20
12.7767771026
 30
0.0
 10
14.8620427528
 20
12.7841538049
 30
0.0
 10
14.8768297623
 20
12.7929761887
 30
0.0
 10
14.8954075889
 20
12.8028532139
 30
0.0
 10
14.9148934996
 20
12.8120674349
 30
0.0
 10
14.9352538875
 20
12.8206032288
 30
0.0
 10
14.9564541144
 20
12.8284463507
 30
0.0
 10
14.978458015
 20
12.8355836229
 30
0.0
 10
15.0012280994
 20
12.8420030542
 30
0.0
 10
15.0247255674
 20
12.8476938379
 30
0.0
 10
15.0489103803
 20
12.8526463828
 30
0.0
 10
15.0737413223
 20
12.8568523311
 30
0.0
 10
15.099176069
 20
12.8603045787
 30
0.0
 10
15.1251712577
 20
12.86299729
 30
0.0
 10
15.1516825604
 20
12.8649259119
 30
0.0
 10
15.1786647594
 20
12.8660871842
 30
0.0
 10
15.2060718246
 20
12.866479148
 30
0.0
 10
15.2338569921
 20
12.866101151
 30
0.0
 10
15.2619728447
 20
12.8649538502
 30
0.0
 10
15.2903713936
 20
12.8630392122
 30
0.0
 10
15.319004161
 20
12.8603605116
 30
0.0
 10
15.3478222634
 20
12.8569223253
 30
0.0
 10
15.3767764959
 20
12.8527305264
 30
0.0
 10
15.4058174171
 20
12.8477922742
 30
0.0
 10
15.4348954338
 20
12.8421160024
 30
0.0
 10
15.4639608867
 20
12.8357114053
 30
0.0
 10
15.4929641359
 20
12.8285894211
 30
0.0
 10
15.5218556458
 20
12.8207622135
 30
0.0
 10
15.5505860709
 20
12.8122431512
 30
0.0
 10
15.5791063402
 20
12.8030467844
 30
0.0
 10
15.6073677417
 20
12.7931888203
 30
0.0
 10
15.635322006
 20
12.7826860962
 30
0.0
 10
15.6629213894
 20
12.7715565498
 30
0.0
 10
15.6901187556
 20
12.7598191889
 30
0.0
 10
15.7168676572
 20
12.7474940584
 30
0.0
 10
15.7431224147
 20
12.7346022049
 30
0.0
 10
15.7688381954
 20
12.7211656412
 30
0.0
 10
15.7939710902
 20
12.7072073069
 30
0.0
 10
15.8184781887
 20
12.6927510292
 30
0.0
 10
15.8423176527
 20
12.6778214806
 30
0.0
 10
15.8654487878
 20
12.6624441361
 30
0.0
 10
15.8878321126
 20
12.646645228
 30
0.0
 10
15.909429426
 20
12.6304516995
 30
0.0
 10
15.9302038718
 20
12.6138911574
 30
0.0
 10
15.9501200005
 20
12.5969918227
 30
0.0
 10
15.9691438288
 20
12.5797824805
 30
0.0
 10
15.9872428955
 20
12.5622924283
 30
0.0
 10
16.0043863137
 20
12.5445514243
 30
0.0
 10
16.0205448216
 20
12.5265896326
 30
0.0
 10
16.0356908237
 20
12.5084375759
 30
0.0
 10
16.0497984435
 20
12.4901260596
 30
0.0
 10
16.0628435215
 20
12.471686199
 30
0.0
 10
16.0748037871
 20
12.4531490788
 30
0.0
 10
16.0856583819
 20
12.4345467423
 30
0.0
 10
16.0922242099
 20
12.4219712517
 30
0.0
 10
16.0953097509
 20
12.4156835801
 30
0.0
  0
SPLINE
  5
487
100
AcDbEntity
  8
LAYER_CUT_FEAT
100
AcDbSpline
 62
7
  6
CONTINUOUS
 70
0
 71
3
 72
78
 73
74
 74
0
 42
0.0000001
 43
0.0000001
 44
0.0000000001
 40
0.0
 40
0.0
 40
0.0
 40
0.0
 40
0.0053541108
 40
0.0107129107
 40
0.0160810692
 40
0.0214632142
 40
0.0268639159
 40
0.0322876632
 40
0.0377388523
 40
0.0432217632
 40
0.0487405524
 40
0.0542992305
 40
0.0655500317
 40
0.0770046161
 40
0.0828172546
 40
0.0886903354
 40
0.1006274884
 40
0.1128373038
 40
0.1190503845
 40
0.1253376627
 40
0.1381401075
 40
0.1512565204
 40
0.1646948606
 40
0.1784604065
 40
0.1925559104
 40
0.2069817575
 40
0.2217361245
 40
0.2368151342
 40
0.2522130044
 40
0.2679221909
 40
0.2839335216
 40
0.3002363252
 40
0.3168185514
 40
0.3336668852
 40
0.3507668548
 40
0.3681029343
 40
0.385658641
 40
0.4034166287
 40
0.4213587768
 40
0.4394662766
 40
0.4577197143
 40
0.4760991513
 40
0.4945842036
 40
0.5131541179
 40
0.5317878479
 40
0.5504641282
 40
0.5691615485
 40
0.5878586267
 40
0.6065338817
 40
0.6251659068
 40
0.6437334425
 40
0.6622154505
 40
0.6805911883
 40
0.6988402846
 40
0.7169428166
 40
0.7348793883
 40
0.7526312117
 40
0.7701801894
 40
0.7875090014
 40
0.804601194
 40
0.8214412733
 40
0.8380148027
 40
0.8543085058
 40
0.8703103744
 40
0.886009783
 40
0.9013976095
 40
0.9164663633
 40
0.931210321
 40
0.9456256683
 40
0.9597106497
 40
0.9734657235
 40
0.9868937197
 40
1.0
 40
1.0
 40
1.0
 40
1.0
 10
14.7291718596
 20
12.611329742
 30
0.0
 10
14.7300166265
 20
12.6140634112
 30
0.0
 10
14.7318058923
 20
12.6195031156
 30
0.0
 10
14.7347845
 20
12.6275659647
 30
0.0
 10
14.738057146
 20
12.6355303241
 30
0.0
 10
14.74162231
 20
12.6433926501
 30
0.0
 10
14.7454785189
 20
12.6511495713
 30
0.0
 10
14.7496240401
 20
12.6587977715
 30
0.0
 10
14.7540571393
 20
12.6663339432
 30
0.0
 10
14.7587758229
 20
12.6737548655
 30
0.0
 10
14.7637781725
 20
12.6810573999
 30
0.0
 10
14.7708508831
 20
12.6906698155
 30
0.0
 10
14.7804075894
 20
12.7023812807
 30
0.0
 10
14.7907891225
 20
12.713552813
 30
0.0
 10
14.7996176356
 20
12.7222141206
 30
0.0
 10
14.8088941832
 20
12.7307788265
 30
0.0
 10
14.8211640226
 20
12.7411291278
 30
0.0
 10
14.8341464192
 20
12.7508743293
 30
0.0
 10
14.8450202055
 20
12.7583689202
 30
0.0
 10
14.8563541942
 20
12.7657456225
 30
0.0
 10
14.8711412037
 20
12.7745680063
 30
0.0
 10
14.8897190303
 20
12.7844450316
 30
0.0
 10
14.909204941
 20
12.7936592525
 30
0.0
 10
14.9295653289
 20
12.8021950464
 30
0.0
 10
14.9507655558
 20
12.8100381683
 30
0.0
 10
14.9727694564
 20
12.8171754406
 30
0.0
 10
14.9955395408
 20
12.8235948718
 30
0.0
 10
15.0190370088
 20
12.8292856556
 30
0.0
 10
15.0432218217
 20
12.8342382004
 30
0.0
 10
15.0680527637
 20
12.8384441488
 30
0.0
 10
15.0934875104
 20
12.8418963964
 30
0.0
 10
15.1194826991
 20
12.8445891076
 30
0.0
 10
15.1459940018
 20
12.8465177295
 30
0.0
 10
15.1729762008
 20
12.8476790018
 30
0.0
 10
15.200383266
 20
12.8480709657
 30
0.0
 10
15.2281684335
 20
12.8476929686
 30
0.0
 10
15.2562842861
 20
12.8465456678
 30
0.0
 10
15.284682835
 20
12.8446310299
 30
0.0
 10
15.3133156024
 20
12.8419523292
 30
0.0
 10
15.3421337048
 20
12.8385141429
 30
0.0
 10
15.3710879373
 20
12.8343223441
 30
0.0
 10
15.4001288585
 20
12.8293840918
 30
0.0
 10
15.4292068752
 20
12.82370782
 30
0.0
 10
15.4582723281
 20
12.8173032229
 30
0.0
 10
15.4872755773
 20
12.8101812387
 30
0.0
 10
15.5161670872
 20
12.8023540312
 30
0.0
 10
15.5448975123
 20
12.7938349688
 30
0.0
 10
15.5734177816
 20
12.784638602
 30
0.0
 10
15.6016791831
 20
12.774780638
 30
0.0
 10
15.6296334474
 20
12.7642779138
 30
0.0
 10
15.6572328308
 20
12.7531483674
 30
0.0
 10
15.684430197
 20
12.7414110066
 30
0.0
 10
15.7111790986
 20
12.729085876
 30
0.0
 10
15.7374338561
 20
12.7161940226
 30
0.0
 10
15.7631496368
 20
12.7027574588
 30
0.0
 10
15.7882825316
 20
12.6887991245
 30
0.0
 10
15.8127896301
 20
12.6743428468
 30
0.0
 10
15.8366290941
 20
12.6594132983
 30
0.0
 10
15.8597602292
 20
12.6440359538
 30
0.0
 10
15.882143554
 20
12.6282370456
 30
0.0
 10
15.9037408674
 20
12.6120435171
 30
0.0
 10
15.9245153132
 20
12.595482975
 30
0.0
 10
15.9444314419
 20
12.5785836403
 30
0.0
 10
15.9634552702
 20
12.5613742981
 30
0.0
 10
15.9815543369
 20
12.5438842459
 30
0.0
 10
15.9986977551
 20
12.5261432419
 30
0.0
 10
16.014856263
 20
12.5081814502
 30
0.0
 10
16.0300022651
 20
12.4900293935
 30
0.0
 10
16.0441098849
 20
12.4717178772
 30
0.0
 10
16.0571549629
 20
12.4532780167
 30
0.0
 10
16.0691152285
 20
12.4347408964
 30
0.0
 10
16.0799698233
 20
12.41613856
 30
0.0
 10
16.0865356513
 20
12.4035630693
 30
0.0
 10
16.0896211923
 20
12.3972753977
 30
0.0
  0
SPLINE
  5
488
100
AcDbEntity
  8
LAYER_FEATURE
100
AcDbSpline
 62
7
  6
CONTINUOUS
 70
0
 71
3
 72
48
 73
44
 74
0
 42
0.0000001
 43
0.0000001
 44
0.0000000001
 40
0.0
 40
0.0
 40
0.0
 40
0.0
 40
0.0290937738
 40
0.0572902587
 40
0.0710904767
 40
0.0847099893
 40
0.0981685983
 40
0.1114883517
 40
0.1246932876
 40
0.1378092309
 40
0.1508634013
 40
0.1638839885
 40
0.1768997315
 40
0.1899394505
 40
0.2030315768
 40
0.2162036921
 40
0.2294821322
 40
0.2428915931
 40
0.2564547972
 40
0.2701922795
 40
0.28412214
 40
0.2982599192
 40
0.3271973556
 40
0.3570880416
 40
0.3879619416
 40
0.4198102398
 40
0.4525890748
 40
0.4862238834
 40
0.5206139351
 40
0.5556368337
 40
0.5911529485
 40
0.6270097809
 40
0.6630461947
 40
0.6990965752
 40
0.7349949655
 40
0.7705791851
 40
0.8056949843
 40
0.8402002903
 40
0.8739695066
 40
0.9068979293
 40
0.9389063654
 40
0.9699450884
 40
1.0
 40
1.0
 40
1.0
 40
1.0
 10
15.1261170097
 20
12.6814728599
 30
0.0
 10
15.1256059042
 20
12.6798189219
 30
0.0
 10
15.1247674149
 20
12.6765069558
 30
0.0
 10
15.1241946219
 20
12.6723057881
 30
0.0
 10
15.1240444867
 20
12.6689981896
 30
0.0
 10
15.1240833687
 20
12.6665645848
 30
0.0
 10
15.1242729579
 20
12.6641667422
 30
0.0
 10
15.1246127958
 20
12.6618103969
 30
0.0
 10
15.1251021421
 20
12.6595013014
 30
0.0
 10
15.1257398289
 20
12.6572450754
 30
0.0
 10
15.1265243144
 20
12.6550472159
 30
0.0
 10
15.1274537401
 20
12.6529131008
 30
0.0
 10
15.1285258185
 20
12.6508479299
 30
0.0
 10
15.1297379302
 20
12.6488567363
 30
0.0
 10
15.1310871317
 20
12.6469443854
 30
0.0
 10
15.1325700829
 20
12.6451155008
 30
0.0
 10
15.1341831618
 20
12.6433745182
 30
0.0
 10
15.1359224258
 20
12.6417256521
 30
0.0
 10
15.1377836049
 20
12.6401728394
 30
0.0
 10
15.1397621587
 20
12.638719831
 30
0.0
 10
15.1418533454
 20
12.6373700669
 30
0.0
 10
15.1448072292
 20
12.635699659
 30
0.0
 10
15.148764447
 20
12.6338903249
 30
0.0
 10
15.1538355707
 20
12.6321966055
 30
0.0
 10
15.1592185112
 20
12.6309777861
 30
0.0
 10
15.1648612912
 20
12.6302449153
 30
0.0
 10
15.1707101715
 20
12.6300042373
 30
0.0
 10
15.1767093512
 20
12.6302575796
 30
0.0
 10
15.1828016434
 20
12.631002187
 30
0.0
 10
15.1889289311
 20
12.6322307273
 30
0.0
 10
15.1950327338
 20
12.6339312964
 30
0.0
 10
15.2010547573
 20
12.6360875465
 30
0.0
 10
15.2069374529
 20
12.6386788247
 30
0.0
 10
15.2126245869
 20
12.6416803325
 30
0.0
 10
15.218061783
 20
12.6450633779
 30
0.0
 10
15.2231970362
 20
12.6487956689
 30
0.0
 10
15.2279812124
 20
12.6528416263
 30
0.0
 10
15.2323685294
 20
12.6571627061
 30
0.0
 10
15.236316963
 20
12.6617178409
 30
0.0
 10
15.2397885881
 20
12.6664637429
 30
0.0
 10
15.2427499892
 20
12.6713556549
 30
0.0
 10
15.2451722311
 20
12.6763464864
 30
0.0
 10
15.2464322218
 20
12.6797642827
 30
0.0
 10
15.2469602121
 20
12.6814728599
 30
0.0
  0
SPLINE
  5
489
100
AcDbEntity
  8
LAYER_FEATURE
100
AcDbSpline
 62
7
  6
CONTINUOUS
 70
0
 71
3
 72
37
 73
33
 74
0
 42
0.0000001
 43
0.0000001
 44
0.0000000001
 40
0.0
 40
0.0
 40
0.0
 40
0.0
 40
0.0938203129
 40
0.1387505314
 40
0.1822968871
 40
0.2244239502
 40
0.2650999748
 40
0.3043002983
 40
0.3420093028
 40
0.3782202634
 40
0.4129364659
 40
0.4461730008
 40
0.4779578334
 40
0.5083341734
 40
0.5373615375
 40
0.5651187481
 40
0.5917048248
 40
0.6172416577
 40
0.6418739747
 40
0.665769975
 40
0.6891188182
 40
0.7121272721
 40
0.7350136452
 40
0.7580005939
 40
0.7813072223
 40
0.8051416326
 40
0.8296949708
 40
0.8815711231
 40
0.9092102486
 40
0.9381108643
 40
0.9683537135
 40
1.0
 40
1.0
 40
1.0
 40
1.0
 10
15.9634947238
 20
12.3182039945
 30
0.0
 10
15.9639251568
 20
12.3195968762
 30
0.0
 10
15.9646101922
 20
12.321642522
 30
0.0
 10
15.9656189987
 20
12.3242898084
 30
0.0
 10
15.9663958456
 20
12.3261650243
 30
0.0
 10
15.9672024663
 20
12.3279553707
 30
0.0
 10
15.9680374737
 20
12.3296577907
 30
0.0
 10
15.9688994378
 20
12.3312693117
 30
0.0
 10
15.9697868639
 20
12.3327871539
 30
0.0
 10
15.9706982369
 20
12.3342087027
 30
0.0
 10
15.9716320153
 20
12.3355315042
 30
0.0
 10
15.9725866104
 20
12.3367532863
 30
0.0
 10
15.973560449
 20
12.3378719243
 30
0.0
 10
15.9745518928
 20
12.3388854985
 30
0.0
 10
15.9755593546
 20
12.3397921981
 30
0.0
 10
15.9765811629
 20
12.3405904342
 30
0.0
 10
15.9776157049
 20
12.3412786767
 30
0.0
 10
15.9786612564
 20
12.3418556269
 30
0.0
 10
15.9797161062
 20
12.3423200093
 30
0.0
 10
15.9807783899
 20
12.3426708075
 30
0.0
 10
15.9818461725
 20
12.3429070729
 30
0.0
 10
15.9829173573
 20
12.3430281989
 30
0.0
 10
15.9839897642
 20
12.3430337879
 30
0.0
 10
15.9850611686
 20
12.3429238489
 30
0.0
 10
15.9861293593
 20
12.3426987039
 30
0.0
 10
15.9871923115
 20
12.3423589396
 30
0.0
 10
15.988625676
 20
12.3417433122
 30
0.0
 10
15.9900176419
 20
12.3409025728
 30
0.0
 10
15.9913531469
 20
12.339874316
 30
0.0
 10
15.992362209
 20
12.3389779686
 30
0.0
 10
15.9933552111
 20
12.3379747117
 30
0.0
 10
15.9939909664
 20
12.3372523402
 30
0.0
 10
15.9943060796
 20
12.3368748181
 30
0.0
  0
SPLINE
  5
48A
100
AcDbEntity
  8
LAYER_FEATURE
100
AcDbSpline
 62
7
  6
CONTINUOUS
 70
0
 71
3
 72
23
 73
19
 74
0
 42
0.0000001
 43
0.0000001
 44
0.0000000001
 40
0.0
 40
0.0
 40
0.0
 40
0.0
 40
0.0549036844
 40
0.1116047498
 40
0.1700770959
 40
0.2302301448
 40
0.2919190966
 40
0.3549527445
 40
0.4191016361
 40
0.4841062115
 40
0.5496847164
 40
0.615540875
 40
0.6813715179
 40
0.7468741042
 40
0.8117542857
 40
0.8757334986
 40
0.9385561215
 40
1.0
 40
1.0
 40
1.0
 40
1.0
 10
15.116014296
 20
12.6712784565
 30
0.0
 10
15.1166742831
 20
12.6734141757
 30
0.0
 10
15.1182492752
 20
12.6776864214
 30
0.0
 10
15.1212770668
 20
12.6839249654
 30
0.0
 10
15.124978827
 20
12.6900398542
 30
0.0
 10
15.129318362
 20
12.6959722255
 30
0.0
 10
15.1342538934
 20
12.7016661539
 30
0.0
 10
15.1397380438
 20
12.7070675002
 30
0.0
 10
15.1457182702
 20
12.7121249394
 30
0.0
 10
15.152137329
 20
12.7167903141
 30
0.0
 10
15.1589338266
 20
12.7210191169
 30
0.0
 10
15.1660427457
 20
12.7247709998
 30
0.0
 10
15.1733961125
 20
12.7280100984
 30
0.0
 10
15.1809236515
 20
12.7307054102
 30
0.0
 10
15.1885533716
 20
12.7328311303
 30
0.0
 10
15.1962125897
 20
12.7343667867
 30
0.0
 10
15.2038275085
 20
12.7352975615
 30
0.0
 10
15.2088890859
 20
12.7355112631
 30
0.0
 10
15.211390736
 20
12.7355112631
 30
0.0
  0
SPLINE
  5
48B
100
AcDbEntity
  8
LAYER_FEATURE
100
AcDbSpline
 62
7
  6
CONTINUOUS
 70
0
 71
3
 72
20
 73
16
 74
0
 42
0.0000001
 43
0.0000001
 44
0.0000000001
 40
0.0
 40
0.0
 40
0.0
 40
0.0
 40
0.1403806902
 40
0.2088792484
 40
0.2761900559
 40
0.4071302333
 40
0.53327647
 40
0.5946631639
 40
0.6549822186
 40
0.7143123336
 40
0.7727490366
 40
0.830403829
 40
0.887402865
 40
0.9438851102
 40
1.0
 40
1.0
 40
1.0
 40
1.0
 10
15.211390736
 20
12.7355112631
 30
0.0
 10
15.2141796095
 20
12.7355112631
 30
0.0
 10
15.2183336407
 20
12.7353157949
 30
0.0
 10
15.2237803483
 20
12.7346368364
 30
0.0
 10
15.2289993135
 20
12.7337047662
 30
0.0
 10
15.2352446431
 20
12.7320576625
 30
0.0
 10
15.2411467108
 20
12.7297309067
 30
0.0
 10
15.245536195
 20
12.7274932114
 30
0.0
 10
15.2486285985
 20
12.7256514487
 30
0.0
 10
15.2515404789
 20
12.7236370504
 30
0.0
 10
15.2542626404
 20
12.7214562703
 30
0.0
 10
15.2567862914
 20
12.7191159848
 30
0.0
 10
15.2591033362
 20
12.7166235122
 30
0.0
 10
15.2612061314
 20
12.7139869833
 30
0.0
 10
15.2624638966
 20
12.7121339819
 30
0.0
 10
15.2630536316
 20
12.7111879341
 30
0.0
  0
SPLINE
  5
48C
100
AcDbEntity
  8
LAYER_FEATURE
100
AcDbSpline
 62
7
  6
CONTINUOUS
 70
0
 71
3
 72
48
 73
44
 74
0
 42
0.0000001
 43
0.0000001
 44
0.0000000001
 40
0.0
 40
0.0
 40
0.0
 40
0.0
 40
0.0300549116
 40
0.0610936346
 40
0.0931020707
 40
0.1260304934
 40
0.1597997097
 40
0.1943050157
 40
0.2294208149
 40
0.2650050345
 40
0.3009034248
 40
0.3369538053
 40
0.3729902191
 40
0.4088470515
 40
0.4443631663
 40
0.4793860649
 40
0.5137761166
 40
0.5474109252
 40
0.5801897602
 40
0.6120380584
 40
0.6429119584
 40
0.6728026444
 40
0.7017400808
 40
0.71587786
 40
0.7298077205
 40
0.7435452028
 40
0.7571084069
 40
0.7705178678
 40
0.7837963079
 40
0.7969684232
 40
0.8100605495
 40
0.8231002685
 40
0.8361160115
 40
0.8491365987
 40
0.8621907691
 40
0.8753067124
 40
0.8885116483
 40
0.9018314017
 40
0.9152900107
 40
0.9289095233
 40
0.9427097413
 40
0.9709062262
 40
1.0
 40
1.0
 40
1.0
 40
1.0
 10
15.1261170097
 20
12.6814728599
 30
0.0
 10
15.126645
 20
12.6831814372
 30
0.0
 10
15.1279049907
 20
12.6865992335
 30
0.0
 10
15.1303272325
 20
12.691590065
 30
0.0
 10
15.1332886337
 20
12.696481977
 30
0.0
 10
15.1367602587
 20
12.701227879
 30
0.0
 10
15.1407086923
 20
12.7057830138
 30
0.0
 10
15.1450960093
 20
12.7101040936
 30
0.0
 10
15.1498801855
 20
12.714150051
 30
0.0
 10
15.1550154387
 20
12.717882342
 30
0.0
 10
15.1604526348
 20
12.7212653874
 30
0.0
 10
15.1661397689
 20
12.7242668952
 30
0.0
 10
15.1720224645
 20
12.7268581733
 30
0.0
 10
15.1780444879
 20
12.7290144235
 30
0.0
 10
15.1841482907
 20
12.7307149926
 30
0.0
 10
15.1902755784
 20
12.7319435329
 30
0.0
 10
15.1963678706
 20
12.7326881403
 30
0.0
 10
15.2023670503
 20
12.7329414826
 30
0.0
 10
15.2082159306
 20
12.7327008046
 30
0.0
 10
15.2138587105
 20
12.7319679338
 30
0.0
 10
15.2192416511
 20
12.7307491144
 30
0.0
 10
15.2243127747
 20
12.729055395
 30
0.0
 10
15.2282699925
 20
12.7272460609
 30
0.0
 10
15.2312238763
 20
12.725575653
 30
0.0
 10
15.2333150631
 20
12.7242258889
 30
0.0
 10
15.2352936168
 20
12.7227728805
 30
0.0
 10
15.237154796
 20
12.7212200678
 30
0.0
 10
15.23889406
 20
12.7195712017
 30
0.0
 10
15.2405071388
 20
12.7178302191
 30
0.0
 10
15.2419900901
 20
12.7160013345
 30
0.0
 10
15.2433392916
 20
12.7140889836
 30
0.0
 10
15.2445514032
 20
12.71209779
 30
0.0
 10
15.2456234816
 20
12.7100326191
 30
0.0
 10
15.2465529073
 20
12.707898504
 30
0.0
 10
15.2473373929
 20
12.7057006445
 30
0.0
 10
15.2479750797
 20
12.7034444185
 30
0.0
 10
15.248464426
 20
12.701135323
 30
0.0
 10
15.2488042638
 20
12.6987789777
 30
0.0
 10
15.248993853
 20
12.6963811351
 30
0.0
 10
15.249032735
 20
12.6939475303
 30
0.0
 10
15.2488825999
 20
12.6906399318
 30
0.0
 10
15.2483098068
 20
12.6864387641
 30
0.0
 10
15.2474713176
 20
12.683126798
 30
0.0
 10
15.2469602121
 20
12.6814728599
 30
0.0
  0
SPLINE
  5
48D
100
AcDbEntity
  8
LAYER_FEATURE
100
AcDbSpline
 62
7
  6
CONTINUOUS
 70
0
 71
3
 72
54
 73
50
 74
0
 42
0.0000001
 43
0.0000001
 44
0.0000000001
 40
0.0
 40
0.0
 40
0.0
 40
0.0
 40
0.0357016666
 40
0.0730194207
 40
0.1117593325
 40
0.1517094258
 40
0.1926445161
 40
0.2343284865
 40
0.2765173578
 40
0.3189618971
 40
0.3614102558
 40
0.4036105449
 40
0.445313418
 40
0.4862746841
 40
0.5262579934
 40
0.5650376446
 40
0.6024015864
 40
0.6381547192
 40
0.6553731119
 40
0.6721254121
 40
0.6883937246
 40
0.7041622068
 40
0.7194170111
 40
0.7341467116
 40
0.748342457
 40
0.7619983087
 40
0.7751116655
 40
0.7876835284
 40
0.7997192268
 40
0.8112286637
 40
0.8222273197
 40
0.8327365361
 40
0.8427846712
 40
0.8524073935
 40
0.8616486615
 40
0.870560753
 40
0.8792044563
 40
0.8876482396
 40
0.895966985
 40
0.9042398457
 40
0.9125476064
 40
0.9209698075
 40
0.9295820547
 40
0.9384537818
 40
0.9571984055
 40
0.9671862489
 40
0.9776307541
 40
0.9885612623
 40
1.0
 40
1.0
 40
1.0
 40
1.0
 10
15.9634947238
 20
12.3182039945
 30
0.0
 10
15.9630407344
 20
12.3167348841
 30
0.0
 10
15.9621864604
 20
12.3137068277
 30
0.0
 10
15.9610835975
 20
12.3090200852
 30
0.0
 10
15.960136469
 20
12.3041129441
 30
0.0
 10
15.9593517835
 20
12.2990196751
 30
0.0
 10
15.958735048
 20
12.2937757286
 30
0.0
 10
15.9582906129
 20
12.2884176762
 30
0.0
 10
15.9580216077
 20
12.2829829001
 30
0.0
 10
15.9579299291
 20
12.2775093341
 30
0.0
 10
15.9580162229
 20
12.2720351889
 30
0.0
 10
15.9582798811
 20
12.2665986795
 30
0.0
 10
15.9587190454
 20
12.2612377523
 30
0.0
 10
15.9593306212
 20
12.2559898094
 30
0.0
 10
15.9601103006
 20
12.2508914523
 30
0.0
 10
15.961052595
 20
12.2459781706
 30
0.0
 10
15.9621508788
 20
12.2412842407
 30
0.0
 10
15.9632024662
 20
12.2375367483
 30
0.0
 10
15.9641190771
 20
12.2346767949
 30
0.0
 10
15.9648317873
 20
12.2326334962
 30
0.0
 10
15.9655771244
 20
12.2306685078
 30
0.0
 10
15.9663537764
 20
12.2287852385
 30
0.0
 10
15.9671604061
 20
12.2269869725
 30
0.0
 10
15.9679956011
 20
12.2252768318
 30
0.0
 10
15.9688579186
 20
12.2236577864
 30
0.0
 10
15.9697458746
 20
12.2221326455
 30
0.0
 10
15.9706579322
 20
12.2207040438
 30
0.0
 10
15.9715925556
 20
12.2193744637
 30
0.0
 10
15.9725481348
 20
12.2181461887
 30
0.0
 10
15.9735231013
 20
12.2170213705
 30
0.0
 10
15.974515798
 20
12.2160019392
 30
0.0
 10
15.9755246369
 20
12.2150897276
 30
0.0
 10
15.9765479339
 20
12.2142863356
 30
0.0
 10
15.9775840686
 20
12.2135933068
 30
0.0
 10
15.9786313118
 20
12.2130119569
 30
0.0
 10
15.9796879397
 20
12.2125435632
 30
0.0
 10
15.9807520869
 20
12.2121891691
 30
0.0
 10
15.9818218034
 20
12.2119497138
 30
0.0
 10
15.9828949883
 20
12.2118258405
 30
0.0
 10
15.9839694464
 20
12.2118179276
 30
0.0
 10
15.9850429389
 20
12.2119260042
 30
0.0
 10
15.9861132431
 20
12.2121497205
 30
0.0
 10
15.9871783133
 20
12.2124885199
 30
0.0
 10
15.9886145608
 20
12.2131034304
 30
0.0
 10
15.9900093461
 20
12.2139444158
 30
0.0
 10
15.9913474605
 20
12.2149736597
 30
0.0
 10
15.9923585094
 20
12.2158712052
 30
0.0
 10
15.9933534399
 20
12.2168760717
 30
0.0
 10
15.9939903835
 20
12.2175997213
 30
0.0
 10
15.9943060794
 20
12.2179779437
 30
0.0
  0
SPLINE
  5
48E
100
AcDbEntity
  8
LAYER_FEATURE
100
AcDbSpline
 62
7
  6
CONTINUOUS
 70
0
 71
3
 72
15
 73
11
 74
0
 42
0.0000001
 43
0.0000001
 44
0.0000000001
 40
0.0
 40
0.0
 40
0.0
 40
0.0
 40
0.1190287458
 40
0.2390464603
 40
0.3604649249
 40
0.4836586168
 40
0.6089576343
 40
0.7366395261
 40
0.8669320805
 40
1.0
 40
1.0
 40
1.0
 40
1.0
 10
15.1161111902
 20
12.6394272406
 30
0.0
 10
15.1156730406
 20
12.6406362471
 30
0.0
 10
15.114901671
 20
12.6431051765
 30
0.0
 10
15.1140719109
 20
12.6469149454
 30
0.0
 10
15.1135689408
 20
12.6508269676
 30
0.0
 10
15.1133948034
 20
12.6548241672
 30
0.0
 10
15.1135499584
 20
12.6588896446
 30
0.0
 10
15.1140334947
 20
12.6630062797
 30
0.0
 10
15.1148430835
 20
12.6671564695
 30
0.0
 10
15.1155898404
 20
12.6699049178
 30
0.0
 10
15.116014296
 20
12.6712784565
 30
0.0
  0
SPLINE
  5
48F
100
AcDbEntity
  8
02___PRT_ALL_AXES
100
AcDbSpline
 62
7
  6
CONTINUOUS
 70
0
 71
3
 72
37
 73
33
 74
0
 42
0.0000001
 43
0.0000001
 44
0.0000000001
 40
0.0
 40
0.0
 40
0.0
 40
0.0
 40
0.0238644728
 40
0.0479531683
 40
0.0724011559
 40
0.0973294303
 40
0.1228413551
 40
0.1490204302
 40
0.1759292688
 40
0.2036096925
 40
0.2320835658
 40
0.2613542842
 40
0.2914085806
 40
0.3222185492
 40
0.3537437894
 40
0.3859334351
 40
0.4187282441
 40
0.4520623814
 40
0.4858652245
 40
0.5200628204
 40
0.5545793027
 40
0.5893380434
 40
0.6242626855
 40
0.6592780511
 40
0.7292679624
 40
0.7641271032
 40
0.7988020968
 40
0.8673412785
 40
0.9011278445
 40
0.934523622
 40
0.9674915155
 40
1.0
 40
1.0
 40
1.0
 40
1.0
 10
15.1140063019
 20
12.6431441227
 30
0.0
 10
15.1134501752
 20
12.6442773824
 30
0.0
 10
15.1124458051
 20
12.6466120077
 30
0.0
 10
15.1112837944
 20
12.6502673098
 30
0.0
 10
15.1104656254
 20
12.6540722764
 30
0.0
 10
15.1099940164
 20
12.6580109121
 30
0.0
 10
15.1098698648
 20
12.6620669938
 30
0.0
 10
15.1100926614
 20
12.6662233703
 30
0.0
 10
15.1106604509
 20
12.6704621792
 30
0.0
 10
15.1115698888
 20
12.6747648128
 30
0.0
 10
15.1128162585
 20
12.6791119778
 30
0.0
 10
15.1143934912
 20
12.68348376
 30
0.0
 10
15.1162941904
 20
12.6878597228
 30
0.0
 10
15.1185096674
 20
12.6922190242
 30
0.0
 10
15.121029987
 20
12.6965405484
 30
0.0
 10
15.1238440252
 20
12.7008030465
 30
0.0
 10
15.126939531
 20
12.7049852742
 30
0.0
 10
15.1303031926
 20
12.7090661324
 30
0.0
 10
15.1339207017
 20
12.7130247945
 30
0.0
 10
15.1377768046
 20
12.71684083
 30
0.0
 10
15.1418553785
 20
12.7204943336
 30
0.0
 10
15.1461393739
 20
12.7239659793
 30
0.0
 10
15.1506112154
 20
12.7272373504
 30
0.0
 10
15.1567966965
 20
12.7313068481
 30
0.0
 10
15.1632783356
 20
12.7349054656
 30
0.0
 10
15.1699913218
 20
12.7379792428
 30
0.0
 10
15.1767850347
 20
12.7406675532
 30
0.0
 10
15.1837325479
 20
12.742790084
 30
0.0
 10
15.1907550653
 20
12.7442969751
 30
0.0
 10
15.1959938368
 20
12.7451063555
 30
0.0
 10
15.201204018
 20
12.7455949564
 30
0.0
 10
15.2046684458
 20
12.7457056665
 30
0.0
 10
15.2063880494
 20
12.7457056665
 30
0.0
  0
SPLINE
  5
490
100
AcDbEntity
  8
LAYER_FEATURE
100
AcDbSpline
 62
7
  6
CONTINUOUS
 70
0
 71
3
 72
40
 73
36
 74
0
 42
0.0000001
 43
0.0000001
 44
0.0000000001
 40
0.0
 40
0.0
 40
0.0
 40
0.0
 40
0.039665119
 40
0.0788625779
 40
0.1175689642
 40
0.1557635445
 40
0.1934263296
 40
0.2305392284
 40
0.2670857827
 40
0.3030514013
 40
0.3384234642
 40
0.3731914561
 40
0.4073471071
 40
0.4408845372
 40
0.4738004077
 40
0.5060940775
 40
0.5377677657
 40
0.5688267098
 40
0.5992793256
 40
0.6291373641
 40
0.6584160591
 40
0.6728447437
 40
0.6871359821
 40
0.7153162787
 40
0.7429850724
 40
0.7701726315
 40
0.7969130885
 40
0.8232443842
 40
0.8492081426
 40
0.8748494725
 40
0.9002166865
 40
0.9253609337
 40
0.950335752
 40
0.9751965454
 40
1.0
 40
1.0
 40
1.0
 40
1.0
 10
15.1509747941
 20
12.9492650496
 30
0.0
 10
15.1418608281
 20
12.9492650496
 30
0.0
 10
15.1237396294
 20
12.9490606815
 30
0.0
 10
15.0967391699
 20
12.9481291926
 30
0.0
 10
15.0701055769
 20
12.9465755181
 30
0.0
 10
15.0438691869
 20
12.9444014523
 30
0.0
 10
15.0180594701
 20
12.9416093973
 30
0.0
 10
14.9927055949
 20
12.9382025038
 30
0.0
 10
14.9678361471
 20
12.9341845833
 30
0.0
 10
14.9434791816
 20
12.9295601437
 30
0.0
 10
14.9196621665
 20
12.9243343699
 30
0.0
 10
14.8964119596
 20
12.9185131162
 30
0.0
 10
14.8737547784
 20
12.912102899
 30
0.0
 10
14.8517161724
 20
12.9051108879
 30
0.0
 10
14.8303209948
 20
12.8975448963
 30
0.0
 10
14.809593379
 20
12.8894133722
 30
0.0
 10
14.7895567029
 20
12.8807253885
 30
0.0
 10
14.7702335955
 20
12.8714906437
 30
0.0
 10
14.7516458193
 20
12.8617193882
 30
0.0
 10
14.7338146006
 20
12.8514226409
 30
0.0
 10
14.7195333618
 20
12.8423698006
 30
0.0
 10
14.7085137133
 20
12.8348739287
 30
0.0
 10
14.6978663132
 20
12.8272852146
 30
0.0
 10
14.6850562516
 20
12.8174958378
 30
0.0
 10
14.6704438201
 20
12.8052169426
 30
0.0
 10
14.6566798978
 20
12.7924752681
 30
0.0
 10
14.6437804373
 20
12.7792851848
 30
0.0
 10
14.6317602374
 20
12.7656614357
 30
0.0
 10
14.6206332012
 20
12.7516193406
 30
0.0
 10
14.6104122397
 20
12.7371747434
 30
0.0
 10
14.6011092501
 20
12.7223439986
 30
0.0
 10
14.5927351145
 20
12.7071440391
 30
0.0
 10
14.5852995679
 20
12.6915920374
 30
0.0
 10
14.5788115408
 20
12.6757065777
 30
0.0
 10
14.5751209218
 20
12.6649001601
 30
0.0
 10
14.5734382622
 20
12.6594550635
 30
0.0
  0
SPLINE
  5
491
100
AcDbEntity
  8
LAYER_FEATURE
100
AcDbSpline
 62
7
  6
CONTINUOUS
 70
0
 71
3
 72
40
 73
36
 74
0
 42
0.0000001
 43
0.0000001
 44
0.0000000001
 40
0.0
 40
0.0
 40
0.0
 40
0.0
 40
0.039665119
 40
0.0788625779
 40
0.1175689642
 40
0.1557635445
 40
0.1934263296
 40
0.2305392284
 40
0.2670857827
 40
0.3030514013
 40
0.3384234642
 40
0.3731914561
 40
0.4073471071
 40
0.4408845372
 40
0.4738004077
 40
0.5060940775
 40
0.5377677657
 40
0.5688267098
 40
0.5992793256
 40
0.6291373641
 40
0.6584160591
 40
0.6728447437
 40
0.6871359821
 40
0.7153162787
 40
0.7429850724
 40
0.7701726315
 40
0.7969130885
 40
0.8232443842
 40
0.8492081426
 40
0.8748494725
 40
0.9002166865
 40
0.9253609337
 40
0.950335752
 40
0.9751965454
 40
1.0
 40
1.0
 40
1.0
 40
1.0
 10
15.2398131348
 20
13.2367460254
 30
0.0
 10
15.2306991688
 20
13.2367460254
 30
0.0
 10
15.2125779701
 20
13.2365416573
 30
0.0
 10
15.1855775106
 20
13.2356101685
 30
0.0
 10
15.1589439176
 20
13.234056494
 30
0.0
 10
15.1327075275
 20
13.2318824282
 30
0.0
 10
15.1068978108
 20
13.2290903731
 30
0.0
 10
15.0815439356
 20
13.2256834796
 30
0.0
 10
15.0566744878
 20
13.2216655591
 30
0.0
 10
15.0323175223
 20
13.2170411196
 30
0.0
 10
15.0085005072
 20
13.2118153458
 30
0.0
 10
14.9852503003
 20
13.205994092
 30
0.0
 10
14.9625931191
 20
13.1995838748
 30
0.0
 10
14.940554513
 20
13.1925918638
 30
0.0
 10
14.9191593355
 20
13.1850258722
 30
0.0
 10
14.8984317197
 20
13.176894348
 30
0.0
 10
14.8783950436
 20
13.1682063644
 30
0.0
 10
14.8590719362
 20
13.1589716195
 30
0.0
 10
14.84048416
 20
13.1492003641
 30
0.0
 10
14.8226529413
 20
13.1389036168
 30
0.0
 10
14.8083717024
 20
13.1298507764
 30
0.0
 10
14.797352054
 20
13.1223549045
 30
0.0
 10
14.7867046539
 20
13.1147661905
 30
0.0
 10
14.7738945922
 20
13.1049768136
 30
0.0
 10
14.7592821608
 20
13.0926979184
 30
0.0
 10
14.7455182384
 20
13.0799562439
 30
0.0
 10
14.732618778
 20
13.0667661606
 30
0.0
 10
14.7205985781
 20
13.0531424115
 30
0.0
 10
14.7094715419
 20
13.0391003164
 30
0.0
 10
14.6992505803
 20
13.0246557192
 30
0.0
 10
14.6899475908
 20
13.0098249744
 30
0.0
 10
14.6815734552
 20
12.9946250149
 30
0.0
 10
14.6741379086
 20
12.9790730133
 30
0.0
 10
14.6676498815
 20
12.9631875536
 30
0.0
 10
14.6639592625
 20
12.9523811359
 30
0.0
 10
14.6622766029
 20
12.9469360394
 30
0.0
  0
SPLINE
  5
492
100
AcDbEntity
  8
LAYER_FEATURE
100
AcDbSpline
 62
7
  6
CONTINUOUS
 70
0
 71
3
 72
86
 73
82
 74
0
 42
0.0000001
 43
0.0000001
 44
0.0000000001
 40
0.0
 40
0.0
 40
0.0
 40
0.0
 40
0.0182521895
 40
0.0367419921
 40
0.0554499715
 40
0.0743556981
 40
0.0934380159
 40
0.1126750601
 40
0.1320443827
 40
0.1515230364
 40
0.1710876692
 40
0.1907146128
 40
0.2103799721
 40
0.2300597125
 40
0.2497297476
 40
0.2693660259
 40
0.2889446184
 40
0.308441806
 40
0.3278341679
 40
0.3470986717
 40
0.3662127638
 40
0.385154463
 40
0.4039024556
 40
0.4224361936
 40
0.4407359966
 40
0.4587831569
 40
0.4765600496
 40
0.4940502485
 40
0.5112386465
 40
0.5281115845
 40
0.5446569859
 40
0.5608645012
 40
0.5767256593
 40
0.592234029
 40
0.6073853893
 40
0.6221779074
 40
0.636612324
 40
0.6506921431
 40
0.6644238205
 40
0.6778169483
 40
0.6908844222
 40
0.7036425853
 40
0.7161113293
 40
0.7283141402
 40
0.7343249418
 40
0.7402797012
 40
0.7461823315
 40
0.7520369529
 40
0.7578478705
 40
0.7636195725
 40
0.7693567071
 40
0.7750640739
 40
0.7807465997
 40
0.7864093237
 40
0.7920573731
 40
0.7976959424
 40
0.8033302696
 40
0.808965612
 40
0.8146072227
 40
0.8202603254
 40
0.8259300915
 40
0.8316216169
 40
0.8373398993
 40
0.8430898198
 40
0.8488761198
 40
0.8547033897
 40
0.860576046
 40
0.8664983269
 40
0.8724742701
 40
0.8785077156
 40
0.8846022846
 40
0.8907613884
 40
0.903284286
 40
0.9161007222
 40
0.922625786
 40
0.929231135
 40
0.9426887188
 40
0.9564869565
 40
0.9706348209
 40
0.9851381835
 40
1.0
 40
1.0
 40
1.0
 40
1.0
 10
15.1758809903
 20
12.9285118039
 30
0.0
 10
15.1867650156
 20
12.9285118039
 30
0.0
 10
15.2086759543
 20
12.928194226
 30
0.0
 10
15.2417156338
 20
12.9267889025
 30
0.0
 10
15.2750934707
 20
12.9244539571
 30
0.0
 10
15.3087484455
 20
12.9211936301
 30
0.0
 10
15.3426194524
 20
12.9170138627
 30
0.0
 10
15.3766448845
 20
12.9119222533
 30
0.0
 10
15.4107628733
 20
12.9059280647
 30
0.0
 10
15.4449113711
 20
12.8990421977
 30
0.0
 10
15.4790282726
 20
12.8912771764
 30
0.0
 10
15.5130515267
 20
12.8826471235
 30
0.0
 10
15.546919251
 20
12.8731677354
 30
0.0
 10
15.5805698444
 20
12.862856254
 30
0.0
 10
15.6139421006
 20
12.8517314344
 30
0.0
 10
15.6469753198
 20
12.8398135115
 30
0.0
 10
15.6796094198
 20
12.8271241619
 30
0.0
 10
15.7117850462
 20
12.8136864651
 30
0.0
 10
15.7434436806
 20
12.7995248601
 30
0.0
 10
15.7745277481
 20
12.7846651006
 30
0.0
 10
15.8049807219
 20
12.7691342075
 30
0.0
 10
15.8347472275
 20
12.7529604186
 30
0.0
 10
15.863773143
 20
12.7361731359
 30
0.0
 10
15.892005698
 20
12.7188028714
 30
0.0
 10
15.9193935701
 20
12.7008811893
 30
0.0
 10
15.9458869778
 20
12.6824406473
 30
0.0
 10
15.9714377708
 20
12.6635147351
 30
0.0
 10
15.9959995168
 20
12.6441378112
 30
0.0
 10
16.0195275847
 20
12.6243450374
 30
0.0
 10
16.0419792239
 20
12.6041723126
 30
0.0
 10
16.0633136394
 20
12.5836562034
 30
0.0
 10
16.0834920621
 20
12.5628338755
 30
0.0
 10
16.1024778144
 20
12.5417430219
 30
0.0
 10
16.1202363705
 20
12.5204217921
 30
0.0
 10
16.1367354102
 20
12.4989087207
 30
0.0
 10
16.1519448679
 20
12.4772426564
 30
0.0
 10
16.1658369738
 20
12.4554626937
 30
0.0
 10
16.1783862906
 20
12.4336081049
 30
0.0
 10
16.1895697426
 20
12.4117182854
 30
0.0
 10
16.1993666442
 20
12.3898326741
 30
0.0
 10
16.2077587131
 20
12.3679907897
 30
0.0
 10
16.2147301283
 20
12.3462318874
 30
0.0
 10
16.2202674338
 20
12.3245960189
 30
0.0
 10
16.2236949923
 20
12.3066098258
 30
0.0
 10
16.2256979755
 20
12.2923355695
 30
0.0
 10
16.226829275
 20
12.2817386882
 30
0.0
 10
16.2275963919
 20
12.2712026583
 30
0.0
 10
16.2279990441
 20
12.2607321763
 30
0.0
 10
16.228036947
 20
12.2503320578
 30
0.0
 10
16.2277101262
 20
12.2400070547
 30
0.0
 10
16.2270186449
 20
12.2297618986
 30
0.0
 10
16.2259628577
 20
12.2196012819
 30
0.0
 10
16.2245431771
 20
12.2095298692
 30
0.0
 10
16.2227602853
 20
12.199552277
 30
0.0
 10
16.2206149494
 20
12.1896730922
 30
0.0
 10
16.2181081761
 20
12.1798968459
 30
0.0
 10
16.2152410902
 20
12.170228033
 30
0.0
 10
16.212015019
 20
12.1606710909
 30
0.0
 10
16.2084314438
 20
12.1512304075
 30
0.0
 10
16.2044920097
 20
12.1419103179
 30
0.0
 10
16.2001985492
 20
12.1327150891
 30
0.0
 10
16.1955530218
 20
12.1236489459
 30
0.0
 10
16.1905576029
 20
12.1147160221
 30
0.0
 10
16.1852145631
 20
12.105920424
 30
0.0
 10
16.1795264099
 20
12.0972661431
 30
0.0
 10
16.173495722
 20
12.0887571594
 30
0.0
 10
16.1671253266
 20
12.0803973148
 30
0.0
 10
16.1604181091
 20
12.0721904562
 30
0.0
 10
16.1533771983
 20
12.0641402687
 30
0.0
 10
16.1460058031
 20
12.0562504722
 30
0.0
 10
16.1383072698
 20
12.0485245366
 30
0.0
 10
16.1275524476
 20
12.0383912504
 30
0.0
 10
16.1132880461
 20
12.0261523966
 30
0.0
 10
16.0981542928
 20
12.014644525
 30
0.0
 10
16.0854550758
 20
12.005802667
 30
0.0
 10
16.0721982735
 20
11.9971028533
 30
0.0
 10
16.0548744798
 20
11.986710289
 30
0.0
 10
16.033074454
 20
11.9750991221
 30
0.0
 10
16.0101739497
 20
11.9642912559
 30
0.0
 10
15.9862155802
 20
11.954306377
 30
0.0
 10
15.9697664679
 20
11.9482833299
 30
0.0
 10
15.9613833685
 20
11.9454086102
 30
0.0
  0
SPLINE
  5
493
100
AcDbEntity
  8
LAYER_FEATURE
100
AcDbSpline
 62
7
  6
CONTINUOUS
 70
0
 71
3
 72
66
 73
62
 74
0
 42
0.0000001
 43
0.0000001
 44
0.0000000001
 40
0.0
 40
0.0
 40
0.0
 40
0.0
 40
0.0412073753
 40
0.0615105543
 40
0.0816028526
 40
0.1014771415
 40
0.1211266728
 40
0.140545248
 40
0.1597271109
 40
0.1786669963
 40
0.1973601664
 40
0.2158024472
 40
0.2339902451
 40
0.2519205766
 40
0.2695911188
 40
0.2870002258
 40
0.3041469612
 40
0.3210311522
 40
0.3376534079
 40
0.3540151539
 40
0.3701186869
 40
0.401560726
 40
0.416912483
 40
0.4320244789
 40
0.461553686
 40
0.4759931282
 40
0.4902274853
 40
0.5042680936
 40
0.5181273457
 40
0.5318186692
 40
0.5453565051
 40
0.558756249
 40
0.5720341882
 40
0.5852074325
 40
0.5982938134
 40
0.6113117765
 40
0.6242802665
 40
0.6372185913
 40
0.6501462827
 40
0.6630829528
 40
0.6760481464
 40
0.6890611966
 40
0.7021410814
 40
0.715306295
 40
0.7285747272
 40
0.7419635477
 40
0.755489119
 40
0.7691669181
 40
0.7830114615
 40
0.7970362675
 40
0.8112538213
 40
0.8256755402
 40
0.8403117769
 40
0.8551718197
 40
0.8702638865
 40
0.9011675166
 40
0.9169946706
 40
0.9330765402
 40
0.9494163946
 40
0.966016593
 40
1.0
 40
1.0
 40
1.0
 40
1.0
 10
15.1758809903
 20
12.9285118039
 30
0.0
 10
15.1622264603
 20
12.9285118039
 30
0.0
 10
15.1418412915
 20
12.9281412676
 30
0.0
 10
15.1148298271
 20
12.9268733868
 30
0.0
 10
15.0949013409
 20
12.9255488662
 30
0.0
 10
15.0752189914
 20
12.9238471179
 30
0.0
 10
15.0557972012
 20
12.9217693725
 30
0.0
 10
15.036650385
 20
12.9193171551
 30
0.0
 10
15.0177926756
 20
12.9164922864
 30
0.0
 10
14.9992380179
 20
12.913296847
 30
0.0
 10
14.9810001311
 20
12.9097331714
 30
0.0
 10
14.9630924925
 20
12.9058039015
 30
0.0
 10
14.9455283376
 20
12.9015119294
 30
0.0
 10
14.9283206533
 20
12.8968603926
 30
0.0
 10
14.9114821536
 20
12.8918527311
 30
0.0
 10
14.8950252813
 20
12.8864926258
 30
0.0
 10
14.8789622137
 20
12.880783998
 30
0.0
 10
14.8633047944
 20
12.8747310478
 30
0.0
 10
14.8480646846
 20
12.8683382632
 30
0.0
 10
14.8332528466
 20
12.8616101559
 30
0.0
 10
14.814242912
 20
12.8522742848
 30
0.0
 10
14.7959654557
 20
12.8422231382
 30
0.0
 10
14.7785057471
 20
12.8314485908
 30
0.0
 10
14.7619530858
 20
12.8204343537
 30
0.0
 10
14.7462302778
 20
12.8087353877
 30
0.0
 10
14.7314320493
 20
12.7963613999
 30
0.0
 10
14.7209300088
 20
12.7868667834
 30
0.0
 10
14.7109510047
 20
12.7770968641
 30
0.0
 10
14.7015022714
 20
12.7670586582
 30
0.0
 10
14.6925909737
 20
12.7567595857
 30
0.0
 10
14.6842237733
 20
12.7462072516
 30
0.0
 10
14.6764069733
 20
12.7354094608
 30
0.0
 10
14.6691464948
 20
12.724374198
 30
0.0
 10
14.662447805
 20
12.7131096753
 30
0.0
 10
14.656315972
 20
12.7016242778
 30
0.0
 10
14.6507556659
 20
12.6899265626
 30
0.0
 10
14.6457710727
 20
12.6780252879
 30
0.0
 10
14.6413659595
 20
12.6659293653
 30
0.0
 10
14.6375436753
 20
12.6536478562
 30
0.0
 10
14.6343070635
 20
12.6411899867
 30
0.0
 10
14.6316585356
 20
12.6285651074
 30
0.0
 10
14.629600075
 20
12.6157826888
 30
0.0
 10
14.6281331513
 20
12.6028523237
 30
0.0
 10
14.6272588019
 20
12.5897836979
 30
0.0
 10
14.626977638
 20
12.5765865881
 30
0.0
 10
14.627289763
 20
12.5632708534
 30
0.0
 10
14.6281948573
 20
12.5498464208
 30
0.0
 10
14.6296921847
 20
12.5363232847
 30
0.0
 10
14.6317805141
 20
12.5227114913
 30
0.0
 10
14.6344582041
 20
12.5090211353
 30
0.0
 10
14.6377232043
 20
12.4952623674
 30
0.0
 10
14.6415729928
 20
12.4814453457
 30
0.0
 10
14.6460046142
 20
12.4675803395
 30
0.0
 10
14.6510148365
 20
12.4536773661
 30
0.0
 10
14.6585199846
 20
12.4349572704
 30
0.0
 10
14.6671263896
 20
12.4163471227
 30
0.0
 10
14.6767587257
 20
12.397893773
 30
0.0
 10
14.6845966137
 20
12.3839559089
 30
0.0
 10
14.6929841728
 20
12.3700420164
 30
0.0
 10
14.7049850287
 20
12.3513913534
 30
0.0
 10
14.7146569526
 20
12.33768816
 30
0.0
 10
14.7213895074
 20
12.3286616427
 30
0.0
  0
SPLINE
  5
494
100
AcDbEntity
  8
LAYER_FEATURE
100
AcDbSpline
 62
7
  6
CONTINUOUS
 70
0
 71
3
 72
39
 73
35
 74
0
 42
0.0000001
 43
0.0000001
 44
0.0000000001
 40
0.0
 40
0.0
 40
0.0
 40
0.0
 40
0.0304609991
 40
0.0612931478
 40
0.0924684139
 40
0.1239575607
 40
0.1557302639
 40
0.1877552419
 40
0.2200003747
 40
0.2524328221
 40
0.2850191395
 40
0.3177253904
 40
0.3505172587
 40
0.3833601588
 40
0.4162193452
 40
0.4490600213
 40
0.4818474486
 40
0.5145470554
 40
0.5471245465
 40
0.5795460136
 40
0.6117780473
 40
0.64378785
 40
0.6755433517
 40
0.7070133281
 40
0.7381675216
 40
0.7689767661
 40
0.799413116
 40
0.8294499797
 40
0.8590622593
 40
0.8882264962
 40
0.9169210238
 40
0.9451261282
 40
0.9728242173
 40
1.0
 40
1.0
 40
1.0
 40
1.0
 10
15.1509747941
 20
12.9492650496
 30
0.0
 10
15.1618665548
 20
12.9492650496
 30
0.0
 10
15.1837838278
 20
12.94896969
 30
0.0
 10
15.216824787
 20
12.9476611355
 30
0.0
 10
15.2501885979
 20
12.9454863194
 30
0.0
 10
15.283822458
 20
12.9424486699
 30
0.0
 10
15.3176735381
 20
12.9385529698
 30
0.0
 10
15.3516885518
 20
12.9338053517
 30
0.0
 10
15.3858139809
 20
12.9282132879
 30
0.0
 10
15.4199961215
 20
12.9217855792
 30
0.0
 10
15.45418118
 20
12.9145323417
 30
0.0
 10
15.4883153552
 20
12.9064649907
 30
0.0
 10
15.5223449244
 20
12.8975962233
 30
0.0
 10
15.5562163282
 20
12.8879399979
 30
0.0
 10
15.5898762556
 20
12.8775115127
 30
0.0
 10
15.6232717283
 20
12.8663271812
 30
0.0
 10
15.6563501842
 20
12.854404607
 30
0.0
 10
15.6890595611
 20
12.8417625551
 30
0.0
 10
15.7213483788
 20
12.8284209223
 30
0.0
 10
15.7531658208
 20
12.8144007058
 30
0.0
 10
15.7844618141
 20
12.7997239696
 30
0.0
 10
15.8151871089
 20
12.784413809
 30
0.0
 10
15.8452933565
 20
12.768494314
 30
0.0
 10
15.874733185
 20
12.7519905307
 30
0.0
 10
15.9034602749
 20
12.7349284205
 30
0.0
 10
15.9314294316
 20
12.717334819
 30
0.0
 10
15.9585966565
 20
12.6992373926
 30
0.0
 10
15.984919217
 20
12.6806645927
 30
0.0
 10
16.0103557106
 20
12.6616456127
 30
0.0
 10
16.03486614
 20
12.6422103293
 30
0.0
 10
16.0584119364
 20
12.6223892949
 30
0.0
 10
16.0809561599
 20
12.6022135379
 30
0.0
 10
16.1024630449
 20
12.5817150544
 30
0.0
 10
16.11622071
 20
12.5677194862
 30
0.0
 10
16.1229130871
 20
12.560674358
 30
0.0
  0
SPLINE
  5
495
100
AcDbEntity
  8
LAYER_FEATURE
100
AcDbSpline
 62
7
  6
CONTINUOUS
 70
0
 71
3
 72
30
 73
26
 74
0
 42
0.0000001
 43
0.0000001
 44
0.0000000001
 40
0.0
 40
0.0
 40
0.0
 40
0.0
 40
0.0756199539
 40
0.1492894226
 40
0.220981406
 40
0.290686969
 40
0.3584168705
 40
0.4242032414
 40
0.4881012075
 40
0.5501904032
 40
0.6105762601
 40
0.6401753403
 40
0.6694004229
 40
0.6982722482
 40
0.7268131946
 40
0.7550472776
 40
0.783000067
 40
0.8106986091
 40
0.8381713524
 40
0.865448004
 40
0.8925594086
 40
0.9195373936
 40
0.9464145846
 40
0.9732242312
 40
1.0
 40
1.0
 40
1.0
 40
1.0
 10
16.1229130871
 20
12.560674358
 30
0.0
 10
16.1311082838
 20
12.5520471976
 30
0.0
 10
16.1469331031
 20
12.5346740386
 30
0.0
 10
16.1691861336
 20
12.5079395928
 30
0.0
 10
16.1895966633
 20
12.4809289641
 30
0.0
 10
16.2081136321
 20
12.4537087202
 30
0.0
 10
16.2246912046
 20
12.4263450901
 30
0.0
 10
16.2392879514
 20
12.3989048936
 30
0.0
 10
16.2518672223
 20
12.3714546932
 30
0.0
 10
16.2623967277
 20
12.3440624534
 30
0.0
 10
16.2694877257
 20
12.3211862211
 30
0.0
 10
16.2740866425
 20
12.3029970303
 30
0.0
 10
16.2769864518
 20
12.2895025779
 30
0.0
 10
16.2793576537
 20
12.2760743534
 30
0.0
 10
16.2811987366
 20
12.2627204839
 30
0.0
 10
16.2825085082
 20
12.2494492896
 30
0.0
 10
16.2832861003
 20
12.2362689862
 30
0.0
 10
16.2835309369
 20
12.2231877597
 30
0.0
 10
16.2832428478
 20
12.2102137435
 30
0.0
 10
16.2824219321
 20
12.1973550158
 30
0.0
 10
16.2810686481
 20
12.1846195882
 30
0.0
 10
16.2791838344
 20
12.1720154259
 30
0.0
 10
16.2767685671
 20
12.1595503268
 30
0.0
 10
16.2738244526
 20
12.1472323764
 30
0.0
 10
16.2715096399
 20
12.1391211898
 30
0.0
 10
16.2702656811
 20
12.1350957319
 30
0.0
  0
SPLINE
  5
496
100
AcDbEntity
  8
LAYER_FEATURE
100
AcDbSpline
 62
7
  6
CONTINUOUS
 70
0
 71
3
 72
11
 73
7
 74
0
 42
0.0000001
 43
0.0000001
 44
0.0000000001
 40
0.0
 40
0.0
 40
0.0
 40
0.0
 40
0.2511481382
 40
0.5025864894
 40
0.7527287745
 40
1.0
 40
1.0
 40
1.0
 40
1.0
 10
14.8146576395
 20
13.0388790629
 30
0.0
 10
14.8158117117
 20
13.0384369218
 30
0.0
 10
14.8181465759
 20
13.0376168942
 30
0.0
 10
14.8217059083
 20
13.0365848937
 30
0.0
 10
14.8252986426
 20
13.035757106
 30
0.0
 10
14.8277127485
 20
13.0353433327
 30
0.0
 10
14.828917583
 20
13.0351731737
 30
0.0
  0
SPLINE
  5
497
100
AcDbEntity
  8
LAYER_FEATURE
100
AcDbSpline
 62
7
  6
CONTINUOUS
 70
0
 71
3
 72
15
 73
11
 74
0
 42
0.0000001
 43
0.0000001
 44
0.0000000001
 40
0.0
 40
0.0
 40
0.0
 40
0.0
 40
0.1251479095
 40
0.2515301971
 40
0.378511091
 40
0.505443493
 40
0.6316823103
 40
0.756592479
 40
0.8795595967
 40
1.0
 40
1.0
 40
1.0
 40
1.0
 10
14.8748052103
 20
13.0829240135
 30
0.0
 10
14.8757897852
 20
13.0824511252
 30
0.0
 10
14.877793893
 20
13.0815523422
 30
0.0
 10
14.8808740499
 20
13.0803545903
 30
0.0
 10
14.8840250461
 20
13.0793072727
 30
0.0
 10
14.8872230148
 20
13.0784183452
 30
0.0
 10
14.8904438428
 20
13.0776944981
 30
0.0
 10
14.8936632721
 20
13.0771411937
 30
0.0
 10
14.8968568937
 20
13.0767626119
 30
0.0
 10
14.8989782401
 20
13.0766269805
 30
0.0
 10
14.9000287568
 20
13.0765900689
 30
0.0
  0
SPLINE
  5
498
100
AcDbEntity
  8
LAYER_FEATURE
100
AcDbSpline
 62
7
  6
CONTINUOUS
 70
0
 71
3
 72
9
 73
5
 74
0
 42
0.0000001
 43
0.0000001
 44
0.0000000001
 40
0.0
 40
0.0
 40
0.0
 40
0.0
 40
0.2550508329
 40
1.0
 40
1.0
 40
1.0
 40
1.0
 10
14.9109985415
 20
13.1123194584
 30
0.0
 10
14.9069737225
 20
13.1104203005
 30
0.0
 10
14.891286917
 20
13.1027780844
 30
0.0
 10
14.8759859686
 20
13.0943372137
 30
0.0
 10
14.8648820738
 20
13.0875793901
 30
0.0
  0
SPLINE
  5
499
100
AcDbEntity
  8
LAYER_FEATURE
100
AcDbSpline
 62
7
  6
CONTINUOUS
 70
0
 71
3
 72
15
 73
11
 74
0
 42
0.0000001
 43
0.0000001
 44
0.0000000001
 40
0.0
 40
0.0
 40
0.0
 40
0.0
 40
0.1243203416
 40
0.2514965614
 40
0.3802180755
 40
0.5091205623
 40
0.6368349254
 40
0.762030115
 40
0.883457668
 40
1.0
 40
1.0
 40
1.0
 40
1.0
 10
14.94721884
 20
13.1188607895
 30
0.0
 10
14.948548689
 20
13.1180750236
 30
0.0
 10
14.9513043526
 20
13.1165938583
 30
0.0
 10
14.9556256885
 20
13.1146751596
 30
0.0
 10
14.9601288154
 20
13.1130563867
 30
0.0
 10
14.9647428239
 20
13.1117630867
 30
0.0
 10
14.9693954389
 20
13.1108155097
 30
0.0
 10
14.9740139056
 20
13.1102284954
 30
0.0
 10
14.9785254971
 20
13.1100112457
 30
0.0
 10
14.9814848775
 20
13.1101177925
 30
0.0
 10
14.9829278663
 20
13.1102382145
 30
0.0
  0
SPLINE
  5
49A
100
AcDbEntity
  8
LAYER_FEATURE
100
AcDbSpline
 62
7
  6
CONTINUOUS
 70
0
 71
3
 72
23
 73
19
 74
0
 42
0.0000001
 43
0.0000001
 44
0.0000000001
 40
0.0
 40
0.0
 40
0.0
 40
0.0
 40
0.0606976453
 40
0.1229295907
 40
0.1864464424
 40
0.2509806574
 40
0.3162495695
 40
0.3819605357
 40
0.4478147887
 40
0.5135116526
 40
0.5787525718
 40
0.6432452235
 40
0.7067077012
 40
0.7688728587
 40
0.8294928832
 40
0.8883441926
 40
0.9452327614
 40
1.0
 40
1.0
 40
1.0
 40
1.0
 10
15.0304890796
 20
13.1459899225
 30
0.0
 10
15.0312730335
 20
13.1454228806
 30
0.0
 10
15.0328943075
 20
13.144320199
 30
0.0
 10
15.0354395478
 20
13.1427832477
 30
0.0
 10
15.0381146373
 20
13.1413508016
 30
0.0
 10
15.0409013856
 20
13.1400326077
 30
0.0
 10
15.0437809877
 20
13.1388375563
 30
0.0
 10
15.0467339564
 20
13.1377737345
 30
0.0
 10
15.0497403177
 20
13.1368483383
 30
0.0
 10
15.0527797303
 20
13.1360676288
 30
0.0
 10
15.0558316326
 20
13.1354368876
 30
0.0
 10
15.0588753836
 20
13.134960381
 30
0.0
 10
15.0618904058
 20
13.134641332
 30
0.0
 10
15.0648563353
 20
13.1344819024
 30
0.0
 10
15.0677531398
 20
13.1344831773
 30
0.0
 10
15.0705613441
 20
13.134645184
 30
0.0
 10
15.0732618621
 20
13.134966832
 30
0.0
 10
15.0750132482
 20
13.1352928218
 30
0.0
 10
15.0758651674
 20
13.1354835168
 30
0.0
  0
SPLINE
  5
49B
100
AcDbEntity
  8
LAYER_FEATURE
100
AcDbSpline
 62
7
  6
CONTINUOUS
 70
0
 71
3
 72
23
 73
19
 74
0
 42
0.0000001
 43
0.0000001
 44
0.0000000001
 40
0.0
 40
0.0
 40
0.0
 40
0.0
 40
0.059310866
 40
0.1209693535
 40
0.1846395486
 40
0.2499334382
 40
0.3164274527
 40
0.3836715791
 40
0.4512000139
 40
0.5185410618
 40
0.5852269143
 40
0.6508035097
 40
0.7148407332
 40
0.776943185
 40
0.8367617611
 40
0.8940065061
 40
0.9484611766
 40
1.0
 40
1.0
 40
1.0
 40
1.0
 10
15.1229951687
 20
13.1637833748
 30
0.0
 10
15.1238462821
 20
13.1630241149
 30
0.0
 10
15.1256451983
 20
13.1615450158
 30
0.0
 10
15.1285460555
 20
13.1594928809
 30
0.0
 10
15.131676857
 20
13.1575810664
 30
0.0
 10
15.1350051686
 20
13.1558294239
 30
0.0
 10
15.1384967194
 20
13.1542559421
 30
0.0
 10
15.1421154631
 20
13.1528768762
 30
0.0
 10
15.1458240301
 20
13.1517064589
 30
0.0
 10
15.1495841114
 20
13.1507567804
 30
0.0
 10
15.1533568735
 20
13.1500376487
 30
0.0
 10
15.1571033751
 20
13.1495564931
 30
0.0
 10
15.1607849827
 20
13.1493182857
 30
0.0
 10
15.1643638079
 20
13.1493255102
 30
0.0
 10
15.1678030561
 20
13.1495781475
 30
0.0
 10
15.1710676401
 20
13.1500738113
 30
0.0
 10
15.1741237695
 20
13.1508075374
 30
0.0
 10
15.176055893
 20
13.1514694635
 30
0.0
 10
15.1769746177
 20
13.1518412464
 30
0.0
  0
SPLINE
  5
49C
100
AcDbEntity
  8
LAYER_FEATURE
100
AcDbSpline
 62
7
  6
CONTINUOUS
 70
0
 71
3
 72
30
 73
26
 74
0
 42
0.0000001
 43
0.0000001
 44
0.0000000001
 40
0.0
 40
0.0
 40
0.0
 40
0.0
 40
0.0283817514
 40
0.0576244668
 40
0.0876860498
 40
0.1185234668
 40
0.1500823449
 40
0.1823021189
 40
0.2484421094
 40
0.3163699378
 40
0.3854413173
 40
0.4549770609
 40
0.5242841837
 40
0.5926764868
 40
0.6594953182
 40
0.7241314333
 40
0.755466953
 40
0.7860631791
 40
0.8158687887
 40
0.8448404336
 40
0.8729439414
 40
0.9001554066
 40
0.9264623434
 40
0.9518650737
 40
1.0
 40
1.0
 40
1.0
 40
1.0
 10
15.2229365814
 20
13.171894817
 30
0.0
 10
15.2233572763
 20
13.1714215571
 30
0.0
 10
15.2242379538
 20
13.1704839693
 30
0.0
 10
15.2256485237
 20
13.1691273478
 30
0.0
 10
15.2271637826
 20
13.1678038805
 30
0.0
 10
15.2287779964
 20
13.1665185154
 30
0.0
 10
15.2304852829
 20
13.1652759381
 30
0.0
 10
15.2328981333
 20
13.1636685225
 30
0.0
 10
15.2361073906
 20
13.1617991015
 30
0.0
 10
15.2401861905
 20
13.1598144293
 30
0.0
 10
15.2444666015
 20
13.158097892
 30
0.0
 10
15.2488855265
 20
13.1566747972
 30
0.0
 10
15.2533780403
 20
13.1555660617
 30
0.0
 10
15.2578781598
 20
13.1547879558
 30
0.0
 10
15.2623195761
 20
13.1543519696
 30
0.0
 10
15.2659551514
 20
13.154278259
 30
0.0
 10
15.2687770642
 20
13.1544004499
 30
0.0
 10
15.2708167022
 20
13.1545788785
 30
0.0
 10
15.2727936768
 20
13.154844346
 30
0.0
 10
15.2747007153
 20
13.1551959098
 30
0.0
 10
15.2765307946
 20
13.1556323006
 30
0.0
 10
15.2782770981
 20
13.1561519045
 30
0.0
 10
15.2799334425
 20
13.1567529969
 30
0.0
 10
15.2819760466
 20
13.1576436955
 30
0.0
 10
15.2834138555
 20
13.1584496172
 30
0.0
 10
15.2843052956
 20
13.1590484783
 30
0.0
  0
SPLINE
  5
49D
100
AcDbEntity
  8
02___PRT_ALL_AXES
100
AcDbSpline
 62
7
  6
CONTINUOUS
 70
0
 71
3
 72
61
 73
57
 74
0
 42
0.0000001
 43
0.0000001
 44
0.0000000001
 40
0.0
 40
0.0
 40
0.0
 40
0.0
 40
0.0171790457
 40
0.0345310557
 40
0.0520452838
 40
0.069711301
 40
0.0875179361
 40
0.1054538382
 40
0.1416647873
 40
0.1782496114
 40
0.2151087944
 40
0.2521405008
 40
0.2892414576
 40
0.3263078169
 40
0.3632360181
 40
0.3999236494
 40
0.4362703199
 40
0.4721785536
 40
0.4899397181
 40
0.5075565273
 40
0.5250180328
 40
0.5423136474
 40
0.5594331769
 40
0.576366854
 40
0.5931053735
 40
0.6096399301
 40
0.6259622542
 40
0.6420646508
 40
0.65794004
 40
0.6735819996
 40
0.6889848123
 40
0.7041435105
 40
0.7190539244
 40
0.7337127321
 40
0.7481175129
 40
0.7622668037
 40
0.7761601555
 40
0.7897981899
 40
0.8031826569
 40
0.8163164938
 40
0.8292038842
 40
0.8418503139
 40
0.8542626208
 40
0.8664490385
 40
0.8784192333
 40
0.890184329
 40
0.9017569188
 40
0.9131510554
 40
0.9243822211
 40
0.9354672734
 40
0.9464243638
 40
0.9572728287
 40
0.9680330487
 40
0.9787262804
 40
0.9893744621
 40
1.0
 40
1.0
 40
1.0
 40
1.0
 10
15.2235747583
 20
12.8013218771
 30
0.0
 10
15.2300497163
 20
12.8013218771
 30
0.0
 10
15.2430652399
 20
12.8011794034
 30
0.0
 10
15.2626728038
 20
12.8005463584
 30
0.0
 10
15.2824461797
 20
12.7994934898
 30
0.0
 10
15.3023645528
 20
12.7980219365
 30
0.0
 10
15.3224073966
 20
12.7961332018
 30
0.0
 10
15.3493532395
 20
12.7930516323
 30
0.0
 10
15.383209244
 20
12.7881631941
 30
0.0
 10
15.4238682309
 20
12.780691912
 30
0.0
 10
15.4645191697
 20
12.7716278017
 30
0.0
 10
15.5049927743
 20
12.7610085996
 30
0.0
 10
15.5451210304
 20
12.7488784034
 30
0.0
 10
15.5847372052
 20
12.7352875917
 30
0.0
 10
15.6236767087
 20
12.7202926534
 30
0.0
 10
15.6617779003
 20
12.703955814
 30
0.0
 10
15.6988821172
 20
12.6863451159
 30
0.0
 10
15.7289524502
 20
12.670611771
 30
0.0
 10
15.7523748673
 20
12.6574440648
 30
0.0
 10
15.7695346259
 20
12.6473328217
 30
0.0
 10
15.7863324131
 20
12.6369612999
 30
0.0
 10
15.8027508257
 20
12.6263402355
 30
0.0
 10
15.8187727583
 20
12.6154806918
 30
0.0
 10
15.8343815431
 20
12.6043939597
 30
0.0
 10
15.8495609359
 20
12.5930915689
 30
0.0
 10
15.8642951457
 20
12.5815852741
 30
0.0
 10
15.8785688437
 20
12.5698870386
 30
0.0
 10
15.8923671799
 20
12.5580090219
 30
0.0
 10
15.9056757977
 20
12.545963567
 30
0.0
 10
15.9184808483
 20
12.5337631862
 30
0.0
 10
15.9307690102
 20
12.521420553
 30
0.0
 10
15.9425274995
 20
12.5089484842
 30
0.0
 10
15.9537440797
 20
12.4963599256
 30
0.0
 10
15.9644070745
 20
12.4836679396
 30
0.0
 10
15.9745053777
 20
12.4708856896
 30
0.0
 10
15.9840284686
 20
12.4580264296
 30
0.0
 10
15.9929664225
 20
12.4451034903
 30
0.0
 10
16.0013099137
 20
12.432130262
 30
0.0
 10
16.0090502244
 20
12.4191201836
 30
0.0
 10
16.0161792513
 20
12.4060867285
 30
0.0
 10
16.0226895146
 20
12.3930433929
 30
0.0
 10
16.0285741695
 20
12.3800036861
 30
0.0
 10
16.0338270042
 20
12.3669811155
 30
0.0
 10
16.0384424452
 20
12.3539891773
 30
0.0
 10
16.0424155624
 20
12.341041347
 30
0.0
 10
16.0457420745
 20
12.3281510695
 30
0.0
 10
16.0484183645
 20
12.3153317523
 30
0.0
 10
16.0504414791
 20
12.3025967544
 30
0.0
 10
16.0518091349
 20
12.2899593782
 30
0.0
 10
16.0525197279
 20
12.2774328594
 30
0.0
 10
16.0525723429
 20
12.2650303588
 30
0.0
 10
16.0519667679
 20
12.2527649343
 30
0.0
 10
16.0507035195
 20
12.2406495795
 30
0.0
 10
16.0487837802
 20
12.2286969962
 30
0.0
 10
16.0462096485
 20
12.2169203473
 30
0.0
 10
16.0440579471
 20
12.2091909468
 30
0.0
 10
16.0428755203
 20
12.2053646063
 30
0.0
  0
SPLINE
  5
49E
100
AcDbEntity
  8
LAYER_CUT_FEAT
100
AcDbSpline
 62
7
  6
CONTINUOUS
 70
0
 71
3
 72
22
 73
18
 74
0
 42
0.0000001
 43
0.0000001
 44
0.0000000001
 40
0.0
 40
0.0
 40
0.0
 40
0.0
 40
0.138119746
 40
0.2053664285
 40
0.2714549226
 40
0.3364371368
 40
0.4003725798
 40
0.4633278425
 40
0.5253764101
 40
0.5865986145
 40
0.6470813095
 40
0.7069174418
 40
0.7662055029
 40
0.8250488587
 40
0.8835549592
 40
0.9418344156
 40
1.0
 40
1.0
 40
1.0
 40
1.0
 10
16.0896211923
 20
12.3972753977
 30
0.0
 10
16.0940995191
 20
12.3881495272
 30
0.0
 10
16.1002703034
 20
12.3743301932
 30
0.0
 10
16.1073082741
 20
12.3556278017
 30
0.0
 10
16.1118847115
 20
12.34176307
 30
0.0
 10
16.1158007112
 20
12.3279508006
 30
0.0
 10
16.1190525758
 20
12.3142038031
 30
0.0
 10
16.1216370117
 20
12.3005353247
 30
0.0
 10
16.1235513952
 20
12.2869584269
 30
0.0
 10
16.1247937215
 20
12.2734861526
 30
0.0
 10
16.1253626549
 20
12.260131465
 30
0.0
 10
16.1252575039
 20
12.2469072518
 30
0.0
 10
16.1244782261
 20
12.2338262962
 30
0.0
 10
16.1230254553
 20
12.2209013194
 30
0.0
 10
16.1209004757
 20
12.2081447536
 30
0.0
 10
16.1181054291
 20
12.1955694843
 30
0.0
 10
16.1157960159
 20
12.1873111432
 30
0.0
 10
16.1145320837
 20
12.1832210534
 30
0.0
  0
SPLINE
  5
49F
100
AcDbEntity
  8
02___PRT_ALL_AXES
100
AcDbSpline
 62
7
  6
CONTINUOUS
 70
0
 71
3
 72
25
 73
21
 74
0
 42
0.0000001
 43
0.0000001
 44
0.0000000001
 40
0.0
 40
0.0
 40
0.0
 40
0.0
 40
0.0691761866
 40
0.1373861832
 40
0.2046063189
 40
0.2708309662
 40
0.3360619361
 40
0.4003139637
 40
0.4636126754
 40
0.5259949405
 40
0.5875087294
 40
0.6482127283
 40
0.7081761222
 40
0.7379097478
 40
0.7674887553
 40
0.8262182704
 40
0.8844730037
 40
0.913460719
 40
0.9423700824
 40
1.0
 40
1.0
 40
1.0
 40
1.0
 10
15.2063880494
 20
12.7457056665
 30
0.0
 10
15.2079109738
 20
12.7457056665
 30
0.0
 10
15.2109363222
 20
12.7456200421
 30
0.0
 10
15.2154263077
 20
12.7452291948
 30
0.0
 10
15.2198206542
 20
12.7445786273
 30
0.0
 10
15.224102352
 20
12.743671534
 30
0.0
 10
15.2282550732
 20
12.7425122239
 30
0.0
 10
15.2322628119
 20
12.7411062559
 30
0.0
 10
15.236110103
 20
12.7394602771
 30
0.0
 10
15.2397820262
 20
12.7375820203
 30
0.0
 10
15.2432643173
 20
12.7354801796
 30
0.0
 10
15.2465432421
 20
12.733164508
 30
0.0
 10
15.249103012
 20
12.7310590577
 30
0.0
 10
15.2510343189
 20
12.7292791276
 30
0.0
 10
15.2528777718
 20
12.7274466963
 30
0.0
 10
15.2550350348
 20
12.7250427511
 30
0.0
 10
15.2569919261
 20
12.7224893146
 30
0.0
 10
15.2584254656
 20
12.7203710973
 30
0.0
 10
15.2597671217
 20
12.7182098665
 30
0.0
 10
15.2606753519
 20
12.716532102
 30
0.0
 10
15.2612342848
 20
12.7153931228
 30
0.0
  0
SPLINE
  5
4A0
100
AcDbEntity
  8
02___PRT_ALL_AXES
100
AcDbSpline
 62
7
  6
CONTINUOUS
 70
0
 71
3
 72
50
 73
46
 74
0
 42
0.0000001
 43
0.0000001
 44
0.0000000001
 40
0.0
 40
0.0
 40
0.0
 40
0.0
 40
0.028711315
 40
0.0590856652
 40
0.0910607697
 40
0.124547038
 40
0.1594325505
 40
0.195585781
 40
0.2328585728
 40
0.2710885218
 40
0.3101010986
 40
0.3497114917
 40
0.3897262726
 40
0.4299449588
 40
0.4701615087
 40
0.5101659569
 40
0.5497460678
 40
0.5886893442
 40
0.6267851315
 40
0.6638271579
 40
0.6996162333
 40
0.733963346
 40
0.7666929734
 40
0.7824016766
 40
0.7976482772
 40
0.8124163382
 40
0.8266911358
 40
0.8404596292
 40
0.8537109508
 40
0.866436254
 40
0.8786294355
 40
0.8902869705
 40
0.9014087401
 40
0.9119980738
 40
0.9220626452
 40
0.9316148465
 40
0.9406727004
 40
0.9492606737
 40
0.95741058
 40
0.9651626175
 40
0.9725659907
 40
0.9796795278
 40
0.9865712542
 40
0.9933173885
 40
1.0
 40
1.0
 40
1.0
 40
1.0
 10
16.0033549088
 20
12.3416591872
 30
0.0
 10
16.0040187592
 20
12.3403064023
 30
0.0
 10
16.0052789174
 20
12.3374695914
 30
0.0
 10
16.0069287399
 20
12.3329810992
 30
0.0
 10
16.008384517
 20
12.3281637302
 30
0.0
 10
16.0096400499
 20
12.3230466837
 30
0.0
 10
16.0106914504
 20
12.3176605202
 30
0.0
 10
16.0115368022
 20
12.3120374151
 30
0.0
 10
16.0121761595
 20
12.3062107739
 30
0.0
 10
16.0126113884
 20
12.3002150386
 30
0.0
 10
16.0128460152
 20
12.294085472
 30
0.0
 10
16.0128850485
 20
12.2878579803
 30
0.0
 10
16.0127347923
 20
12.2815689539
 30
0.0
 10
16.012402657
 20
12.275255124
 30
0.0
 10
16.0118969711
 20
12.2689534207
 30
0.0
 10
16.0112267979
 20
12.262700829
 30
0.0
 10
16.0104017568
 20
12.256534222
 30
0.0
 10
16.0094318536
 20
12.2504901768
 30
0.0
 10
16.0083273156
 20
12.2446047514
 30
0.0
 10
16.0070984373
 20
12.2389132498
 30
0.0
 10
16.0057554367
 20
12.2334499154
 30
0.0
 10
16.0043083091
 20
12.2282477559
 30
0.0
 10
16.0030064874
 20
12.2241014113
 30
0.0
 10
16.0019168752
 20
12.2209413581
 30
0.0
 10
16.0010904968
 20
12.218688198
 30
0.0
 10
16.0002448488
 20
12.2165227869
 30
0.0
 10
15.9993809629
 20
12.2144483565
 30
0.0
 10
15.998499835
 20
12.2124679893
 30
0.0
 10
15.9976024384
 20
12.2105846108
 30
0.0
 10
15.9966896834
 20
12.208800986
 30
0.0
 10
15.99576247
 20
12.2071197115
 30
0.0
 10
15.9948216237
 20
12.2055432211
 30
0.0
 10
15.993867963
 20
12.2040737722
 30
0.0
 10
15.9929022289
 20
12.2027134617
 30
0.0
 10
15.9919251441
 20
12.2014642097
 30
0.0
 10
15.9909373629
 20
12.2003277809
 30
0.0
 10
15.9899394978
 20
12.1993057855
 30
0.0
 10
15.9889321147
 20
12.1983996892
 30
0.0
 10
15.9879157192
 20
12.1976108611
 30
0.0
 10
15.9868908251
 20
12.1969405447
 30
0.0
 10
15.9858579174
 20
12.1963899731
 30
0.0
 10
15.984817623
 20
12.195960247
 30
0.0
 10
15.9837706102
 20
12.1956524689
 30
0.0
 10
15.982718035
 20
12.1954674641
 30
0.0
 10
15.9820125542
 20
12.1954263869
 30
0.0
 10
15.9816618222
 20
12.1954263855
 30
0.0
  0
SPLINE
  5
4A1
100
AcDbEntity
  8
LAYER_CHAMFER_FEAT
100
AcDbSpline
 62
7
  6
CONTINUOUS
 70
0
 71
3
 72
60
 73
56
 74
0
 42
0.0000001
 43
0.0000001
 44
0.0000000001
 40
0.0
 40
0.0
 40
0.0
 40
0.0
 40
0.015758822
 40
0.0311491432
 40
0.0461672682
 40
0.0608122756
 40
0.0750862314
 40
0.0889943731
 40
0.1025453636
 40
0.1157515117
 40
0.1286289083
 40
0.1411975863
 40
0.153481631
 40
0.1655091355
 40
0.1773120918
 40
0.1889261803
 40
0.2003903567
 40
0.2117463089
 40
0.2230377914
 40
0.234309819
 40
0.2456077902
 40
0.2569765908
 40
0.2684597216
 40
0.2800985261
 40
0.2919315228
 40
0.3039938686
 40
0.3163170206
 40
0.3289285133
 40
0.3418518264
 40
0.3551064288
 40
0.3687078806
 40
0.3826679344
 40
0.3969947455
 40
0.4116931088
 40
0.4267646373
 40
0.4422079818
 40
0.4580190928
 40
0.4741914016
 40
0.4907159943
 40
0.5075818519
 40
0.5247760156
 40
0.542283715
 40
0.5600885706
 40
0.5781727439
 40
0.6150972222
 40
0.6528941411
 40
0.69138107
 40
0.7303640908
 40
0.769641259
 40
0.8090059817
 40
0.8482502934
 40
0.8871681268
 40
0.925558591
 40
0.9632290739
 40
1.0
 40
1.0
 40
1.0
 40
1.0
 10
15.2664422636
 20
12.2428683264
 30
0.0
 10
15.2647863169
 20
12.2424788872
 30
0.0
 10
15.2615274715
 20
12.241646373
 30
0.0
 10
15.2567515519
 20
12.240217776
 30
0.0
 10
15.2521541612
 20
12.2386266023
 30
0.0
 10
15.2477444008
 20
12.2368759487
 30
0.0
 10
15.2435308876
 20
12.2349691879
 30
0.0
 10
15.2395219055
 20
12.2329099685
 30
0.0
 10
15.2357253407
 20
12.2307022327
 30
0.0
 10
15.2321486704
 20
12.2283502248
 30
0.0
 10
15.228798979
 20
12.2258584406
 30
0.0
 10
15.2256829449
 20
12.2232316439
 30
0.0
 10
15.2228067978
 20
12.2204749019
 30
0.0
 10
15.2201763467
 20
12.2175935374
 30
0.0
 10
15.2177969737
 20
12.2145931375
 30
0.0
 10
15.2156735606
 20
12.2114796005
 30
0.0
 10
15.2138105049
 20
12.2082590948
 30
0.0
 10
15.212211715
 20
12.2049380497
 30
0.0
 10
15.2108805197
 20
12.2015231746
 30
0.0
 10
15.2098196615
 20
12.1980214129
 30
0.0
 10
15.209031319
 20
12.1944399003
 30
0.0
 10
15.2085170462
 20
12.1907859454
 30
0.0
 10
15.2082777594
 20
12.1870669834
 30
0.0
 10
15.2083138111
 20
12.1832905333
 30
0.0
 10
15.2086249765
 20
12.1794641815
 30
0.0
 10
15.209210428
 20
12.1755955528
 30
0.0
 10
15.2100688259
 20
12.1716923006
 30
0.0
 10
15.211198324
 20
12.1677621077
 30
0.0
 10
15.2125965227
 20
12.1638126638
 30
0.0
 10
15.2142605367
 20
12.1598516724
 30
0.0
 10
15.2161870093
 20
12.1558868553
 30
0.0
 10
15.2183720639
 20
12.1519259231
 30
0.0
 10
15.2208113378
 20
12.1479765746
 30
0.0
 10
15.2235000127
 20
12.1440465026
 30
0.0
 10
15.2264327813
 20
12.1401433617
 30
0.0
 10
15.229603854
 20
12.1362747488
 30
0.0
 10
15.233007004
 20
12.1324482158
 30
0.0
 10
15.236635554
 20
12.128671242
 30
0.0
 10
15.2404823666
 20
12.1249511962
 30
0.0
 10
15.2445398939
 20
12.1212953566
 30
0.0
 10
15.2488001869
 20
12.117710888
 30
0.0
 10
15.2532548646
 20
12.1142048097
 30
0.0
 10
15.2578952215
 20
12.1107839502
 30
0.0
 10
15.2643622321
 20
12.1063147529
 30
0.0
 10
15.2728553507
 20
12.1009900402
 30
0.0
 10
15.2835626125
 20
12.0950873441
 30
0.0
 10
15.2947723632
 20
12.0896734535
 30
0.0
 10
15.3063967143
 20
12.0847908532
 30
0.0
 10
15.3183448276
 20
12.0804776635
 30
0.0
 10
15.3305232107
 20
12.0767676393
 30
0.0
 10
15.3428366062
 20
12.0736898208
 30
0.0
 10
15.3551886398
 20
12.0712682579
 30
0.0
 10
15.3674828636
 20
12.0695219207
 30
0.0
 10
15.3796226509
 20
12.0684644415
 30
0.0
 10
15.387660119
 20
12.0682209305
 30
0.0
 10
15.391629445
 20
12.0682209305
 30
0.0
  0
SPLINE
  5
4A2
100
AcDbEntity
  8
LAYER_FEATURE
100
AcDbSpline
 62
7
  6
CONTINUOUS
 70
0
 71
3
 72
9
 73
5
 74
0
 42
0.0000001
 43
0.0000001
 44
0.0000000001
 40
0.0
 40
0.0
 40
0.0
 40
0.0
 40
0.2550649595
 40
1.0
 40
1.0
 40
1.0
 40
1.0
 10
16.2431457811
 20
12.7059970274
 30
0.0
 10
16.2454767495
 20
12.7021481991
 30
0.0
 10
16.2544291949
 20
12.6869469938
 30
0.0
 10
16.2626192356
 20
12.6712934415
 30
0.0
 10
16.2682155699
 20
12.6594030444
 30
0.0
  0
SPLINE
  5
4A3
100
AcDbEntity
  8
LAYER_FEATURE
100
AcDbSpline
 62
7
  6
CONTINUOUS
 70
0
 71
3
 72
11
 73
7
 74
0
 42
0.0000001
 43
0.0000001
 44
0.0000000001
 40
0.0
 40
0.0
 40
0.0
 40
0.0
 40
0.2469927772
 40
0.4971937128
 40
0.7488018666
 40
1.0
 40
1.0
 40
1.0
 40
1.0
 10
16.2687392544
 20
12.596036451
 30
0.0
 10
16.2698990744
 20
12.5954501812
 30
0.0
 10
16.2722718036
 20
12.594343797
 30
0.0
 10
16.2759392168
 20
12.5928978594
 30
0.0
 10
16.2797072951
 20
12.5916661971
 30
0.0
 10
16.2822681011
 20
12.5909945635
 30
0.0
 10
16.2835560898
 20
12.5906979482
 30
0.0
  0
SPLINE
  5
4A4
100
AcDbEntity
  8
LAYER_FEATURE
100
AcDbSpline
 62
7
  6
CONTINUOUS
 70
0
 71
3
 72
15
 73
11
 74
0
 42
0.0000001
 43
0.0000001
 44
0.0000000001
 40
0.0
 40
0.0
 40
0.0
 40
0.0
 40
0.1201355079
 40
0.2429809274
 40
0.3679090637
 40
0.4942569814
 40
0.6213377702
 40
0.7484533332
 40
0.8749026499
 40
1.0
 40
1.0
 40
1.0
 40
1.0
 10
16.2320848464
 20
12.6704377046
 30
0.0
 10
16.2329991458
 20
12.6698460443
 30
0.0
 10
16.2348848802
 20
12.6687049305
 30
0.0
 10
16.2378328096
 20
12.6671417504
 30
0.0
 10
16.2409125904
 20
12.6657176547
 30
0.0
 10
16.2440989963
 20
12.664444333
 30
0.0
 10
16.247366083
 20
12.6633321371
 30
0.0
 10
16.2506872287
 20
12.662390148
 30
0.0
 10
16.2540352321
 20
12.6616260487
 30
0.0
 10
16.256283331
 20
12.6612365742
 30
0.0
 10
16.2574055815
 20
12.6610736293
 30
0.0
  0
SPLINE
  5
4A5
100
AcDbEntity
  8
02___PRT_ALL_AXES
100
AcDbSpline
 62
7
  6
CONTINUOUS
 70
0
 71
3
 72
60
 73
56
 74
0
 42
0.0000001
 43
0.0000001
 44
0.0000000001
 40
0.0
 40
0.0
 40
0.0
 40
0.0
 40
0.0345291045
 40
0.0520434379
 40
0.069709468
 40
0.087516143
 40
0.1054520801
 40
0.1416630999
 40
0.1782479962
 40
0.2151072514
 40
0.2521390307
 40
0.2892400603
 40
0.3263064926
 40
0.3632347664
 40
0.3999224697
 40
0.436269212
 40
0.4721775157
 40
0.4899387151
 40
0.5075555594
 40
0.5250170995
 40
0.5423127479
 40
0.5594323105
 40
0.5763660206
 40
0.5931045737
 40
0.6096391633
 40
0.6259615194
 40
0.642063947
 40
0.6579393668
 40
0.6735813577
 40
0.6889842015
 40
0.7041429297
 40
0.7190533722
 40
0.7337122079
 40
0.7481170171
 40
0.7622663367
 40
0.7761597163
 40
0.7897977771
 40
0.8031822695
 40
0.8163161319
 40
0.8292035485
 40
0.8418500038
 40
0.8542623349
 40
0.8664487758
 40
0.8784189935
 40
0.8901841128
 40
0.9017567261
 40
0.9131508853
 40
0.9243820726
 40
0.9354671462
 40
0.9464242582
 40
0.9572727448
 40
0.9680329862
 40
0.9787262388
 40
0.9893744413
 40
1.0
 40
1.0
 40
1.0
 40
1.0
 10
15.1495024634
 20
12.5616238428
 30
0.0
 10
15.1625168103
 20
12.5616238428
 30
0.0
 10
15.182135585
 20
12.5611925334
 30
0.0
 10
15.2083737508
 20
12.5597954727
 30
0.0
 10
15.2282922949
 20
12.5583238983
 30
0.0
 10
15.2483350916
 20
12.5564351686
 30
0.0
 10
15.2752809496
 20
12.5533535979
 30
0.0
 10
15.3091369478
 20
12.548465163
 30
0.0
 10
15.3497959361
 20
12.5409938768
 30
0.0
 10
15.3904468749
 20
12.5319297689
 30
0.0
 10
15.4309204799
 20
12.5213105675
 30
0.0
 10
15.471048735
 20
12.5091803677
 30
0.0
 10
15.5106649114
 20
12.4955895602
 30
0.0
 10
15.5496044141
 20
12.4805946194
 30
0.0
 10
15.5877056056
 20
12.4642577795
 30
0.0
 10
15.624809824
 20
12.4466470844
 30
0.0
 10
15.6548801553
 20
12.4309137362
 30
0.0
 10
15.6783025725
 20
12.4177460303
 30
0.0
 10
15.6954623324
 20
12.4076347886
 30
0.0
 10
15.7122601201
 20
12.3972632672
 30
0.0
 10
15.7286785323
 20
12.3866422022
 30
0.0
 10
15.7447004637
 20
12.3757826574
 30
0.0
 10
15.7603092479
 20
12.3646959247
 30
0.0
 10
15.7754886423
 20
12.3533935353
 30
0.0
 10
15.7902228531
 20
12.3418872412
 30
0.0
 10
15.8044965509
 20
12.3301890054
 30
0.0
 10
15.8182948858
 20
12.3183109878
 30
0.0
 10
15.8316035023
 20
12.3062655318
 30
0.0
 10
15.8444085541
 20
12.2940651519
 30
0.0
 10
15.8566967179
 20
12.2817225197
 30
0.0
 10
15.8684552075
 20
12.2692504508
 30
0.0
 10
15.8796717863
 20
12.2566618917
 30
0.0
 10
15.8903347792
 20
12.2439699046
 30
0.0
 10
15.9004330827
 20
12.2311876548
 30
0.0
 10
15.9099561762
 20
12.2183283959
 30
0.0
 10
15.9188941311
 20
12.2054054567
 30
0.0
 10
15.9272376211
 20
12.1924322281
 30
0.0
 10
15.9349779295
 20
12.1794221489
 30
0.0
 10
15.9421069555
 20
12.1663886935
 30
0.0
 10
15.9486172215
 20
12.1533453587
 30
0.0
 10
15.9545018785
 20
12.1403056521
 30
0.0
 10
15.9597547126
 20
12.1272830812
 30
0.0
 10
15.9643701511
 20
12.1142911428
 30
0.0
 10
15.9683432661
 20
12.1013433122
 30
0.0
 10
15.9716697804
 20
12.088453035
 30
0.0
 10
15.9743460734
 20
12.0756337178
 30
0.0
 10
15.9763691882
 20
12.0628987197
 30
0.0
 10
15.9777368418
 20
12.0502613436
 30
0.0
 10
15.9784474317
 20
12.0377348248
 30
0.0
 10
15.9785000475
 20
12.0253323244
 30
0.0
 10
15.977894476
 20
12.0130668994
 30
0.0
 10
15.976631229
 20
12.0009515442
 30
0.0
 10
15.9747114882
 20
11.988998961
 30
0.0
 10
15.9721373525
 20
11.9772223132
 30
0.0
 10
15.9699856525
 20
11.9694929123
 30
0.0
 10
15.9688032247
 20
11.9656665722
 30
0.0
  0
SPLINE
  5
4A6
100
AcDbEntity
  8
LAYER_FEATURE
100
AcDbSpline
 62
7
  6
CONTINUOUS
 70
0
 71
3
 72
17
 73
13
 74
0
 42
0.0000001
 43
0.0000001
 44
0.0000000001
 40
0.0
 40
0.0
 40
0.0
 40
0.0
 40
0.057371282
 40
0.1161558256
 40
0.1762255097
 40
0.2374393972
 40
0.3626587006
 40
0.4905258181
 40
0.619633873
 40
0.7485340729
 40
0.8757837659
 40
1.0
 40
1.0
 40
1.0
 40
1.0
 10
16.1814048376
 20
12.7449411582
 30
0.0
 10
16.1819670302
 20
12.7444730613
 30
0.0
 10
16.1831285949
 20
12.7435530305
 30
0.0
 10
16.18495269
 20
12.7422395339
 30
0.0
 10
16.186873495
 20
12.7409801817
 30
0.0
 10
16.18957287
 20
12.7393683483
 30
0.0
 10
16.1931371171
 20
12.7375258637
 30
0.0
 10
16.1976291609
 20
12.7356243524
 30
0.0
 10
16.2022946029
 20
12.7340469042
 30
0.0
 10
16.2070560956
 20
12.7328197
 30
0.0
 10
16.2118344707
 20
12.7319630689
 30
0.0
 10
16.2150291182
 20
12.7316434592
 30
0.0
 10
16.2166103886
 20
12.7315519737
 30
0.0
  0
SPLINE
  5
4A7
100
AcDbEntity
  8
LAYER_CHAMFER_FEAT
100
AcDbSpline
 62
7
  6
CONTINUOUS
 70
0
 71
3
 72
47
 73
43
 74
0
 42
0.0000001
 43
0.0000001
 44
0.0000000001
 40
0.0
 40
0.0
 40
0.0
 40
0.0
 40
0.0357339948
 40
0.0703717673
 40
0.1039038753
 40
0.1363354169
 40
0.167687474
 40
0.1829724275
 40
0.1980034833
 40
0.227330739
 40
0.2557510931
 40
0.2833616849
 40
0.3102796688
 40
0.3366409954
 40
0.3496638627
 40
0.3626058624
 40
0.3754879534
 40
0.3883316139
 40
0.4011586267
 40
0.4139909248
 40
0.4268503909
 40
0.4397586849
 40
0.4527370505
 40
0.4658061764
 40
0.4789859953
 40
0.4922956195
 40
0.5193686495
 40
0.5471642837
 40
0.5757949277
 40
0.5904557425
 40
0.6053581712
 40
0.6359154332
 40
0.6675246284
 40
0.7002199245
 40
0.734018419
 40
0.7689215708
 40
0.8049166627
 40
0.8419781169
 40
0.8800690421
 40
0.9191417629
 40
0.9591406629
 40
1.0
 40
1.0
 40
1.0
 40
1.0
 10
15.4630552494
 20
12.1821103195
 30
0.0
 10
15.4645446974
 20
12.1804803623
 30
0.0
 10
15.4673988623
 20
12.1771969283
 30
0.0
 10
15.4713473338
 20
12.1721305325
 30
0.0
 10
15.4748846581
 20
12.1670145645
 30
0.0
 10
15.4779987305
 20
12.1618661517
 30
0.0
 10
15.4802512942
 20
12.1575262045
 30
0.0
 10
15.481826006
 20
12.1540555536
 30
0.0
 10
15.4832267485
 20
12.1506460842
 30
0.0
 10
15.4847036657
 20
12.1463934912
 30
0.0
 10
15.4860333042
 20
12.1412835777
 30
0.0
 10
15.4869007354
 20
12.1362254709
 30
0.0
 10
15.4873023466
 20
12.1312366477
 30
0.0
 10
15.4872467579
 20
12.1271333703
 30
0.0
 10
15.4869662763
 20
12.1239112529
 30
0.0
 10
15.4866404603
 20
12.1215320971
 30
0.0
 10
15.486198519
 20
12.1191830563
 30
0.0
 10
15.4856408905
 20
12.1168660442
 30
0.0
 10
15.4849679855
 20
12.1145830543
 30
0.0
 10
15.4841804135
 20
12.1123360073
 30
0.0
 10
15.483278823
 20
12.1101268133
 30
0.0
 10
15.4822639875
 20
12.1079573423
 30
0.0
 10
15.4811367886
 20
12.1058294135
 30
0.0
 10
15.4798981715
 20
12.1037448484
 30
0.0
 10
15.4785491952
 20
12.1017053305
 30
0.0
 10
15.476594165
 20
12.0990336016
 30
0.0
 10
15.4738706489
 20
12.0958113021
 30
0.0
 10
15.4702008781
 20
12.0921761177
 30
0.0
 10
15.4668293094
 20
12.0893526746
 30
0.0
 10
15.4639418914
 20
12.0872084885
 30
0.0
 10
15.4608768582
 20
12.0851081518
 30
0.0
 10
15.456801363
 20
12.0826363975
 30
0.0
 10
15.4515891009
 20
12.0799460476
 30
0.0
 10
15.4460317906
 20
12.0775152835
 30
0.0
 10
15.4401480949
 20
12.0753520142
 30
0.0
 10
15.433957479
 20
12.0734631619
 30
0.0
 10
15.4274804815
 20
12.0718548413
 30
0.0
 10
15.4207385602
 20
12.0705322572
 30
0.0
 10
15.4137540964
 20
12.06949973
 30
0.0
 10
15.4065501903
 20
12.0687605978
 30
0.0
 10
15.3991509423
 20
12.068317313
 30
0.0
 10
15.3941541269
 20
12.0682209305
 30
0.0
 10
15.391629445
 20
12.0682209305
 30
0.0
  0
SPLINE
  5
4A8
100
AcDbEntity
  8
LAYER_FEATURE
100
AcDbSpline
 62
7
  6
CONTINUOUS
 70
0
 71
3
 72
23
 73
19
 74
0
 42
0.0000001
 43
0.0000001
 44
0.0000000001
 40
0.0
 40
0.0
 40
0.0
 40
0.0
 40
0.0545063468
 40
0.1112037907
 40
0.1699328463
 40
0.2304953669
 40
0.2926610218
 40
0.3561731457
 40
0.4207540977
 40
0.4861102543
 40
0.5519367401
 40
0.6179219841
 40
0.6837521778
 40
0.7491156955
 40
0.8137075636
 40
0.8772339785
 40
0.9394171272
 40
1.0
 40
1.0
 40
1.0
 40
1.0
 10
16.1178309195
 20
12.8180081295
 30
0.0
 10
16.1184265874
 20
12.8173536403
 30
0.0
 10
16.1196923466
 20
12.8160635904
 30
0.0
 10
16.1217546962
 20
12.8142280699
 30
0.0
 10
16.1240054752
 20
12.8124648803
 30
0.0
 10
16.126428746
 20
12.8107864869
 30
0.0
 10
16.1290075253
 20
12.8092046018
 30
0.0
 10
16.1317236724
 20
12.8077303415
 30
0.0
 10
16.1345580799
 20
12.8063740679
 30
0.0
 10
16.1374907925
 20
12.8051453276
 30
0.0
 10
16.1405011542
 20
12.8040527744
 30
0.0
 10
16.1435679566
 20
12.8031041056
 30
0.0
 10
16.1466695905
 20
12.8023060054
 30
0.0
 10
16.1497842073
 20
12.8016640965
 30
0.0
 10
16.1528898588
 20
12.8011829006
 30
0.0
 10
16.155964722
 20
12.8008658079
 30
0.0
 10
16.1589870236
 20
12.8007150523
 30
0.0
 10
16.1609815296
 20
12.8007263261
 30
0.0
 10
16.161964543
 20
12.8007612007
 30
0.0
  0
SPLINE
  5
4A9
100
AcDbEntity
  8
LAYER_FEATURE
100
AcDbSpline
 62
7
  6
CONTINUOUS
 70
0
 71
3
 72
11
 73
7
 74
0
 42
0.0000001
 43
0.0000001
 44
0.0000000001
 40
0.0
 40
0.0
 40
0.0
 40
0.0
 40
0.2719434731
 40
0.4021694399
 40
0.5286907911
 40
1.0
 40
1.0
 40
1.0
 40
1.0
 10
15.9819008307
 20
12.2031158387
 30
0.0
 10
15.9814034851
 20
12.2025199939
 30
0.0
 10
15.9806384971
 20
12.2016625887
 30
0.0
 10
15.9795699778
 20
12.2005965153
 30
0.0
 10
15.9780411964
 20
12.1991898258
 30
0.0
 10
15.9766625875
 20
12.1981600014
 30
0.0
 10
15.9755019355
 20
12.1974801056
 30
0.0
  0
SPLINE
  5
4AA
100
AcDbEntity
  8
LAYER_FEATURE
100
AcDbSpline
 62
7
  6
CONTINUOUS
 70
0
 71
3
 72
23
 73
19
 74
0
 42
0.0000001
 43
0.0000001
 44
0.0000000001
 40
0.0
 40
0.0
 40
0.0
 40
0.0
 40
0.0512378083
 40
0.1054581717
 40
0.1625440593
 40
0.2222807422
 40
0.2843739176
 40
0.3484656329
 40
0.4141482316
 40
0.4809768623
 40
0.5484810115
 40
0.6161754834
 40
0.6835710103
 40
0.7501847357
 40
0.8155508538
 40
0.879232009
 40
0.940829357
 40
1.0
 40
1.0
 40
1.0
 40
1.0
 10
16.0425790993
 20
12.888263309
 30
0.0
 10
16.0431189465
 20
12.8874217541
 30
0.0
 10
16.0443286037
 20
12.8857515178
 30
0.0
 10
16.0464331052
 20
12.8833729168
 30
0.0
 10
16.0488574271
 20
12.8810731896
 30
0.0
 10
16.0515755206
 20
12.8788768011
 30
0.0
 10
16.0545585897
 20
12.8768067283
 30
0.0
 10
16.0577748803
 20
12.8748849259
 30
0.0
 10
16.061190136
 20
12.8731318154
 30
0.0
 10
16.0647679249
 20
12.871566092
 30
0.0
 10
16.0684700416
 20
12.8702044685
 30
0.0
 10
16.0722569305
 20
12.86906149
 30
0.0
 10
16.0760881232
 20
12.8681493698
 30
0.0
 10
16.0799226971
 20
12.8674778585
 30
0.0
 10
16.0837196946
 20
12.8670541236
 30
0.0
 10
16.0874387066
 20
12.8668827183
 30
0.0
 10
16.091039853
 20
12.8669654417
 30
0.0
 10
16.0933881346
 20
12.8671945709
 30
0.0
 10
16.094531664
 20
12.8673542313
 30
0.0
  0
SPLINE
  5
4AB
100
AcDbEntity
  8
LAYER_FEATURE
100
AcDbSpline
 62
7
  6
CONTINUOUS
 70
0
 71
3
 72
31
 73
27
 74
0
 42
0.0000001
 43
0.0000001
 44
0.0000000001
 40
0.0
 40
0.0
 40
0.0
 40
0.0
 40
0.0478048098
 40
0.0730559333
 40
0.0992257753
 40
0.1263180736
 40
0.1543228245
 40
0.1832176299
 40
0.2129690037
 40
0.2435337449
 40
0.2748600683
 40
0.3068885617
 40
0.3395531964
 40
0.4064869665
 40
0.4750477798
 40
0.5445555862
 40
0.614300834
 40
0.683566726
 40
0.7516511777
 40
0.8178892778
 40
0.8501310378
 40
0.8816914043
 40
0.9125086783
 40
0.9425277356
 40
0.9717053009
 40
1.0
 40
1.0
 40
1.0
 40
1.0
 10
15.9571741637
 20
12.9543790503
 30
0.0
 10
15.957551222
 20
12.9533671585
 30
0.0
 10
15.9582580947
 20
12.9518668827
 30
0.0
 10
15.9594175595
 20
12.9499477111
 30
0.0
 10
15.9604323352
 20
12.9484915286
 30
0.0
 10
15.961572065
 20
12.9470511787
 30
0.0
 10
15.9628325271
 20
12.9456318087
 30
0.0
 10
15.9642088679
 20
12.9442388613
 30
0.0
 10
15.9656958379
 20
12.9428775815
 30
0.0
 10
15.9672877643
 20
12.941553137
 30
0.0
 10
15.9689785756
 20
12.9402705715
 30
0.0
 10
15.9707618458
 20
12.9390347402
 30
0.0
 10
15.9732739138
 20
12.9374428138
 30
0.0
 10
15.9766020114
 20
12.9356032189
 30
0.0
 10
15.9808142099
 20
12.9336697037
 30
0.0
 10
15.9852138807
 20
12.9320214083
 30
0.0
 10
15.9897341331
 20
12.9306834033
 30
0.0
 10
15.9943065732
 20
12.9296759416
 30
0.0
 10
15.9988616825
 20
12.9290143157
 30
0.0
 10
16.002619684
 20
12.9287571513
 30
0.0
 10
16.0055578104
 20
12.928736829
 30
0.0
 10
16.007694512
 20
12.928812554
 30
0.0
 10
16.0097757324
 20
12.9289788045
 30
0.0
 10
16.0117936495
 20
12.9292349518
 30
0.0
 10
16.0137404276
 20
12.929580052
 30
0.0
 10
16.0150059138
 20
12.92987316
 30
0.0
 10
16.0156242559
 20
12.930034908
 30
0.0
  0
LINE
  5
4AC
100
AcDbEntity
  8
LAYER_FEATURE
100
AcDbLine
 62
7
  6
CONTINUOUS
 10
15.8363367462
 20
13.0427716712
 11
15.8357878883
 21
13.0424866508
  0
SPLINE
  5
4AD
100
AcDbEntity
  8
LAYER_FEATURE
100
AcDbSpline
 62
7
  6
CONTINUOUS
 70
0
 71
3
 72
39
 73
35
 74
0
 42
0.0000001
 43
0.0000001
 44
0.0000000001
 40
0.0
 40
0.0
 40
0.0
 40
0.0
 40
0.0219105592
 40
0.0445834175
 40
0.068153294
 40
0.0927223608
 40
0.1183610074
 40
0.1451099666
 40
0.172983055
 40
0.2019700974
 40
0.232039788
 40
0.2631423615
 40
0.2952120312
 40
0.3281691911
 40
0.3619224363
 40
0.396370405
 40
0.4314034701
 40
0.4669053192
 40
0.5027544496
 40
0.5388256008
 40
0.5749911455
 40
0.6111224637
 40
0.6470913005
 40
0.6827711227
 40
0.718038494
 40
0.7527744857
 40
0.786866139
 40
0.8202080104
 40
0.8527038353
 40
0.8842682046
 40
0.9148288032
 40
0.9443274835
 40
0.9727253509
 40
1.0
 40
1.0
 40
1.0
 40
1.0
 10
15.8633968146
 20
13.0154821431
 30
0.0
 10
15.8634262761
 20
13.0149216783
 30
0.0
 10
15.8635541292
 20
13.0137839058
 30
0.0
 10
15.8639391597
 20
13.0120779904
 30
0.0
 10
15.8645176788
 20
13.0103557582
 30
0.0
 10
15.8652861771
 20
13.0086264742
 30
0.0
 10
15.8662402908
 20
13.0068989455
 30
0.0
 10
15.8673747957
 20
13.0051820708
 30
0.0
 10
15.8686836086
 20
13.0034846781
 30
0.0
 10
15.8701597887
 20
13.0018155377
 30
0.0
 10
15.8717955499
 20
13.000183307
 30
0.0
 10
15.8735822837
 20
12.9985964863
 30
0.0
 10
15.8755105937
 20
12.9970633668
 30
0.0
 10
15.8775703355
 20
12.9955919792
 30
0.0
 10
15.8797506683
 20
12.9941900466
 30
0.0
 10
15.8820401114
 20
12.9928649396
 30
0.0
 10
15.8844266036
 20
12.9916236335
 30
0.0
 10
15.8868975669
 20
12.9904726683
 30
0.0
 10
15.8894399733
 20
12.9894181121
 30
0.0
 10
15.8920404144
 20
12.9884655278
 30
0.0
 10
15.8946851727
 20
12.9876199405
 30
0.0
 10
15.8973602955
 20
12.9868858097
 30
0.0
 10
15.9000516707
 20
12.9862670074
 30
0.0
 10
15.902745103
 20
12.9857667974
 30
0.0
 10
15.9054263893
 20
12.9853878178
 30
0.0
 10
15.9080813959
 20
12.9851320685
 30
0.0
 10
15.9106961342
 20
12.9850009015
 30
0.0
 10
15.9132568378
 20
12.9849950146
 30
0.0
 10
15.9157500332
 20
12.9851144514
 30
0.0
 10
15.9181626268
 20
12.9853585999
 30
0.0
 10
15.920481928
 20
12.9857262194
 30
0.0
 10
15.922695853
 20
12.986215433
 30
0.0
 10
15.9247926035
 20
12.9868237259
 30
0.0
 10
15.9261323739
 20
12.98731666
 30
0.0
 10
15.9267781616
 20
12.9875832227
 30
0.0
  0
SPLINE
  5
4AE
100
AcDbEntity
  8
LAYER_FEATURE
100
AcDbSpline
 62
7
  6
CONTINUOUS
 70
0
 71
3
 72
39
 73
35
 74
0
 42
0.0000001
 43
0.0000001
 44
0.0000000001
 40
0.0
 40
0.0
 40
0.0
 40
0.0
 40
0.0215204024
 40
0.0435272229
 40
0.0662662371
 40
0.0899424266
 40
0.1147138758
 40
0.1406915643
 40
0.1679417648
 40
0.1964902739
 40
0.2263271452
 40
0.2574113995
 40
0.2896753978
 40
0.3230287918
 40
0.3573620606
 40
0.3925496894
 40
0.4284530546
 40
0.4649230815
 40
0.501802732
 40
0.5389293688
 40
0.5761370397
 40
0.6132587141
 40
0.6501285059
 40
0.686583911
 40
0.7224680935
 40
0.7576322527
 40
0.7919381158
 40
0.8252605994
 40
0.8574907096
 40
0.8885387073
 40
0.9183377252
 40
0.9468475401
 40
0.9740594322
 40
1.0
 40
1.0
 40
1.0
 40
1.0
 10
15.7631969523
 20
13.0683596864
 30
0.0
 10
15.7630795188
 20
13.0677692286
 30
0.0
 10
15.7629274353
 20
13.0665563344
 30
0.0
 10
15.7629519791
 20
13.0646974508
 30
0.0
 10
15.7632261312
 20
13.0627979538
 30
0.0
 10
15.7637470637
 20
13.0608713136
 30
0.0
 10
15.7645103506
 20
13.0589301113
 30
0.0
 10
15.7655102439
 20
13.0569869525
 30
0.0
 10
15.766739682
 20
13.0550543242
 30
0.0
 10
15.768190278
 20
13.0531446783
 30
0.0
 10
15.7698523071
 20
13.0512703778
 30
0.0
 10
15.7717147142
 20
13.0494436294
 30
0.0
 10
15.7737651483
 20
13.0476763946
 30
0.0
 10
15.7759900208
 20
13.0459802976
 30
0.0
 10
15.7783745816
 20
13.0443665337
 30
0.0
 10
15.7809030106
 20
13.0428457832
 30
0.0
 10
15.7835585204
 20
13.04142813
 30
0.0
 10
15.7863234676
 20
13.0401229875
 30
0.0
 10
15.7891794717
 20
13.0389390299
 30
0.0
 10
15.7921075395
 20
13.0378841305
 30
0.0
 10
15.7950881937
 20
13.0369653066
 30
0.0
 10
15.7981016057
 20
13.0361886705
 30
0.0
 10
15.8011277307
 20
13.0355593882
 30
0.0
 10
15.8041464445
 20
13.035081645
 30
0.0
 10
15.8071376809
 20
13.0347586184
 30
0.0
 10
15.8100815697
 20
13.0345924593
 30
0.0
 10
15.8129585727
 20
13.0345842818
 30
0.0
 10
15.8157496189
 20
13.0347341623
 30
0.0
 10
15.8184362311
 20
13.035041148
 30
0.0
 10
15.8210006623
 20
13.0355032805
 30
0.0
 10
15.8234259673
 20
13.0361176122
 30
0.0
 10
15.825696246
 20
13.0368803193
 30
0.0
 10
15.8277962419
 20
13.0377864881
 30
0.0
 10
15.8291042537
 20
13.0384993716
 30
0.0
 10
15.8297226693
 20
13.0388790629
 30
0.0
  0
LINE
  5
4AF
100
AcDbEntity
  8
LAYER_FEATURE
100
AcDbLine
 62
7
  6
CONTINUOUS
 10
15.7317009362
 20
13.0875793901
 11
15.7312479407
 21
13.0872324543
  0
SPLINE
  5
4B0
100
AcDbEntity
  8
LAYER_FEATURE
100
AcDbSpline
 62
7
  6
CONTINUOUS
 70
0
 71
3
 72
22
 73
18
 74
0
 42
0.0000001
 43
0.0000001
 44
0.0000000001
 40
0.0
 40
0.0
 40
0.0
 40
0.0
 40
0.138119746
 40
0.2053664285
 40
0.2714549226
 40
0.3364371368
 40
0.4003725798
 40
0.4633278425
 40
0.5253764101
 40
0.5865986145
 40
0.6470813095
 40
0.7069174418
 40
0.7662055029
 40
0.8250488587
 40
0.8835549592
 40
0.9418344156
 40
1.0
 40
1.0
 40
1.0
 40
1.0
 10
16.0953097509
 20
12.4156835801
 30
0.0
 10
16.0997880777
 20
12.4065577096
 30
0.0
 10
16.105958862
 20
12.3927383756
 30
0.0
 10
16.1129968327
 20
12.3740359841
 30
0.0
 10
16.1175732701
 20
12.3601712524
 30
0.0
 10
16.1214892698
 20
12.346358983
 30
0.0
 10
16.1247411344
 20
12.3326119855
 30
0.0
 10
16.1273255703
 20
12.3189435071
 30
0.0
 10
16.1292399538
 20
12.3053666093
 30
0.0
 10
16.1304822801
 20
12.291894335
 30
0.0
 10
16.1310512135
 20
12.2785396474
 30
0.0
 10
16.1309460625
 20
12.2653154342
 30
0.0
 10
16.1301667847
 20
12.2522344786
 30
0.0
 10
16.1287140139
 20
12.2393095018
 30
0.0
 10
16.1265890343
 20
12.226552936
 30
0.0
 10
16.1237939877
 20
12.2139776666
 30
0.0
 10
16.1214845745
 20
12.2057193256
 30
0.0
 10
16.1202206423
 20
12.2016292358
 30
0.0
  0
LINE
  5
4B1
100
AcDbEntity
  8
LAYER_FEATURE
100
AcDbLine
 62
7
  6
CONTINUOUS
 10
15.6564360882
 20
13.1133721673
 11
15.6563647615
 21
13.1139023045
  0
SPLINE
  5
4B2
100
AcDbEntity
  8
LAYER_FEATURE
100
AcDbSpline
 62
7
  6
CONTINUOUS
 70
0
 71
3
 72
68
 73
64
 74
0
 42
0.0000001
 43
0.0000001
 44
0.0000000001
 40
0.0
 40
0.0
 40
0.0
 40
0.0
 40
0.0171788456
 40
0.0345306534
 40
0.0520446775
 40
0.0697104889
 40
0.0875169165
 40
0.1054526097
 40
0.1235058945
 40
0.141664841
 40
0.1599172928
 40
0.1782508911
 40
0.1966531056
 40
0.2151112604
 40
0.2521425354
 40
0.28924306
 40
0.3263089876
 40
0.3447973805
 40
0.3632383651
 40
0.3816191845
 40
0.3999272075
 40
0.4181499573
 40
0.4362751395
 40
0.4542906697
 40
0.4721847023
 40
0.4899456599
 40
0.5075622638
 40
0.525023566
 40
0.5423189791
 40
0.5594383092
 40
0.576371789
 40
0.5931101135
 40
0.6096444775
 40
0.6259666114
 40
0.6420688205
 40
0.6579440247
 40
0.6735858021
 40
0.6889884354
 40
0.704146957
 40
0.7190571972
 40
0.7337158342
 40
0.7481204471
 40
0.7622695731
 40
0.7761627631
 40
0.7898006386
 40
0.8031849497
 40
0.8163186336
 40
0.8292058738
 40
0.8418521562
 40
0.8542643185
 40
0.8664505942
 40
0.8784206496
 40
0.8901856082
 40
0.9017580632
 40
0.9131520671
 40
0.924383102
 40
0.9354680251
 40
0.9464249879
 40
0.9572733264
 40
0.9680334211
 40
0.9787265282
 40
0.9893745859
 40
1.0
 40
1.0
 40
1.0
 40
1.0
 10
15.2398131348
 20
13.2367460254
 30
0.0
 10
15.2486589234
 20
13.2367460254
 30
0.0
 10
15.2664401309
 20
13.2365513844
 30
0.0
 10
15.2932270811
 20
13.2356865476
 30
0.0
 10
15.320240549
 20
13.2342481671
 30
0.0
 10
15.3474521322
 20
13.2322377986
 30
0.0
 10
15.3748336606
 20
13.2296574973
 30
0.0
 10
15.4023565823
 20
13.2265099635
 30
0.0
 10
15.4299922682
 20
13.2227984701
 30
0.0
 10
15.4577119487
 20
13.2185268848
 30
0.0
 10
15.4854867808
 20
13.2136996539
 30
0.0
 10
15.5132878199
 20
13.2083218062
 30
0.0
 10
15.541086255
 20
13.2023989175
 30
0.0
 10
15.5781462987
 20
13.193774447
 30
0.0
 10
15.6242737649
 20
13.1816717908
 30
0.0
 10
15.6790944937
 20
13.1651002694
 30
0.0
 10
15.7242342186
 20
13.149614571
 30
0.0
 10
15.7599175945
 20
13.1362508522
 30
0.0
 10
15.78639974
 20
13.1257658778
 30
0.0
 10
15.8125947835
 20
13.1148218625
 30
0.0
 10
15.8384755736
 20
13.1034301399
 30
0.0
 10
15.8640151398
 20
13.0916025845
 30
0.0
 10
15.8891869078
 20
13.0793515055
 30
0.0
 10
15.9139646757
 20
13.0666896554
 30
0.0
 10
15.9383226542
 20
13.0536302114
 30
0.0
 10
15.9622354895
 20
13.0401867615
 30
0.0
 10
15.985678294
 20
13.0263732949
 30
0.0
 10
16.0086266729
 20
13.0122041881
 30
0.0
 10
16.0310567459
 20
12.9976941833
 30
0.0
 10
16.0529451719
 20
12.9828583752
 30
0.0
 10
16.0742691729
 20
12.9677121937
 30
0.0
 10
16.0950065589
 20
12.9522713889
 30
0.0
 10
16.1151357562
 20
12.9365520201
 30
0.0
 10
16.1346358236
 20
12.9205704307
 30
0.0
 10
16.1534864738
 20
12.9043432324
 30
0.0
 10
16.1716680932
 20
12.8878872878
 30
0.0
 10
16.1891617622
 20
12.8712196907
 30
0.0
 10
16.205949282
 20
12.8543577549
 30
0.0
 10
16.2220131873
 20
12.8373189901
 30
0.0
 10
16.2373367615
 20
12.8201210824
 30
0.0
 10
16.2519040529
 20
12.8027818769
 30
0.0
 10
16.2656998885
 20
12.7853193569
 30
0.0
 10
16.2787098959
 20
12.7677516294
 30
0.0
 10
16.290920516
 20
12.7500969061
 30
0.0
 10
16.3023190085
 20
12.7323734805
 30
0.0
 10
16.3128934638
 20
12.7145997118
 30
0.0
 10
16.3226328114
 20
12.696794007
 30
0.0
 10
16.3315268326
 20
12.6789748038
 30
0.0
 10
16.3395661765
 20
12.6611605582
 30
0.0
 10
16.3467423568
 20
12.6433697233
 30
0.0
 10
16.3530477592
 20
12.625620737
 30
0.0
 10
16.3584756487
 20
12.6079320089
 30
0.0
 10
16.3630201759
 20
12.5903219067
 30
0.0
 10
16.3666763998
 20
12.5728087471
 30
0.0
 10
16.3694402855
 20
12.5554107808
 30
0.0
 10
16.3713087138
 20
12.5381461808
 30
0.0
 10
16.3722794932
 20
12.5210330288
 30
0.0
 10
16.3723513734
 20
12.504089305
 30
0.0
 10
16.3715240647
 20
12.4873328481
 30
0.0
 10
16.3697982731
 20
12.4707814095
 30
0.0
 10
16.3671756138
 20
12.4544523419
 30
0.0
 10
16.3636589539
 20
12.4383636278
 30
0.0
 10
16.3607193988
 20
12.4278040775
 30
0.0
 10
16.3591040218
 20
12.4225767078
 30
0.0
  0
SPLINE
  5
4B3
100
AcDbEntity
  8
LAYER_FEATURE
100
AcDbSpline
 62
7
  6
CONTINUOUS
 70
0
 71
3
 72
39
 73
35
 74
0
 42
0.0000001
 43
0.0000001
 44
0.0000000001
 40
0.0
 40
0.0
 40
0.0
 40
0.0
 40
0.0273532036
 40
0.055806613
 40
0.0853352511
 40
0.1158993901
 40
0.14744097
 40
0.1798887944
 40
0.2131593732
 40
0.2471590207
 40
0.2817854317
 40
0.3169292327
 40
0.3524754215
 40
0.3883047322
 40
0.4242949551
 40
0.4603222228
 40
0.4962622869
 40
0.5319917967
 40
0.5673895755
 40
0.6023379185
 40
0.6367239291
 40
0.670440911
 40
0.7033898453
 40
0.7354809791
 40
0.7666355125
 40
0.796787446
 40
0.8258856136
 40
0.8538959272
 40
0.8808038371
 40
0.9066169999
 40
0.931368024
 40
0.9551170875
 40
0.9779541295
 40
1.0
 40
1.0
 40
1.0
 40
1.0
 10
15.3283680719
 20
13.1701663693
 30
0.0
 10
15.3287550765
 20
13.1695919843
 30
0.0
 10
15.3295891669
 20
13.1684496017
 30
0.0
 10
15.3309802981
 20
13.16679437
 30
0.0
 10
15.3325293331
 20
13.1651715466
 30
0.0
 10
15.3342282138
 20
13.1635894485
 30
0.0
 10
15.3360683399
 20
13.1620560456
 30
0.0
 10
15.3380402992
 20
13.1605791294
 30
0.0
 10
15.3401340401
 20
13.1591662133
 30
0.0
 10
15.3423388711
 20
13.1578244975
 30
0.0
 10
15.3446435295
 20
13.1565608267
 30
0.0
 10
15.3470362375
 20
13.1553816547
 30
0.0
 10
15.3495047629
 20
13.1542930076
 30
0.0
 10
15.3520364827
 20
13.1533004525
 30
0.0
 10
15.3546184478
 20
13.1524090669
 30
0.0
 10
15.3572374504
 20
13.1516234125
 30
0.0
 10
15.3598800918
 20
13.1509475077
 30
0.0
 10
15.3625328535
 20
13.1503848087
 30
0.0
 10
15.3651821681
 20
13.1499381929
 30
0.0
 10
15.3678144898
 20
13.1496099444
 30
0.0
 10
15.3704163649
 20
13.1494017433
 30
0.0
 10
15.3729745021
 20
13.1493146587
 30
0.0
 10
15.3754758425
 20
13.1493491444
 30
0.0
 10
15.3779076282
 20
13.1495050362
 30
0.0
 10
15.3802574698
 20
13.1497815613
 30
0.0
 10
15.3825134083
 20
13.1501773479
 30
0.0
 10
15.384663975
 20
13.1506904401
 30
0.0
 10
15.386698245
 20
13.1513183177
 30
0.0
 10
15.3886058816
 20
13.1520579186
 30
0.0
 10
15.3903771798
 20
13.1529056705
 30
0.0
 10
15.3920030636
 20
13.1538574833
 30
0.0
 10
15.3934751819
 20
13.1549088754
 30
0.0
 10
15.394785591
 20
13.1560545829
 30
0.0
 10
15.3955590035
 20
13.1568909761
 30
0.0
 10
15.3959138247
 20
13.1573219092
 30
0.0
  0
SPLINE
  5
4B4
100
AcDbEntity
  8
LAYER_FEATURE
100
AcDbSpline
 62
7
  6
CONTINUOUS
 70
0
 71
3
 72
39
 73
35
 74
0
 42
0.0000001
 43
0.0000001
 44
0.0000000001
 40
0.0
 40
0.0
 40
0.0
 40
0.0
 40
0.0261474982
 40
0.0535737377
 40
0.0822995396
 40
0.1123111208
 40
0.1435638683
 40
0.1759871422
 40
0.2094879846
 40
0.2439546792
 40
0.2792598694
 40
0.3152634214
 40
0.3518150574
 40
0.3887568275
 40
0.4259254641
 40
0.4631546591
 40
0.5002772992
 40
0.5371276899
 40
0.5735437988
 40
0.6093695509
 40
0.6444572107
 40
0.6786698935
 40
0.7118842562
 40
0.7439934244
 40
0.7749102232
 40
0.804570777
 40
0.8329385279
 40
0.8600086715
 40
0.885812902
 40
0.9104241107
 40
0.9339604513
 40
0.9565873663
 40
0.9785167507
 40
1.0
 40
1.0
 40
1.0
 40
1.0
 10
15.4372375361
 20
13.1586316738
 30
0.0
 10
15.4375462837
 20
13.1579690655
 30
0.0
 10
15.4382483606
 20
13.1566429942
 30
0.0
 10
15.4395053735
 20
13.1547126944
 30
0.0
 10
15.4409825286
 20
13.1528066775
 30
0.0
 10
15.4426697953
 20
13.1509375807
 30
0.0
 10
15.4445560024
 20
13.1491175031
 30
0.0
 10
15.4466286284
 20
13.1473583924
 30
0.0
 10
15.4488739424
 20
13.1456718189
 30
0.0
 10
15.4512770558
 20
13.1440689208
 30
0.0
 10
15.4538220247
 20
13.1425603089
 30
0.0
 10
15.4564919499
 20
13.1411559888
 30
0.0
 10
15.4592690911
 20
13.1398652864
 30
0.0
 10
15.4621349856
 20
13.1386967809
 30
0.0
 10
15.4650705737
 20
13.1376582432
 30
0.0
 10
15.4680563277
 20
13.1367565817
 30
0.0
 10
15.4710723851
 20
13.1359977946
 30
0.0
 10
15.474098684
 20
13.1353869292
 30
0.0
 10
15.4771150998
 20
13.134928048
 30
0.0
 10
15.4801015831
 20
13.1346242033
 30
0.0
 10
15.4830382971
 20
13.134477419
 30
0.0
 10
15.4859057541
 20
13.1344886816
 30
0.0
 10
15.4886849487
 20
13.1346579401
 30
0.0
 10
15.491357488
 20
13.134984117
 30
0.0
 10
15.4939057141
 20
13.1354651295
 30
0.0
 10
15.4963128173
 20
13.1360979241
 30
0.0
 10
15.4985629328
 20
13.136878521
 30
0.0
 10
15.5006412156
 20
13.13780207
 30
0.0
 10
15.5025338792
 20
13.1388628995
 30
0.0
 10
15.5042282092
 20
13.1400545643
 30
0.0
 10
15.5057125057
 20
13.1413697722
 30
0.0
 10
15.5069761716
 20
13.1428004846
 30
0.0
 10
15.5080094613
 20
13.144336991
 30
0.0
 10
15.5085429006
 20
13.1454324767
 30
0.0
 10
15.5087664782
 20
13.1459899225
 30
0.0
  0
SPLINE
  5
4B5
100
AcDbEntity
  8
LAYER_FEATURE
100
AcDbSpline
 62
7
  6
CONTINUOUS
 70
0
 71
3
 72
39
 73
35
 74
0
 42
0.0000001
 43
0.0000001
 44
0.0000000001
 40
0.0
 40
0.0
 40
0.0
 40
0.0
 40
0.0240105322
 40
0.0491632762
 40
0.075549498
 40
0.1032181104
 40
0.1321793445
 40
0.1624099468
 40
0.1938575746
 40
0.2264450415
 40
0.2600740542
 40
0.2946285853
 40
0.3299779063
 40
0.3659793593
 40
0.4024809267
 40
0.4393236518
 40
0.4763439548
 40
0.5133758841
 40
0.5502533332
 40
0.586812257
 40
0.6228929153
 40
0.6583421782
 40
0.6930159295
 40
0.7267816124
 40
0.7595209693
 40
0.7911330357
 40
0.8215374567
 40
0.8506781848
 40
0.8785276101
 40
0.9050910641
 40
0.9304116315
 40
0.9545745683
 40
0.9777112983
 40
1.0
 40
1.0
 40
1.0
 40
1.0
 10
15.5474259537
 20
13.1375152402
 30
0.0
 10
15.5475939678
 20
13.1368619081
 30
0.0
 10
15.5480179401
 20
13.1355437195
 30
0.0
 10
15.5488801958
 20
13.1336004201
 30
0.0
 10
15.5499763609
 20
13.1316600508
 30
0.0
 10
15.5512987246
 20
13.1297354776
 30
0.0
 10
15.5528383795
 20
13.1278390097
 30
0.0
 10
15.5545850337
 20
13.1259829869
 30
0.0
 10
15.5565270928
 20
13.1241795165
 30
0.0
 10
15.5586516821
 20
13.1224404335
 30
0.0
 10
15.5609447208
 20
13.1207771942
 30
0.0
 10
15.5633910026
 20
13.1192007906
 30
0.0
 10
15.5659742928
 20
13.1177216645
 30
0.0
 10
15.5686774345
 20
13.1163496303
 30
0.0
 10
15.5714824635
 20
13.1150938022
 30
0.0
 10
15.5743707293
 20
13.113962529
 30
0.0
 10
15.5773230219
 20
13.112963335
 30
0.0
 10
15.5803197019
 20
13.112102867
 30
0.0
 10
15.5833408343
 20
13.1113868491
 30
0.0
 10
15.5863663248
 20
13.1108200438
 30
0.0
 10
15.5893760563
 20
13.1104062206
 30
0.0
 10
15.5923500276
 20
13.1101481325
 30
0.0
 10
15.5952684899
 20
13.1100475008
 30
0.0
 10
15.5981120827
 20
13.1101050081
 30
0.0
 10
15.6008619666
 20
13.1103203018
 30
0.0
 10
15.6034999512
 20
13.1106920076
 30
0.0
 10
15.6060086154
 20
13.1112177549
 30
0.0
 10
15.6083714173
 20
13.1118942145
 30
0.0
 10
15.6105727814
 20
13.1127171445
 30
0.0
 10
15.6125981774
 20
13.1136814572
 30
0.0
 10
15.6144341077
 20
13.114781223
 30
0.0
 10
15.6160682419
 20
13.1160098649
 30
0.0
 10
15.6174889249
 20
13.1173594911
 30
0.0
 10
15.6182999505
 20
13.1183504181
 30
0.0
 10
15.6186628075
 20
13.1188607895
 30
0.0
  0
LINE
  5
4B6
100
AcDbEntity
  8
LAYER_FEATURE
100
AcDbLine
 62
7
  6
CONTINUOUS
 10
15.5456870987
 20
13.1438496186
 11
15.545498439
 21
13.1443923322
  0
SPLINE
  5
4B7
100
AcDbEntity
  8
LAYER_FEATURE
100
AcDbSpline
 62
7
  6
CONTINUOUS
 70
0
 71
3
 72
39
 73
35
 74
0
 42
0.0000001
 43
0.0000001
 44
0.0000000001
 40
0.0
 40
0.0
 40
0.0
 40
0.0
 40
0.0223998756
 40
0.045677839
 40
0.0700048675
 40
0.0955051949
 40
0.1222573358
 40
0.1502983039
 40
0.1796280954
 40
0.2102144842
 40
0.2419974694
 40
0.2748933396
 40
0.3087983076
 40
0.3435917728
 40
0.3791392716
 40
0.415295183
 40
0.4519052491
 40
0.4888089603
 40
0.5258418485
 40
0.5628377238
 40
0.5996308887
 40
0.6360583577
 40
0.6719621154
 40
0.7071914459
 40
0.7416053722
 40
0.7750752525
 40
0.8074875872
 40
0.8387470979
 40
0.8687801549
 40
0.8975385781
 40
0.9250039443
 40
0.9511920308
 40
0.9761580058
 40
1.0
 40
1.0
 40
1.0
 40
1.0
 10
15.6567886325
 20
13.107228076
 30
0.0
 10
15.6568131078
 20
13.106599078
 30
0.0
 10
15.6569495719
 20
13.1053185143
 30
0.0
 10
15.6573987418
 20
13.1033987729
 30
0.0
 10
15.6580917113
 20
13.1014604402
 30
0.0
 10
15.6590230972
 20
13.0995165823
 30
0.0
 10
15.6601862323
 20
13.0975795781
 30
0.0
 10
15.6615731139
 20
13.0956619307
 30
0.0
 10
15.663174411
 20
13.0937760244
 30
0.0
 10
15.6649794541
 20
13.0919341231
 30
0.0
 10
15.6669762665
 20
13.090148269
 30
0.0
 10
15.669151614
 20
13.0884301944
 30
0.0
 10
15.6714910773
 20
13.0867912293
 30
0.0
 10
15.673979139
 20
13.0852422132
 30
0.0
 10
15.6765992832
 20
13.0837934123
 30
0.0
 10
15.679334105
 20
13.0824544435
 30
0.0
 10
15.6821654266
 20
13.0812342037
 30
0.0
 10
15.6850744209
 20
13.0801408065
 30
0.0
 10
15.6880417383
 20
13.0791815246
 30
0.0
 10
15.6910476394
 20
13.0783627396
 30
0.0
 10
15.6940721283
 20
13.0776898982
 30
0.0
 10
15.6970950898
 20
13.0771674753
 30
0.0
 10
15.7000964265
 20
13.0767989455
 30
0.0
 10
15.7030561968
 20
13.0765867613
 30
0.0
 10
15.7059547515
 20
13.0765323405
 30
0.0
 10
15.7087728689
 20
13.0766360624
 30
0.0
 10
15.7114918862
 20
13.0768972736
 30
0.0
 10
15.7140938267
 20
13.0773143057
 30
0.0
 10
15.7165615131
 20
13.0778845022
 30
0.0
 10
15.7188786861
 20
13.0786042667
 30
0.0
 10
15.7210300422
 20
13.0794690836
 30
0.0
 10
15.7230014446
 20
13.0804736931
 30
0.0
 10
15.724779431
 20
13.0816116926
 30
0.0
 10
15.7258509739
 20
13.0824734546
 30
0.0
 10
15.7263468537
 20
13.0829240135
 30
0.0
  0
ENDSEC
  0
SECTION
  2
OBJECTS
  0
DICTIONARY
  5
C
100
AcDbDictionary
280
0
281
1
  3
ACAD_GROUP
350
D
  3
ACAD_MLINESTYLE
350
17
  3
ACAD_LAYOUT
350
1A
  3
ACAD_PLOTSETTINGS
350
19
  3
ACAD_PLOTSTYLENAME
350
E
  0
DICTIONARY
  5
D
102
{ACAD_REACTORS
330
C
102
}
100
AcDbDictionary
280
0
281
1
  0
ACDBDICTIONARYWDFLT
  5
E
102
{ACAD_REACTORS
330
C
102
}
100
AcDbDictionary
281
1
  3
Normal
350
F
100
AcDbDictionaryWithDefault
340
F
  0
DICTIONARY
  5
17
102
{ACAD_REACTORS
330
C
102
}
100
AcDbDictionary
280
0
281
1
  3
Standard
350
18
  0
DICTIONARY
  5
19
102
{ACAD_REACTORS
330
C
102
}
100
AcDbDictionary
281
1
  0
DICTIONARY
  5
1A
102
{ACAD_REACTORS
330
C
102
}
100
AcDbDictionary
281
1
  3
Model
350
4B8
  3
Layout1
350
4B9
  0
ACDBPLACEHOLDER
  5
F
102
{ACAD_REACTORS
330
E
102
}
  0
MLINESTYLE
  5
18
102
{ACAD_REACTORS
330
17
102
}
100
AcDbMlineStyle
  2
STANDARD
 70
0
  3

 62
256
 51
90.0
 52
90.0
 71
2
 49
0.5
 62
256
  6
BYLAYER
 49
-0.5
 62
256
  6
BYLAYER
  0
LAYOUT
  5
4B8
102
{ACAD_REACTORS
330
1A
102
}
100
AcDbPlotSettings
  1

  2
none_device
  4
ANSI_C_(22.00_x_17.00_Inches)
  6

 40
0.0
 41
0.0
 42
0.0
 43
0.0
 44
558.8
 45
431.8
 46
0.0
 47
0.0
 48
0.0
 49
0.0
140
0.0
141
0.0
142
1.0
143
1.0
 70
1024
 72
0
 73
0
 74
0
  7

 75
0
147
1.0
148
0.0
149
0.0
100
AcDbLayout
  1
Model
 70
0
 71
0
 10
0.0
 20
0.0
 11
22.0
 21
17.0
 12
0.0
 22
0.0
 32
0.0
 14
0.0
 24
0.0
 34
0.0
 15
0.0
 25
0.0
 35
0.0
146
0.0
 13
0.0
 23
0.0
 33
0.0
 16
1.0
 26
0.0
 36
0.0
 17
0.0
 27
1.0
 37
0.0
 76
0
330
222
345
0
346
0
  0
LAYOUT
  5
4B9
102
{ACAD_REACTORS
330
1A
102
}
100
AcDbPlotSettings
  1

  2
none_device
  4
ANSI_C_(22.00_x_17.00_Inches)
  6

 40
0.0
 41
0.0
 42
0.0
 43
0.0
 44
558.8
 45
431.8
 46
0.0
 47
0.0
 48
0.0
 49
0.0
140
0.0
141
0.0
142
1.0
143
1.0
 70
0
 72
0
 73
0
 74
0
  7

 75
0
147
1.0
148
0.0
149
0.0
100
AcDbLayout
  1
Layout1
 70
0
 71
1
 10
0.0
 20
0.0
 11
22.0
 21
17.0
 12
0.0
 22
0.0
 32
0.0
 14
0.0
 24
0.0
 34
0.0
 15
0.0
 25
0.0
 35
0.0
146
0.0
 13
0.0
 23
0.0
 33
0.0
 16
1.0
 26
0.0
 36
0.0
 17
0.0
 27
1.0
 37
0.0
 76
0
330
223
345
0
346
0
  0
ENDSEC
  0
EOF