999
DXF file: _cgs_temp_output.dxf
999
Pro/ENGINEER 2015110 by Parametric Technology Corporation
  0
SECTION
  2
HEADER
  9
$ACADVER
  1
AC1021
  9
$DWGCODEPAGE
  3
ANSI_1252
  9
$EXTMAX
 10
22.0
 20
17.0
 30
0.0
  9
$EXTMIN
 10
0.0
 20
0.0
 30
0.0
  9
$LIMMIN
 10
0.0
 20
0.0
  9
$LIMMAX
 10
22.0
 20
17.0
  9
$VIEWCTR
 10
11.0
 20
8.5
  9
$VIEWSIZE
 40
17.0
  9
$CLAYER
  8
0
  9
$LTSCALE
 40
1.21
  9
$CELTYPE
  6
BYLAYER
  9
$DIMSCALE
 40
1.0
  9
$DIMASZ
 40
0.1875
  9
$DIMEXO
 40
0.0625
  9
$DIMDLI
 40
0.836
  9
$DIMEXE
 40
0.125
  9
$DIMCEN
 40
0.198
  9
$DIMLFAC
 40
1.0
  9
$DIMBLK
  1
_CLOSED
  9
$DIMALT
 70
0
  9
$DIMALTF
 40
25.4
  9
$DIMTXT
 40
0.15625
  9
$DIMTOL
 70
0
  9
$DIMLIM
 70
0
  9
$DIMTFAC
 40
1.0
  9
$DIMGAP
 40
0.09
  9
$DIMDSEP
 70
46
  9
$AUNITS
 70
0
  9
$PDMODE
 70
3
  9
$PDSIZE
 40
0.3125
  9
$HANDSEED
  5
289
  9
$TILEMODE
 70
1
  9
$MEASUREMENT
 70
0
  9
$INSUNITS
 70
1
  0
ENDSEC
  0
SECTION
  2
CLASSES
  0
CLASS
  1
ACDBDICTIONARYWDFLT
  2
AcDbDictionaryWithDefault
  3
AutoCAD 2000
 90
0
 91
1
280
0
281
0
  0
CLASS
  1
ACDBPLACEHOLDER
  2
AcDbPlaceHolder
  3
AutoCAD 2000
 90
0
 91
1
280
0
281
0
  0
CLASS
  1
LAYOUT
  2
AcDbLayout
  3
AutoCAD 2000
 90
0
 91
0
280
0
281
0
  0
ENDSEC
  0
SECTION
  2
TABLES
  0
TABLE
  2
VPORT
  5
8
100
AcDbSymbolTable
 70
2
  0
VPORT
  5
1F4
100
AcDbSymbolTableRecord
100
AcDbViewportTableRecord
  2
*ACTIVE
 70
0
 10
0.0
 20
0.0
 11
1.0
 21
1.0
 12
11.0
 22
8.5
 13
0.0
 23
0.0
 14
1.0
 24
1.0
 15
0.0
 25
0.0
 16
0.0
 26
0.0
 36
1.0
 17
0.0
 27
0.0
 37
0.0
 40
17.0
 41
1.2941176471
 42
50.0
 43
0.0
 44
0.0
 50
0.0
 51
0.0
 71
0
 72
100
 73
1
 74
1
 75
0
 76
0
 77
0
 78
0
  0
ENDTAB
  0
TABLE
  2
LTYPE
  5
5
100
AcDbSymbolTable
 70
6
  0
LTYPE
  5
14
100
AcDbSymbolTableRecord
100
AcDbLinetypeTableRecord
  2
BYBLOCK
 70
0
  3

 72
65
 73
0
 40
0.0
  0
LTYPE
  5
15
100
AcDbSymbolTableRecord
100
AcDbLinetypeTableRecord
  2
BYLAYER
 70
0
  3

 72
65
 73
0
 40
0.0
  0
LTYPE
  5
16
100
AcDbSymbolTableRecord
100
AcDbLinetypeTableRecord
  2
CONTINUOUS
 70
64
  3
Solid line
 72
65
 73
0
 40
0.0
  0
LTYPE
  5
1F5
100
AcDbSymbolTableRecord
100
AcDbLinetypeTableRecord
  2
CENTER
 70
64
  3
____ _ ____ _ ____ _ ____ _ ____ _ ____ _ ____
 72
65
 73
4
 40
0.6
 49
0.375
 74
0
 49
-0.075
 74
0
 49
0.075
 74
0
 49
-0.075
 74
0
  0
LTYPE
  5
1F6
100
AcDbSymbolTableRecord
100
AcDbLinetypeTableRecord
  2
HIDDEN
 70
64
  3
- - - - - - - - - - - - - - - - - - - -
 72
65
 73
2
 40
0.2
 49
0.1
 74
0
 49
-0.1
 74
0
  0
LTYPE
  5
1F7
100
AcDbSymbolTableRecord
100
AcDbLinetypeTableRecord
  2
PHANTOM
 70
64
  3
_____ _ _ _____ _ _ _____ _ _ _____
 72
65
 73
6
 40
0.8
 49
0.45
 74
0
 49
-0.05
 74
0
 49
0.1
 74
0
 49
-0.05
 74
0
 49
0.1
 74
0
 49
-0.05
 74
0
  0
LTYPE
  5
1F8
100
AcDbSymbolTableRecord
100
AcDbLinetypeTableRecord
  2
DOT
 70
64
  3
. . . . . . . . . . . . . . . . . . . .
 72
65
 73
2
 40
0.2
 49
0.1
 74
0
 49
-0.1
 74
0
  0
LTYPE
  5
1F9
100
AcDbSymbolTableRecord
100
AcDbLinetypeTableRecord
  2
DASHED
 70
64
  3
- - - - - - - - - - - - - - - - - - - -
 72
65
 73
2
 40
0.2
 49
0.1
 74
0
 49
-0.1
 74
0
  0
ENDTAB
  0
TABLE
  2
LAYER
  5
2
100
AcDbSymbolTable
 70
36
  0
LAYER
  5
10
100
AcDbSymbolTableRecord
100
AcDbLayerTableRecord
  2
0
 70
0
 62
7
  6
CONTINUOUS
370
-3
390
F
  0
LAYER
  5
1FA
100
AcDbSymbolTableRecord
100
AcDbLayerTableRecord
  2
DEFAULT_1
 70
0
 62
7
  6
CENTER
370
-3
390
F
  0
LAYER
  5
1FB
100
AcDbSymbolTableRecord
100
AcDbLayerTableRecord
  2
DEFAULT_2
 70
0
 62
8
  6
HIDDEN
370
-3
390
F
  0
LAYER
  5
1FC
100
AcDbSymbolTableRecord
100
AcDbLayerTableRecord
  2
DEFAULT_3
 70
0
 62
7
  6
PHANTOM
370
-3
390
F
  0
LAYER
  5
1FD
100
AcDbSymbolTableRecord
100
AcDbLayerTableRecord
  2
01_ALL_DTM_PLN
 70
0
 62
7
  6
CONTINUOUS
370
-3
390
F
  0
LAYER
  5
1FE
100
AcDbSymbolTableRecord
100
AcDbLayerTableRecord
  2
01__ASM_ALL_DTM_PLN
 70
0
 62
7
  6
CONTINUOUS
370
-3
390
F
  0
LAYER
  5
1FF
100
AcDbSymbolTableRecord
100
AcDbLayerTableRecord
  2
01__ASM_DEF_DTM_PLN
 70
0
 62
7
  6
CONTINUOUS
370
-3
390
F
  0
LAYER
  5
200
100
AcDbSymbolTableRecord
100
AcDbLayerTableRecord
  2
01___PRT_ALL_DTM_PLN
 70
0
 62
7
  6
CONTINUOUS
370
-3
390
F
  0
LAYER
  5
201
100
AcDbSymbolTableRecord
100
AcDbLayerTableRecord
  2
01___PRT_DEF_DTM_PLN
 70
0
 62
7
  6
CONTINUOUS
370
-3
390
F
  0
LAYER
  5
202
100
AcDbSymbolTableRecord
100
AcDbLayerTableRecord
  2
02_ALL_AXES
 70
0
 62
7
  6
CONTINUOUS
370
-3
390
F
  0
LAYER
  5
203
100
AcDbSymbolTableRecord
100
AcDbLayerTableRecord
  2
02__ASM_ALL_AXES
 70
0
 62
7
  6
CONTINUOUS
370
-3
390
F
  0
LAYER
  5
204
100
AcDbSymbolTableRecord
100
AcDbLayerTableRecord
  2
02___PRT_ALL_AXES
 70
0
 62
7
  6
CONTINUOUS
370
-3
390
F
  0
LAYER
  5
205
100
AcDbSymbolTableRecord
100
AcDbLayerTableRecord
  2
03_ALL_CURVES
 70
0
 62
7
  6
CONTINUOUS
370
-3
390
F
  0
LAYER
  5
206
100
AcDbSymbolTableRecord
100
AcDbLayerTableRecord
  2
03__ASM_ALL_CURVES
 70
0
 62
7
  6
CONTINUOUS
370
-3
390
F
  0
LAYER
  5
207
100
AcDbSymbolTableRecord
100
AcDbLayerTableRecord
  2
03___PRT_ALL_CURVES
 70
0
 62
7
  6
CONTINUOUS
370
-3
390
F
  0
LAYER
  5
208
100
AcDbSymbolTableRecord
100
AcDbLayerTableRecord
  2
04_ALL_DTM_PNT
 70
0
 62
7
  6
CONTINUOUS
370
-3
390
F
  0
LAYER
  5
209
100
AcDbSymbolTableRecord
100
AcDbLayerTableRecord
  2
04__ASM_ALL_DTM_PNT
 70
0
 62
7
  6
CONTINUOUS
370
-3
390
F
  0
LAYER
  5
20A
100
AcDbSymbolTableRecord
100
AcDbLayerTableRecord
  2
04___PRT_ALL_DTM_PNT
 70
0
 62
7
  6
CONTINUOUS
370
-3
390
F
  0
LAYER
  5
20B
100
AcDbSymbolTableRecord
100
AcDbLayerTableRecord
  2
05_ALL_DTM_CSYS
 70
0
 62
7
  6
CONTINUOUS
370
-3
390
F
  0
LAYER
  5
20C
100
AcDbSymbolTableRecord
100
AcDbLayerTableRecord
  2
05__ASM_ALL_DTM_CSYS
 70
0
 62
7
  6
CONTINUOUS
370
-3
390
F
  0
LAYER
  5
20D
100
AcDbSymbolTableRecord
100
AcDbLayerTableRecord
  2
05__ASM_DEF_DTM_CSYS
 70
0
 62
7
  6
CONTINUOUS
370
-3
390
F
  0
LAYER
  5
20E
100
AcDbSymbolTableRecord
100
AcDbLayerTableRecord
  2
05___PRT_ALL_DTM_CSYS
 70
0
 62
7
  6
CONTINUOUS
370
-3
390
F
  0
LAYER
  5
20F
100
AcDbSymbolTableRecord
100
AcDbLayerTableRecord
  2
05___PRT_DEF_DTM_CSYS
 70
0
 62
7
  6
CONTINUOUS
370
-3
390
F
  0
LAYER
  5
210
100
AcDbSymbolTableRecord
100
AcDbLayerTableRecord
  2
06_ALL_SURFS
 70
0
 62
7
  6
CONTINUOUS
370
-3
390
F
  0
LAYER
  5
211
100
AcDbSymbolTableRecord
100
AcDbLayerTableRecord
  2
06__ASM_ALL_SURFS
 70
0
 62
7
  6
CONTINUOUS
370
-3
390
F
  0
LAYER
  5
212
100
AcDbSymbolTableRecord
100
AcDbLayerTableRecord
  2
06___PRT_ALL_SURFS
 70
0
 62
7
  6
CONTINUOUS
370
-3
390
F
  0
LAYER
  5
213
100
AcDbSymbolTableRecord
100
AcDbLayerTableRecord
  2
07__ASM_ALL_SKELETONS
 70
0
 62
7
  6
CONTINUOUS
370
-3
390
F
  0
LAYER
  5
214
100
AcDbSymbolTableRecord
100
AcDbLayerTableRecord
  2
LAYER_DIM
 70
0
 62
7
  6
CONTINUOUS
370
-3
390
F
  0
LAYER
  5
215
100
AcDbSymbolTableRecord
100
AcDbLayerTableRecord
  2
LAYER_FEATURE
 70
0
 62
7
  6
CONTINUOUS
370
-3
390
F
  0
LAYER
  5
216
100
AcDbSymbolTableRecord
100
AcDbLayerTableRecord
  2
LAYER_GEOM_FEAT
 70
0
 62
7
  6
CONTINUOUS
370
-3
390
F
  0
LAYER
  5
217
100
AcDbSymbolTableRecord
100
AcDbLayerTableRecord
  2
LAYER_PARAMETER_DIM
 70
0
 62
7
  6
CONTINUOUS
370
-3
390
F
  0
LAYER
  5
218
100
AcDbSymbolTableRecord
100
AcDbLayerTableRecord
  2
LAYER_PROTRUSION_FEAT
 70
0
 62
7
  6
CONTINUOUS
370
-3
390
F
  0
LAYER
  5
219
100
AcDbSymbolTableRecord
100
AcDbLayerTableRecord
  2
LAYER_ROUND_FEAT
 70
0
 62
7
  6
CONTINUOUS
370
-3
390
F
  0
ENDTAB
  0
TABLE
  2
STYLE
  5
3
100
AcDbSymbolTable
 70
1
  0
STYLE
  5
11
100
AcDbSymbolTableRecord
100
AcDbTextStyleTableRecord
  2
STANDARD
 70
0
 40
0.0
 41
0.8
 50
0.0
 71
0
 42
0.2
  3
txt
  4

  0
STYLE
  5
21A
100
AcDbSymbolTableRecord
100
AcDbTextStyleTableRecord
  2
TEXTSTYLE_1
 70
0
 40
0.0
 41
0.8
 50
0.0
 71
0
 42
0.2
  3
gdt
  4

  0
ENDTAB
  0
TABLE
  2
VIEW
  5
6
100
AcDbSymbolTable
 70
0
  0
ENDTAB
  0
TABLE
  2
UCS
  5
7
100
AcDbSymbolTable
 70
0
  0
ENDTAB
  0
TABLE
  2
APPID
  5
9
100
AcDbSymbolTable
 70
1
  0
APPID
  5
21B
100
AcDbSymbolTableRecord
100
AcDbRegAppTableRecord
  2
ACAD
 70
0
  0
ENDTAB
  0
TABLE
  2
BLOCK_RECORD
  5
1
100
AcDbSymbolTable
 70
0
  0
BLOCK_RECORD
  5
21C
100
AcDbSymbolTableRecord
100
AcDbBlockTableRecord
  2
*Model_Space
  0
BLOCK_RECORD
  5
21D
100
AcDbSymbolTableRecord
100
AcDbBlockTableRecord
  2
*Paper_Space
  0
ENDTAB
  0
TABLE
  2
DIMSTYLE
  5
A
100
AcDbSymbolTable
 70
1
100
AcDbDimStyleTable
 71
0
  0
DIMSTYLE
105
21E
100
AcDbSymbolTableRecord
100
AcDbDimStyleTableRecord
  2
STANDARD
 70
0
  3

  4

 40
1.0
 41
0.1875
 42
0.0625
 43
0.38
 44
0.125
 45
0.0
 46
0.0
 47
0.0001
 48
0.0001
140
0.15625
141
0.09
142
0.0
143
25.4
144
1.0
145
0.0
146
1.0
147
0.09
 71
0.0
 72
0.0
 73
1
 74
1
 75
0
 76
0
 77
0
 78
4
170
0
171
2
172
0
173
0
174
0
175
0
176
0
177
0
178
0
270
2
271
4
272
4
273
2
274
2
275
0
280
0
281
0
282
0
283
1
284
4
285
0
286
0
287
3
288
0
340
11
278
46
  0
ENDTAB
  0
ENDSEC
  0
SECTION
  2
BLOCKS
  0
BLOCK
  5
20
100
AcDbEntity
  8
0
100
AcDbBlockBegin
  2
*Model_Space
 70
0
 10
0.0
 20
0.0
 30
0.0
  3
*Model_Space
  1

  0
ENDBLK
  5
21
100
AcDbEntity
  8
0
100
AcDbBlockEnd
  0
BLOCK
  5
1C
100
AcDbEntity
  8
0
100
AcDbBlockBegin
  2
*Paper_Space
 70
0
 10
0.0
 20
0.0
 30
0.0
  3
*Paper_Space
  1

  0
ENDBLK
  5
1D
100
AcDbEntity
  8
0
100
AcDbBlockEnd
  0
ENDSEC
  0
SECTION
  2
ENTITIES
  0
MTEXT
  5
21F
100
AcDbEntity
  8
0
100
AcDbMText
 62
7
  6
CONTINUOUS
  7
STANDARD
 71
1
 72
1
 10
15.9560215477
 20
0.9479130325
 30
0.0
 11
1.0
 21
0.0
 31
0.0
 44
0.9
  1
SCALE: 1:1.000
 40
0.3
 41
3.36
  0
LINE
  5
220
100
AcDbEntity
  8
0
100
AcDbLine
 62
7
  6
CONTINUOUS
 10
0.0
 20
0.0
 11
0.0
 21
17.0
  0
LINE
  5
221
100
AcDbEntity
  8
0
100
AcDbLine
 62
7
  6
CONTINUOUS
 10
0.0
 20
0.0
 11
22.0
 21
0.0
  0
LINE
  5
222
100
AcDbEntity
  8
0
100
AcDbLine
 62
7
  6
CONTINUOUS
 10
0.0
 20
17.0
 11
22.0
 21
17.0
  0
LINE
  5
223
100
AcDbEntity
  8
0
100
AcDbLine
 62
7
  6
CONTINUOUS
 10
22.0
 20
0.0
 11
22.0
 21
17.0
  0
LINE
  5
224
100
AcDbEntity
  8
0
100
AcDbLine
 62
7
  6
CONTINUOUS
 10
4.7883672762
 20
5.8151198968
 11
4.7883672762
 21
5.7401198968
  0
LINE
  5
225
100
AcDbEntity
  8
0
100
AcDbLine
 62
7
  6
CONTINUOUS
 10
4.7883672762
 20
5.7401198968
 11
4.9001649817
 21
5.2304185295
  0
LINE
  5
226
100
AcDbEntity
  8
0
100
AcDbLine
 62
7
  6
CONTINUOUS
 10
5.2965695706
 20
5.2304185295
 11
5.4083672762
 21
5.7401198968
  0
LINE
  5
227
100
AcDbEntity
  8
0
100
AcDbLine
 62
7
  6
CONTINUOUS
 10
5.4083672762
 20
5.7401198968
 11
5.4083672762
 21
5.7851198968
  0
LINE
  5
228
100
AcDbEntity
  8
LAYER_FEATURE
100
AcDbLine
 62
7
  6
CONTINUOUS
 10
5.4763672762
 20
5.7851198968
 11
5.4763672762
 21
5.7401198968
  0
LINE
  5
229
100
AcDbEntity
  8
LAYER_FEATURE
100
AcDbLine
 62
7
  6
CONTINUOUS
 10
5.4763672762
 20
5.7401198968
 11
5.5881649817
 21
5.2304185295
  0
LINE
  5
22A
100
AcDbEntity
  8
0
100
AcDbLine
 62
7
  6
CONTINUOUS
 10
4.9253984555
 20
5.2101198968
 11
5.2713360968
 21
5.2101198968
  0
LINE
  5
22B
100
AcDbEntity
  8
LAYER_FEATURE
100
AcDbLine
 62
7
  6
CONTINUOUS
 10
5.6133984555
 20
5.2101198968
 11
5.9593360968
 21
5.2101198968
  0
LINE
  5
22C
100
AcDbEntity
  8
LAYER_FEATURE
100
AcDbLine
 62
7
  6
CONTINUOUS
 10
6.3013984555
 20
5.2101198968
 11
6.6473360968
 21
5.2101198968
  0
LINE
  5
22D
100
AcDbEntity
  8
LAYER_FEATURE
100
AcDbLine
 62
7
  6
CONTINUOUS
 10
6.9893984555
 20
5.2101198968
 11
7.3353360968
 21
5.2101198968
  0
LINE
  5
22E
100
AcDbEntity
  8
LAYER_FEATURE
100
AcDbLine
 62
7
  6
CONTINUOUS
 10
5.9845695706
 20
5.2304185295
 11
6.0963672762
 21
5.7401198968
  0
LINE
  5
22F
100
AcDbEntity
  8
LAYER_FEATURE
100
AcDbLine
 62
7
  6
CONTINUOUS
 10
6.0963672762
 20
5.7401198968
 11
6.0963672762
 21
5.7851198968
  0
LINE
  5
230
100
AcDbEntity
  8
LAYER_FEATURE
100
AcDbLine
 62
7
  6
CONTINUOUS
 10
6.1643672762
 20
5.7851198968
 11
6.1643672762
 21
5.7401198968
  0
LINE
  5
231
100
AcDbEntity
  8
LAYER_FEATURE
100
AcDbLine
 62
7
  6
CONTINUOUS
 10
6.1643672762
 20
5.7401198968
 11
6.2761649817
 21
5.2304185295
  0
LINE
  5
232
100
AcDbEntity
  8
LAYER_FEATURE
100
AcDbLine
 62
7
  6
CONTINUOUS
 10
5.4083672762
 20
5.7851198968
 11
5.4763672762
 21
5.7851198968
  0
LINE
  5
233
100
AcDbEntity
  8
LAYER_FEATURE
100
AcDbLine
 62
7
  6
CONTINUOUS
 10
6.0963672762
 20
5.7851198968
 11
6.1643672762
 21
5.7851198968
  0
LINE
  5
234
100
AcDbEntity
  8
LAYER_FEATURE
100
AcDbLine
 62
7
  6
CONTINUOUS
 10
6.7843672762
 20
5.7851198968
 11
6.8523672762
 21
5.7851198968
  0
LINE
  5
235
100
AcDbEntity
  8
0
100
AcDbLine
 62
7
  6
CONTINUOUS
 10
7.4573672762
 20
5.8301198968
 11
4.8033672762
 21
5.8301198968
  0
LINE
  5
236
100
AcDbEntity
  8
LAYER_FEATURE
100
AcDbLine
 62
7
  6
CONTINUOUS
 10
6.7843672762
 20
5.7401198968
 11
6.7843672762
 21
5.7851198968
  0
LINE
  5
237
100
AcDbEntity
  8
LAYER_FEATURE
100
AcDbLine
 62
7
  6
CONTINUOUS
 10
6.6725695706
 20
5.2304185295
 11
6.7843672762
 21
5.7401198968
  0
LINE
  5
238
100
AcDbEntity
  8
LAYER_FEATURE
100
AcDbLine
 62
7
  6
CONTINUOUS
 10
6.8523672762
 20
5.7851198968
 11
6.8523672762
 21
5.7401198968
  0
LINE
  5
239
100
AcDbEntity
  8
LAYER_FEATURE
100
AcDbLine
 62
7
  6
CONTINUOUS
 10
6.8523672762
 20
5.7401198968
 11
6.9641649817
 21
5.2304185295
  0
LINE
  5
23A
100
AcDbEntity
  8
0
100
AcDbLine
 62
7
  6
CONTINUOUS
 10
7.4723672762
 20
5.7401198968
 11
7.4723672762
 21
5.8151198968
  0
LINE
  5
23B
100
AcDbEntity
  8
LAYER_FEATURE
100
AcDbLine
 62
7
  6
CONTINUOUS
 10
7.3605695706
 20
5.2304185295
 11
7.4723672762
 21
5.7401198968
  0
LINE
  5
23C
100
AcDbEntity
  8
0
100
AcDbLine
 62
7
  6
CONTINUOUS
 10
7.4128720839
 20
10.6000477814
 11
4.7288720839
 21
10.6000477814
  0
LINE
  5
23D
100
AcDbEntity
  8
0
100
AcDbLine
 62
7
  6
CONTINUOUS
 10
4.7288720839
 20
14.6000477814
 11
4.7288720839
 21
10.6000477814
  0
LINE
  5
23E
100
AcDbEntity
  8
0
100
AcDbLine
 62
7
  6
CONTINUOUS
 10
7.4128720839
 20
10.6000477814
 11
7.4128720839
 21
14.6000477814
  0
LINE
  5
23F
100
AcDbEntity
  8
0
100
AcDbLine
 62
7
  6
CONTINUOUS
 10
4.7288720839
 20
14.6000477814
 11
7.4128720839
 21
14.6000477814
  0
LINE
  5
240
100
AcDbEntity
  8
LAYER_FEATURE
100
AcDbLine
 62
7
  6
CONTINUOUS
 10
13.5603552569
 20
5.1506247044
 11
13.5603552569
 21
5.6806247044
  0
LINE
  5
241
100
AcDbEntity
  8
0
100
AcDbLine
 62
7
  6
CONTINUOUS
 10
13.5603552569
 20
5.6806247044
 11
13.5603552569
 21
5.7706247044
  0
LINE
  5
242
100
AcDbEntity
  8
LAYER_FEATURE
100
AcDbLine
 62
7
  6
CONTINUOUS
 10
13.5603552569
 20
5.1506247044
 11
17.5603552569
 21
5.1506247044
  0
LINE
  5
243
100
AcDbEntity
  8
LAYER_FEATURE
100
AcDbLine
 62
7
  6
CONTINUOUS
 10
17.5603552569
 20
5.6806247044
 11
13.5603552569
 21
5.6806247044
  0
LINE
  5
244
100
AcDbEntity
  8
0
100
AcDbLine
 62
7
  6
CONTINUOUS
 10
13.5603552569
 20
5.7706247044
 11
17.5603552569
 21
5.7706247044
  0
LINE
  5
245
100
AcDbEntity
  8
0
100
AcDbLine
 62
7
  6
CONTINUOUS
 10
17.5603552569
 20
5.7706247044
 11
17.5603552569
 21
5.6806247044
  0
LINE
  5
246
100
AcDbEntity
  8
LAYER_FEATURE
100
AcDbLine
 62
7
  6
CONTINUOUS
 10
17.5603552569
 20
5.1506247044
 11
17.5603552569
 21
5.6806247044
  0
LINE
  5
247
100
AcDbEntity
  8
0
100
AcDbLine
 62
7
  6
CONTINUOUS
 10
13.7364509593
 20
11.0809053667
 11
13.9949037216
 21
10.7640699159
  0
LINE
  5
248
100
AcDbEntity
  8
0
100
AcDbLine
 62
7
  6
CONTINUOUS
 10
13.7135728193
 20
11.1275261143
 11
13.7364509593
 21
11.0809053667
  0
LINE
  5
249
100
AcDbEntity
  8
0
100
AcDbLine
 62
7
  6
CONTINUOUS
 10
14.0243372229
 20
10.7514520835
 11
14.3429668906
 21
10.7514520835
  0
LINE
  5
24A
100
AcDbEntity
  8
LAYER_FEATURE
100
AcDbLine
 62
7
  6
CONTINUOUS
 10
14.6580271868
 20
10.7514520835
 11
14.9766568545
 21
10.7514520835
  0
LINE
  5
24B
100
AcDbEntity
  8
LAYER_FEATURE
100
AcDbLine
 62
7
  6
CONTINUOUS
 10
15.2917171506
 20
10.7514520835
 11
15.6103468184
 21
10.7514520835
  0
LINE
  5
24C
100
AcDbEntity
  8
LAYER_FEATURE
100
AcDbLine
 62
7
  6
CONTINUOUS
 10
15.9254071145
 20
10.7514520835
 11
16.2440367822
 21
10.7514520835
  0
LINE
  5
24D
100
AcDbEntity
  8
LAYER_FEATURE
100
AcDbLine
 62
7
  6
CONTINUOUS
 10
14.3701409232
 20
11.0809053667
 11
14.6285936855
 21
10.7640699159
  0
LINE
  5
24E
100
AcDbEntity
  8
0
100
AcDbLine
 62
7
  6
CONTINUOUS
 10
14.3075087756
 20
11.0809053667
 11
14.2937818916
 21
11.1088778152
  0
LINE
  5
24F
100
AcDbEntity
  8
LAYER_FEATURE
100
AcDbLine
 62
7
  6
CONTINUOUS
 10
14.3564140392
 20
11.1088778152
 11
14.3701409232
 21
11.0809053667
  0
LINE
  5
250
100
AcDbEntity
  8
LAYER_FEATURE
100
AcDbLine
 62
7
  6
CONTINUOUS
 10
14.2937818916
 20
11.1088778152
 11
14.3564140392
 21
11.1088778152
  0
LINE
  5
251
100
AcDbEntity
  8
LAYER_FEATURE
100
AcDbLine
 62
7
  6
CONTINUOUS
 10
14.9274718554
 20
11.1088778152
 11
14.990104003
 21
11.1088778152
  0
LINE
  5
252
100
AcDbEntity
  8
LAYER_FEATURE
100
AcDbLine
 62
7
  6
CONTINUOUS
 10
15.5611618193
 20
11.1088778152
 11
15.6237939669
 21
11.1088778152
  0
LINE
  5
253
100
AcDbEntity
  8
0
100
AcDbLine
 62
7
  6
CONTINUOUS
 10
16.1673089843
 20
11.1368502638
 11
13.7228131062
 21
11.1368502638
  0
LINE
  5
254
100
AcDbEntity
  8
0
100
AcDbLine
 62
7
  6
CONTINUOUS
 10
14.3600165263
 20
10.7640699159
 11
14.3075087756
 21
11.0809053667
  0
LINE
  5
255
100
AcDbEntity
  8
0
100
AcDbLine
 62
7
  6
CONTINUOUS
 10
14.6813227152
 20
14.2652624634
 11
13.7130574215
 21
11.1319548249
  0
LINE
  5
256
100
AcDbEntity
  8
LAYER_FEATURE
100
AcDbLine
 62
7
  6
CONTINUOUS
 10
15.003830887
 20
11.0809053667
 11
15.2622836494
 21
10.7640699159
  0
LINE
  5
257
100
AcDbEntity
  8
0
100
AcDbLine
 62
7
  6
CONTINUOUS
 10
14.3597665234
 20
10.7598836787
 11
14.3600165263
 21
10.7640699159
  0
LINE
  5
258
100
AcDbEntity
  8
LAYER_FEATURE
100
AcDbLine
 62
7
  6
CONTINUOUS
 10
14.9411987394
 20
11.0809053667
 11
14.9274718554
 21
11.1088778152
  0
LINE
  5
259
100
AcDbEntity
  8
LAYER_FEATURE
100
AcDbLine
 62
7
  6
CONTINUOUS
 10
14.990104003
 20
11.1088778152
 11
15.003830887
 21
11.0809053667
  0
LINE
  5
25A
100
AcDbEntity
  8
0
100
AcDbLine
 62
7
  6
CONTINUOUS
 10
14.316152916
 20
11.1088778152
 11
14.3075087756
 21
11.0809053667
  0
LINE
  5
25B
100
AcDbEntity
  8
LAYER_FEATURE
100
AcDbLine
 62
7
  6
CONTINUOUS
 10
15.6375208509
 20
11.0809053667
 11
15.8959736132
 21
10.7640699159
  0
LINE
  5
25C
100
AcDbEntity
  8
LAYER_FEATURE
100
AcDbLine
 62
7
  6
CONTINUOUS
 10
14.9937064901
 20
10.7640699159
 11
14.9411987394
 21
11.0809053667
  0
LINE
  5
25D
100
AcDbEntity
  8
0
100
AcDbLine
 62
7
  6
CONTINUOUS
 10
14.3609710167
 20
10.7637749561
 11
14.4345657091
 21
11.0019274679
  0
LINE
  5
25E
100
AcDbEntity
  8
LAYER_FEATURE
100
AcDbLine
 62
7
  6
CONTINUOUS
 10
15.5748887033
 20
11.0809053667
 11
15.5611618193
 21
11.1088778152
  0
LINE
  5
25F
100
AcDbEntity
  8
LAYER_FEATURE
100
AcDbLine
 62
7
  6
CONTINUOUS
 10
15.6237939669
 20
11.1088778152
 11
15.6375208509
 21
11.0809053667
  0
LINE
  5
260
100
AcDbEntity
  8
LAYER_FEATURE
100
AcDbLine
 62
7
  6
CONTINUOUS
 10
14.9934564873
 20
10.7598836787
 11
14.9937064901
 21
10.7640699159
  0
LINE
  5
261
100
AcDbEntity
  8
LAYER_FEATURE
100
AcDbLine
 62
7
  6
CONTINUOUS
 10
14.9498428798
 20
11.1088778152
 11
14.9411987394
 21
11.0809053667
  0
LINE
  5
262
100
AcDbEntity
  8
LAYER_FEATURE
100
AcDbLine
 62
7
  6
CONTINUOUS
 10
15.627396454
 20
10.7640699159
 11
15.5748887033
 21
11.0809053667
  0
LINE
  5
263
100
AcDbEntity
  8
LAYER_FEATURE
100
AcDbLine
 62
7
  6
CONTINUOUS
 10
14.9946609806
 20
10.7637749561
 11
15.068255673
 21
11.0019274679
  0
LINE
  5
264
100
AcDbEntity
  8
0
100
AcDbLine
 62
7
  6
CONTINUOUS
 10
16.2085786672
 20
11.0809053667
 11
16.1857005272
 21
11.1275261143
  0
LINE
  5
265
100
AcDbEntity
  8
LAYER_FEATURE
100
AcDbLine
 62
7
  6
CONTINUOUS
 10
15.6271464512
 20
10.7598836787
 11
15.627396454
 21
10.7640699159
  0
LINE
  5
266
100
AcDbEntity
  8
LAYER_FEATURE
100
AcDbLine
 62
7
  6
CONTINUOUS
 10
16.2610864179
 20
10.7640699159
 11
16.2085786672
 21
11.0809053667
  0
LINE
  5
267
100
AcDbEntity
  8
LAYER_FEATURE
100
AcDbLine
 62
7
  6
CONTINUOUS
 10
15.5835328437
 20
11.1088778152
 11
15.5748887033
 21
11.0809053667
  0
LINE
  5
268
100
AcDbEntity
  8
LAYER_FEATURE
100
AcDbLine
 62
7
  6
CONTINUOUS
 10
15.6283509444
 20
10.7637749561
 11
15.7019456368
 21
11.0019274679
  0
LINE
  5
269
100
AcDbEntity
  8
LAYER_FEATURE
100
AcDbLine
 62
7
  6
CONTINUOUS
 10
16.260836415
 20
10.7598836787
 11
16.2610864179
 21
10.7640699159
  0
LINE
  5
26A
100
AcDbEntity
  8
LAYER_FEATURE
100
AcDbLine
 62
7
  6
CONTINUOUS
 10
17.1768439608
 20
14.2142130052
 11
16.2085786672
 21
11.0809053667
  0
LINE
  5
26B
100
AcDbEntity
  8
LAYER_FEATURE
100
AcDbLine
 62
7
  6
CONTINUOUS
 10
16.2620409083
 20
10.7637749561
 11
17.2291035328
 21
13.8931907557
  0
LINE
  5
26C
100
AcDbEntity
  8
LAYER_FEATURE
100
AcDbLine
 62
7
  6
CONTINUOUS
 10
17.2293517115
 20
13.8973775544
 11
17.2291017087
 21
13.8931913172
  0
LINE
  5
26D
100
AcDbEntity
  8
0
100
AcDbLine
 62
7
  6
CONTINUOUS
 10
14.6910783998
 20
14.2701579023
 11
17.1355742779
 21
14.2701579023
  0
LINE
  5
26E
100
AcDbEntity
  8
LAYER_FEATURE
100
AcDbLine
 62
7
  6
CONTINUOUS
 10
17.2293517115
 20
13.8973775544
 11
17.1768439608
 21
14.2142130052
  0
LINE
  5
26F
100
AcDbEntity
  8
0
100
AcDbLine
 62
7
  6
CONTINUOUS
 10
17.1539658208
 20
14.2608337528
 11
17.1768439608
 21
14.2142130052
  0
ARC
  5
270
100
AcDbEntity
  8
0
100
AcDbCircle
 62
7
  6
CONTINUOUS
 10
4.9253984555
 20
5.2359532301
 40
0.0258333333
100
AcDbArc
 50
192.3713234544
 51
270.0
  0
ARC
  5
271
100
AcDbEntity
  8
0
100
AcDbCircle
 62
7
  6
CONTINUOUS
 10
5.2713360968
 20
5.2359532301
 40
0.0258333333
100
AcDbArc
 50
270.0
 51
347.6286765456
  0
ARC
  5
272
100
AcDbEntity
  8
LAYER_FEATURE
100
AcDbCircle
 62
7
  6
CONTINUOUS
 10
5.6133984555
 20
5.2359532301
 40
0.0258333333
100
AcDbArc
 50
192.3713234544
 51
270.0
  0
ARC
  5
273
100
AcDbEntity
  8
LAYER_FEATURE
100
AcDbCircle
 62
7
  6
CONTINUOUS
 10
5.9593360968
 20
5.2359532301
 40
0.0258333333
100
AcDbArc
 50
270.0
 51
347.6286765456
  0
ARC
  5
274
100
AcDbEntity
  8
LAYER_FEATURE
100
AcDbCircle
 62
7
  6
CONTINUOUS
 10
6.3013984555
 20
5.2359532301
 40
0.0258333333
100
AcDbArc
 50
192.3713234544
 51
270.0
  0
ARC
  5
275
100
AcDbEntity
  8
LAYER_FEATURE
100
AcDbCircle
 62
7
  6
CONTINUOUS
 10
6.6473360968
 20
5.2359532301
 40
0.0258333333
100
AcDbArc
 50
270.0
 51
347.6286765456
  0
ARC
  5
276
100
AcDbEntity
  8
LAYER_FEATURE
100
AcDbCircle
 62
7
  6
CONTINUOUS
 10
7.3353360968
 20
5.2359532301
 40
0.0258333333
100
AcDbArc
 50
270.0
 51
347.6286765456
  0
ARC
  5
277
100
AcDbEntity
  8
LAYER_FEATURE
100
AcDbCircle
 62
7
  6
CONTINUOUS
 10
6.9893984555
 20
5.2359532301
 40
0.0258333333
100
AcDbArc
 50
192.3713234544
 51
270.0
  0
ARC
  5
278
100
AcDbEntity
  8
0
100
AcDbCircle
 62
7
  6
CONTINUOUS
 10
4.8033672762
 20
5.8151198968
 40
0.015
100
AcDbArc
 50
90.0
 51
180.0
  0
ARC
  5
279
100
AcDbEntity
  8
0
100
AcDbCircle
 62
7
  6
CONTINUOUS
 10
7.4573672762
 20
5.8151198968
 40
0.015
100
AcDbArc
 50
0.0
 51
90.0
  0
SPLINE
  5
27A
100
AcDbEntity
  8
0
100
AcDbSpline
 62
7
  6
CONTINUOUS
 70
0
 71
3
 72
15
 73
11
 74
0
 42
0.0000001
 43
0.0000001
 44
0.0000000001
 40
0.0
 40
0.0
 40
0.0
 40
0.0
 40
0.1294195732
 40
0.2645262324
 40
0.4013056902
 40
0.536266816
 40
0.6661525815
 40
0.7881315895
 40
0.8999157529
 40
1.0
 40
1.0
 40
1.0
 40
1.0
 10
17.1355742779
 20
14.2701579023
 30
0.0
 10
17.1365021527
 20
14.2701579023
 30
0.0
 10
17.1384000133
 20
14.2700276615
 30
0.0
 10
17.1412341369
 20
14.2694992278
 30
0.0
 10
17.1440284942
 20
14.2686412373
 30
0.0
 10
17.1466762428
 20
14.2674937576
 30
0.0
 10
17.1490789179
 20
14.2660950473
 30
0.0
 10
17.1511517466
 20
14.2644989662
 30
0.0
 10
17.1528097584
 20
14.2627593996
 30
0.0
 10
17.1536497072
 20
14.2614779246
 30
0.0
 10
17.1539658208
 20
14.2608337528
 30
0.0
  0
SPLINE
  5
27B
100
AcDbEntity
  8
0
100
AcDbSpline
 62
7
  6
CONTINUOUS
 70
0
 71
3
 72
10
 73
6
 74
0
 42
0.0000001
 43
0.0000001
 44
0.0000000001
 40
0.0
 40
0.0
 40
0.0
 40
0.0
 40
0.234369747
 40
0.4761717193
 40
1.0
 40
1.0
 40
1.0
 40
1.0
 10
13.7130574733
 20
11.1319547917
 30
0.0
 10
13.712952258
 20
11.1316150327
 30
0.0
 10
13.7128143627
 20
11.1308985448
 30
0.0
 10
13.7128512643
 20
11.1293728546
 30
0.0
 10
13.7132226067
 20
11.1282397725
 30
0.0
 10
13.7135728193
 20
11.1275261143
 30
0.0
  0
SPLINE
  5
27C
100
AcDbEntity
  8
0
100
AcDbSpline
 62
7
  6
CONTINUOUS
 70
0
 71
3
 72
13
 73
9
 74
0
 42
0.0000001
 43
0.0000001
 44
0.0000000001
 40
0.0
 40
0.0
 40
0.0
 40
0.0
 40
0.0997896841
 40
0.2030550643
 40
0.3128361299
 40
0.4312285201
 40
0.6971745568
 40
1.0
 40
1.0
 40
1.0
 40
1.0
 10
14.6813227669
 20
14.2652624302
 30
0.0
 10
14.681437114
 20
14.2656316773
 30
0.0
 10
14.6817609025
 20
14.2663577556
 30
0.0
 10
14.6824975875
 20
14.2673314753
 30
0.0
 10
14.6834725296
 20
14.2681792216
 30
0.0
 10
14.6851231825
 20
14.2691645214
 30
0.0
 10
14.6876959566
 20
14.2699703891
 30
0.0
 10
14.6899053697
 20
14.2701579023
 30
0.0
 10
14.6910783998
 20
14.2701579023
 30
0.0
  0
SPLINE
  5
27D
100
AcDbEntity
  8
LAYER_FEATURE
100
AcDbSpline
 62
7
  6
CONTINUOUS
 70
0
 71
3
 72
14
 73
10
 74
0
 42
0.0000001
 43
0.0000001
 44
0.0000000001
 40
0.0
 40
0.0
 40
0.0
 40
0.0
 40
0.1556029161
 40
0.3032481855
 40
0.5688537554
 40
0.6871680793
 40
0.7968949069
 40
0.9001755303
 40
1.0
 40
1.0
 40
1.0
 40
1.0
 10
16.2440367822
 20
10.7514520835
 30
0.0
 10
16.2450752595
 20
10.7514520835
 30
0.0
 10
16.2471014943
 20
10.7515429467
 30
0.0
 10
16.250860781
 20
10.7520851812
 30
0.0
 10
16.2542925169
 20
10.7531640865
 30
0.0
 10
16.2571346525
 20
10.7548575027
 30
0.0
 10
16.2588124928
 20
10.7563190625
 30
0.0
 10
16.2600843202
 20
10.7579945554
 30
0.0
 10
16.2606414272
 20
10.7592466323
 30
0.0
 10
16.260837383
 20
10.7598833799
 30
0.0
  0
SPLINE
  5
27E
100
AcDbEntity
  8
LAYER_FEATURE
100
AcDbSpline
 62
7
  6
CONTINUOUS
 70
0
 71
3
 72
15
 73
11
 74
0
 42
0.0000001
 43
0.0000001
 44
0.0000000001
 40
0.0
 40
0.0
 40
0.0
 40
0.0
 40
0.1084942748
 40
0.2259434382
 40
0.3504315863
 40
0.4798878651
 40
0.6120611904
 40
0.7445433681
 40
0.8748136211
 40
1.0
 40
1.0
 40
1.0
 40
1.0
 10
15.8959736132
 20
10.7640699159
 30
0.0
 10
15.8967266444
 20
10.7631467803
 30
0.0
 10
15.898454984
 20
10.7613525608
 30
0.0
 10
15.9014682177
 20
10.7589455221
 30
0.0
 10
15.9049355958
 20
10.7567828972
 30
0.0
 10
15.908752518
 20
10.7549209922
 30
0.0
 10
15.9128163433
 20
10.7534139377
 30
0.0
 10
15.9170144259
 20
10.7522997984
 30
0.0
 10
15.921225848
 20
10.7516174416
 30
0.0
 10
15.9240325109
 20
10.7514520835
 30
0.0
 10
15.9254071145
 20
10.7514520835
 30
0.0
  0
SPLINE
  5
27F
100
AcDbEntity
  8
LAYER_FEATURE
100
AcDbSpline
 62
7
  6
CONTINUOUS
 70
0
 71
3
 72
14
 73
10
 74
0
 42
0.0000001
 43
0.0000001
 44
0.0000000001
 40
0.0
 40
0.0
 40
0.0
 40
0.0
 40
0.1556029161
 40
0.3032481855
 40
0.5688537554
 40
0.6871680793
 40
0.7968949069
 40
0.9001755303
 40
1.0
 40
1.0
 40
1.0
 40
1.0
 10
15.6103468184
 20
10.7514520835
 30
0.0
 10
15.6113852956
 20
10.7514520835
 30
0.0
 10
15.6134115304
 20
10.7515429467
 30
0.0
 10
15.6171708171
 20
10.7520851812
 30
0.0
 10
15.620602553
 20
10.7531640865
 30
0.0
 10
15.6234446886
 20
10.7548575027
 30
0.0
 10
15.625122529
 20
10.7563190625
 30
0.0
 10
15.6263943564
 20
10.7579945554
 30
0.0
 10
15.6269514633
 20
10.7592466323
 30
0.0
 10
15.6271474191
 20
10.7598833799
 30
0.0
  0
SPLINE
  5
280
100
AcDbEntity
  8
LAYER_FEATURE
100
AcDbSpline
 62
7
  6
CONTINUOUS
 70
0
 71
3
 72
15
 73
11
 74
0
 42
0.0000001
 43
0.0000001
 44
0.0000000001
 40
0.0
 40
0.0
 40
0.0
 40
0.0
 40
0.1084942748
 40
0.2259434382
 40
0.3504315863
 40
0.4798878651
 40
0.6120611904
 40
0.7445433681
 40
0.8748136211
 40
1.0
 40
1.0
 40
1.0
 40
1.0
 10
15.2622836494
 20
10.7640699159
 30
0.0
 10
15.2630366805
 20
10.7631467803
 30
0.0
 10
15.2647650201
 20
10.7613525608
 30
0.0
 10
15.2677782538
 20
10.7589455221
 30
0.0
 10
15.2712456319
 20
10.7567828972
 30
0.0
 10
15.2750625541
 20
10.7549209922
 30
0.0
 10
15.2791263794
 20
10.7534139377
 30
0.0
 10
15.283324462
 20
10.7522997984
 30
0.0
 10
15.2875358841
 20
10.7516174416
 30
0.0
 10
15.2903425471
 20
10.7514520835
 30
0.0
 10
15.2917171506
 20
10.7514520835
 30
0.0
  0
SPLINE
  5
281
100
AcDbEntity
  8
LAYER_FEATURE
100
AcDbSpline
 62
7
  6
CONTINUOUS
 70
0
 71
3
 72
14
 73
10
 74
0
 42
0.0000001
 43
0.0000001
 44
0.0000000001
 40
0.0
 40
0.0
 40
0.0
 40
0.0
 40
0.1556029161
 40
0.3032481855
 40
0.5688537554
 40
0.6871680793
 40
0.7968949069
 40
0.9001755303
 40
1.0
 40
1.0
 40
1.0
 40
1.0
 10
14.9766568545
 20
10.7514520835
 30
0.0
 10
14.9776953317
 20
10.7514520835
 30
0.0
 10
14.9797215665
 20
10.7515429467
 30
0.0
 10
14.9834808532
 20
10.7520851812
 30
0.0
 10
14.9869125891
 20
10.7531640865
 30
0.0
 10
14.9897547247
 20
10.7548575027
 30
0.0
 10
14.9914325651
 20
10.7563190625
 30
0.0
 10
14.9927043925
 20
10.7579945554
 30
0.0
 10
14.9932614994
 20
10.7592466323
 30
0.0
 10
14.9934574552
 20
10.7598833799
 30
0.0
  0
SPLINE
  5
282
100
AcDbEntity
  8
LAYER_FEATURE
100
AcDbSpline
 62
7
  6
CONTINUOUS
 70
0
 71
3
 72
15
 73
11
 74
0
 42
0.0000001
 43
0.0000001
 44
0.0000000001
 40
0.0
 40
0.0
 40
0.0
 40
0.0
 40
0.1084942748
 40
0.2259434382
 40
0.3504315863
 40
0.4798878651
 40
0.6120611904
 40
0.7445433681
 40
0.8748136211
 40
1.0
 40
1.0
 40
1.0
 40
1.0
 10
14.6285936855
 20
10.7640699159
 30
0.0
 10
14.6293467166
 20
10.7631467803
 30
0.0
 10
14.6310750562
 20
10.7613525608
 30
0.0
 10
14.6340882899
 20
10.7589455221
 30
0.0
 10
14.6375556681
 20
10.7567828972
 30
0.0
 10
14.6413725903
 20
10.7549209922
 30
0.0
 10
14.6454364156
 20
10.7534139377
 30
0.0
 10
14.6496344982
 20
10.7522997984
 30
0.0
 10
14.6538459203
 20
10.7516174416
 30
0.0
 10
14.6566525832
 20
10.7514520835
 30
0.0
 10
14.6580271868
 20
10.7514520835
 30
0.0
  0
SPLINE
  5
283
100
AcDbEntity
  8
0
100
AcDbSpline
 62
7
  6
CONTINUOUS
 70
0
 71
3
 72
14
 73
10
 74
0
 42
0.0000001
 43
0.0000001
 44
0.0000000001
 40
0.0
 40
0.0
 40
0.0
 40
0.0
 40
0.1556029161
 40
0.3032481855
 40
0.5688537554
 40
0.6871680793
 40
0.7968949069
 40
0.9001755303
 40
1.0
 40
1.0
 40
1.0
 40
1.0
 10
14.3429668906
 20
10.7514520835
 30
0.0
 10
14.3440053678
 20
10.7514520835
 30
0.0
 10
14.3460316027
 20
10.7515429467
 30
0.0
 10
14.3497908894
 20
10.7520851812
 30
0.0
 10
14.3532226252
 20
10.7531640865
 30
0.0
 10
14.3560647609
 20
10.7548575027
 30
0.0
 10
14.3577426012
 20
10.7563190625
 30
0.0
 10
14.3590144286
 20
10.7579945554
 30
0.0
 10
14.3595715355
 20
10.7592466323
 30
0.0
 10
14.3597674914
 20
10.7598833799
 30
0.0
  0
SPLINE
  5
284
100
AcDbEntity
  8
0
100
AcDbSpline
 62
7
  6
CONTINUOUS
 70
0
 71
3
 72
15
 73
11
 74
0
 42
0.0000001
 43
0.0000001
 44
0.0000000001
 40
0.0
 40
0.0
 40
0.0
 40
0.0
 40
0.1084942748
 40
0.2259434382
 40
0.3504315863
 40
0.4798878651
 40
0.6120611904
 40
0.7445433681
 40
0.8748136211
 40
1.0
 40
1.0
 40
1.0
 40
1.0
 10
13.9949037216
 20
10.7640699159
 30
0.0
 10
13.9956567527
 20
10.7631467803
 30
0.0
 10
13.9973850923
 20
10.7613525608
 30
0.0
 10
14.000398326
 20
10.7589455221
 30
0.0
 10
14.0038657042
 20
10.7567828972
 30
0.0
 10
14.0076826264
 20
10.7549209922
 30
0.0
 10
14.0117464517
 20
10.7534139377
 30
0.0
 10
14.0159445343
 20
10.7522997984
 30
0.0
 10
14.0201559564
 20
10.7516174416
 30
0.0
 10
14.0229626193
 20
10.7514520835
 30
0.0
 10
14.0243372229
 20
10.7514520835
 30
0.0
  0
SPLINE
  5
285
100
AcDbEntity
  8
0
100
AcDbSpline
 62
7
  6
CONTINUOUS
 70
0
 71
3
 72
13
 73
9
 74
0
 42
0.0000001
 43
0.0000001
 44
0.0000000001
 40
0.0
 40
0.0
 40
0.0
 40
0.0
 40
0.3028254432
 40
0.5687714799
 40
0.6871638701
 40
0.7969449357
 40
0.9002103159
 40
1.0
 40
1.0
 40
1.0
 40
1.0
 10
13.7228131062
 20
11.1368502638
 30
0.0
 10
13.7216400761
 20
11.1368502638
 30
0.0
 10
13.719430663
 20
11.1366627506
 30
0.0
 10
13.7168578889
 20
11.1358568829
 30
0.0
 10
13.715207236
 20
11.1348715831
 30
0.0
 10
13.7142322939
 20
11.1340238367
 30
0.0
 10
13.7134956089
 20
11.1330501171
 30
0.0
 10
13.7131718204
 20
11.1323240388
 30
0.0
 10
13.7130574733
 20
11.1319547917
 30
0.0
  0
SPLINE
  5
286
100
AcDbEntity
  8
0
100
AcDbSpline
 62
7
  6
CONTINUOUS
 70
0
 71
3
 72
15
 73
11
 74
0
 42
0.0000001
 43
0.0000001
 44
0.0000000001
 40
0.0
 40
0.0
 40
0.0
 40
0.0
 40
0.1000842471
 40
0.2118684105
 40
0.3338474185
 40
0.463733184
 40
0.5986943098
 40
0.7354737676
 40
0.8705804268
 40
1.0
 40
1.0
 40
1.0
 40
1.0
 10
16.1857005272
 20
11.1275261143
 30
0.0
 10
16.1853844136
 20
11.1281702861
 30
0.0
 10
16.1845444648
 20
11.1294517611
 30
0.0
 10
16.182886453
 20
11.1311913276
 30
0.0
 10
16.1808136242
 20
11.1327874088
 30
0.0
 10
16.1784109491
 20
11.1341861191
 30
0.0
 10
16.1757632006
 20
11.1353335988
 30
0.0
 10
16.1729688433
 20
11.1361915893
 30
0.0
 10
16.1701347196
 20
11.136720023
 30
0.0
 10
16.1682368591
 20
11.1368502638
 30
0.0
 10
16.1673089843
 20
11.1368502638
 30
0.0
  0
ENDSEC
  0
SECTION
  2
OBJECTS
  0
DICTIONARY
  5
C
100
AcDbDictionary
280
0
281
1
  3
ACAD_GROUP
350
D
  3
ACAD_MLINESTYLE
350
17
  3
ACAD_LAYOUT
350
1A
  3
ACAD_PLOTSETTINGS
350
19
  3
ACAD_PLOTSTYLENAME
350
E
  0
DICTIONARY
  5
D
102
{ACAD_REACTORS
330
C
102
}
100
AcDbDictionary
280
0
281
1
  0
ACDBDICTIONARYWDFLT
  5
E
102
{ACAD_REACTORS
330
C
102
}
100
AcDbDictionary
281
1
  3
Normal
350
F
100
AcDbDictionaryWithDefault
340
F
  0
DICTIONARY
  5
17
102
{ACAD_REACTORS
330
C
102
}
100
AcDbDictionary
280
0
281
1
  3
Standard
350
18
  0
DICTIONARY
  5
19
102
{ACAD_REACTORS
330
C
102
}
100
AcDbDictionary
281
1
  0
DICTIONARY
  5
1A
102
{ACAD_REACTORS
330
C
102
}
100
AcDbDictionary
281
1
  3
Model
350
287
  3
Layout1
350
288
  0
ACDBPLACEHOLDER
  5
F
102
{ACAD_REACTORS
330
E
102
}
  0
MLINESTYLE
  5
18
102
{ACAD_REACTORS
330
17
102
}
100
AcDbMlineStyle
  2
STANDARD
 70
0
  3

 62
256
 51
90.0
 52
90.0
 71
2
 49
0.5
 62
256
  6
BYLAYER
 49
-0.5
 62
256
  6
BYLAYER
  0
LAYOUT
  5
287
102
{ACAD_REACTORS
330
1A
102
}
100
AcDbPlotSettings
  1

  2
none_device
  4
ANSI_C_(22.00_x_17.00_Inches)
  6

 40
0.0
 41
0.0
 42
0.0
 43
0.0
 44
558.8
 45
431.8
 46
0.0
 47
0.0
 48
0.0
 49
0.0
140
0.0
141
0.0
142
1.0
143
1.0
 70
1024
 72
0
 73
0
 74
0
  7

 75
0
147
1.0
148
0.0
149
0.0
100
AcDbLayout
  1
Model
 70
0
 71
0
 10
0.0
 20
0.0
 11
22.0
 21
17.0
 12
0.0
 22
0.0
 32
0.0
 14
0.0
 24
0.0
 34
0.0
 15
0.0
 25
0.0
 35
0.0
146
0.0
 13
0.0
 23
0.0
 33
0.0
 16
1.0
 26
0.0
 36
0.0
 17
0.0
 27
1.0
 37
0.0
 76
0
330
21C
345
0
346
0
  0
LAYOUT
  5
288
102
{ACAD_REACTORS
330
1A
102
}
100
AcDbPlotSettings
  1

  2
none_device
  4
ANSI_C_(22.00_x_17.00_Inches)
  6

 40
0.0
 41
0.0
 42
0.0
 43
0.0
 44
558.8
 45
431.8
 46
0.0
 47
0.0
 48
0.0
 49
0.0
140
0.0
141
0.0
142
1.0
143
1.0
 70
0
 72
0
 73
0
 74
0
  7

 75
0
147
1.0
148
0.0
149
0.0
100
AcDbLayout
  1
Layout1
 70
0
 71
1
 10
0.0
 20
0.0
 11
22.0
 21
17.0
 12
0.0
 22
0.0
 32
0.0
 14
0.0
 24
0.0
 34
0.0
 15
0.0
 25
0.0
 35
0.0
146
0.0
 13
0.0
 23
0.0
 33
0.0
 16
1.0
 26
0.0
 36
0.0
 17
0.0
 27
1.0
 37
0.0
 76
0
330
21D
345
0
346
0
  0
ENDSEC
  0
EOF