999
DXF file: _cgs_temp_output.dxf
999
Pro/ENGINEER 2015110 by Parametric Technology Corporation
  0
SECTION
  2
HEADER
  9
$ACADVER
  1
AC1021
  9
$DWGCODEPAGE
  3
ANSI_1252
  9
$EXTMAX
 10
22.0
 20
17.0
 30
0.0
  9
$EXTMIN
 10
0.0
 20
0.0
 30
0.0
  9
$LIMMIN
 10
0.0
 20
0.0
  9
$LIMMAX
 10
22.0
 20
17.0
  9
$VIEWCTR
 10
11.0
 20
8.5
  9
$VIEWSIZE
 40
17.0
  9
$CLAYER
  8
0
  9
$LTSCALE
 40
1.21
  9
$CELTYPE
  6
BYLAYER
  9
$DIMSCALE
 40
1.0
  9
$DIMASZ
 40
0.1875
  9
$DIMEXO
 40
0.0625
  9
$DIMDLI
 40
0.836
  9
$DIMEXE
 40
0.125
  9
$DIMCEN
 40
0.198
  9
$DIMLFAC
 40
1.0
  9
$DIMBLK
  1
_CLOSED
  9
$DIMALT
 70
0
  9
$DIMALTF
 40
25.4
  9
$DIMTXT
 40
0.15625
  9
$DIMTOL
 70
0
  9
$DIMLIM
 70
0
  9
$DIMTFAC
 40
1.0
  9
$DIMGAP
 40
0.09
  9
$DIMDSEP
 70
46
  9
$AUNITS
 70
0
  9
$PDMODE
 70
3
  9
$PDSIZE
 40
0.3125
  9
$HANDSEED
  5
289
  9
$TILEMODE
 70
1
  9
$MEASUREMENT
 70
0
  9
$INSUNITS
 70
1
  0
ENDSEC
  0
SECTION
  2
CLASSES
  0
CLASS
  1
ACDBDICTIONARYWDFLT
  2
AcDbDictionaryWithDefault
  3
AutoCAD 2000
 90
0
 91
1
280
0
281
0
  0
CLASS
  1
ACDBPLACEHOLDER
  2
AcDbPlaceHolder
  3
AutoCAD 2000
 90
0
 91
1
280
0
281
0
  0
CLASS
  1
LAYOUT
  2
AcDbLayout
  3
AutoCAD 2000
 90
0
 91
0
280
0
281
0
  0
ENDSEC
  0
SECTION
  2
TABLES
  0
TABLE
  2
VPORT
  5
8
100
AcDbSymbolTable
 70
2
  0
VPORT
  5
1F4
100
AcDbSymbolTableRecord
100
AcDbViewportTableRecord
  2
*ACTIVE
 70
0
 10
0.0
 20
0.0
 11
1.0
 21
1.0
 12
11.0
 22
8.5
 13
0.0
 23
0.0
 14
1.0
 24
1.0
 15
0.0
 25
0.0
 16
0.0
 26
0.0
 36
1.0
 17
0.0
 27
0.0
 37
0.0
 40
17.0
 41
1.2941176471
 42
50.0
 43
0.0
 44
0.0
 50
0.0
 51
0.0
 71
0
 72
100
 73
1
 74
1
 75
0
 76
0
 77
0
 78
0
  0
ENDTAB
  0
TABLE
  2
LTYPE
  5
5
100
AcDbSymbolTable
 70
6
  0
LTYPE
  5
14
100
AcDbSymbolTableRecord
100
AcDbLinetypeTableRecord
  2
BYBLOCK
 70
0
  3

 72
65
 73
0
 40
0.0
  0
LTYPE
  5
15
100
AcDbSymbolTableRecord
100
AcDbLinetypeTableRecord
  2
BYLAYER
 70
0
  3

 72
65
 73
0
 40
0.0
  0
LTYPE
  5
16
100
AcDbSymbolTableRecord
100
AcDbLinetypeTableRecord
  2
CONTINUOUS
 70
64
  3
Solid line
 72
65
 73
0
 40
0.0
  0
LTYPE
  5
1F5
100
AcDbSymbolTableRecord
100
AcDbLinetypeTableRecord
  2
CENTER
 70
64
  3
____ _ ____ _ ____ _ ____ _ ____ _ ____ _ ____
 72
65
 73
4
 40
0.6
 49
0.375
 74
0
 49
-0.075
 74
0
 49
0.075
 74
0
 49
-0.075
 74
0
  0
LTYPE
  5
1F6
100
AcDbSymbolTableRecord
100
AcDbLinetypeTableRecord
  2
HIDDEN
 70
64
  3
- - - - - - - - - - - - - - - - - - - -
 72
65
 73
2
 40
0.2
 49
0.1
 74
0
 49
-0.1
 74
0
  0
LTYPE
  5
1F7
100
AcDbSymbolTableRecord
100
AcDbLinetypeTableRecord
  2
PHANTOM
 70
64
  3
_____ _ _ _____ _ _ _____ _ _ _____
 72
65
 73
6
 40
0.8
 49
0.45
 74
0
 49
-0.05
 74
0
 49
0.1
 74
0
 49
-0.05
 74
0
 49
0.1
 74
0
 49
-0.05
 74
0
  0
LTYPE
  5
1F8
100
AcDbSymbolTableRecord
100
AcDbLinetypeTableRecord
  2
DOT
 70
64
  3
. . . . . . . . . . . . . . . . . . . .
 72
65
 73
2
 40
0.2
 49
0.1
 74
0
 49
-0.1
 74
0
  0
LTYPE
  5
1F9
100
AcDbSymbolTableRecord
100
AcDbLinetypeTableRecord
  2
DASHED
 70
64
  3
- - - - - - - - - - - - - - - - - - - -
 72
65
 73
2
 40
0.2
 49
0.1
 74
0
 49
-0.1
 74
0
  0
ENDTAB
  0
TABLE
  2
LAYER
  5
2
100
AcDbSymbolTable
 70
36
  0
LAYER
  5
10
100
AcDbSymbolTableRecord
100
AcDbLayerTableRecord
  2
0
 70
0
 62
7
  6
CONTINUOUS
370
-3
390
F
  0
LAYER
  5
1FA
100
AcDbSymbolTableRecord
100
AcDbLayerTableRecord
  2
DEFAULT_1
 70
0
 62
7
  6
CENTER
370
-3
390
F
  0
LAYER
  5
1FB
100
AcDbSymbolTableRecord
100
AcDbLayerTableRecord
  2
DEFAULT_2
 70
0
 62
8
  6
HIDDEN
370
-3
390
F
  0
LAYER
  5
1FC
100
AcDbSymbolTableRecord
100
AcDbLayerTableRecord
  2
DEFAULT_3
 70
0
 62
7
  6
PHANTOM
370
-3
390
F
  0
LAYER
  5
1FD
100
AcDbSymbolTableRecord
100
AcDbLayerTableRecord
  2
01_ALL_DTM_PLN
 70
0
 62
7
  6
CONTINUOUS
370
-3
390
F
  0
LAYER
  5
1FE
100
AcDbSymbolTableRecord
100
AcDbLayerTableRecord
  2
01__ASM_ALL_DTM_PLN
 70
0
 62
7
  6
CONTINUOUS
370
-3
390
F
  0
LAYER
  5
1FF
100
AcDbSymbolTableRecord
100
AcDbLayerTableRecord
  2
01__ASM_DEF_DTM_PLN
 70
0
 62
7
  6
CONTINUOUS
370
-3
390
F
  0
LAYER
  5
200
100
AcDbSymbolTableRecord
100
AcDbLayerTableRecord
  2
01___PRT_ALL_DTM_PLN
 70
0
 62
7
  6
CONTINUOUS
370
-3
390
F
  0
LAYER
  5
201
100
AcDbSymbolTableRecord
100
AcDbLayerTableRecord
  2
01___PRT_DEF_DTM_PLN
 70
0
 62
7
  6
CONTINUOUS
370
-3
390
F
  0
LAYER
  5
202
100
AcDbSymbolTableRecord
100
AcDbLayerTableRecord
  2
02_ALL_AXES
 70
0
 62
7
  6
CONTINUOUS
370
-3
390
F
  0
LAYER
  5
203
100
AcDbSymbolTableRecord
100
AcDbLayerTableRecord
  2
02__ASM_ALL_AXES
 70
0
 62
7
  6
CONTINUOUS
370
-3
390
F
  0
LAYER
  5
204
100
AcDbSymbolTableRecord
100
AcDbLayerTableRecord
  2
02___PRT_ALL_AXES
 70
0
 62
7
  6
CONTINUOUS
370
-3
390
F
  0
LAYER
  5
205
100
AcDbSymbolTableRecord
100
AcDbLayerTableRecord
  2
03_ALL_CURVES
 70
0
 62
7
  6
CONTINUOUS
370
-3
390
F
  0
LAYER
  5
206
100
AcDbSymbolTableRecord
100
AcDbLayerTableRecord
  2
03__ASM_ALL_CURVES
 70
0
 62
7
  6
CONTINUOUS
370
-3
390
F
  0
LAYER
  5
207
100
AcDbSymbolTableRecord
100
AcDbLayerTableRecord
  2
03___PRT_ALL_CURVES
 70
0
 62
7
  6
CONTINUOUS
370
-3
390
F
  0
LAYER
  5
208
100
AcDbSymbolTableRecord
100
AcDbLayerTableRecord
  2
04_ALL_DTM_PNT
 70
0
 62
7
  6
CONTINUOUS
370
-3
390
F
  0
LAYER
  5
209
100
AcDbSymbolTableRecord
100
AcDbLayerTableRecord
  2
04__ASM_ALL_DTM_PNT
 70
0
 62
7
  6
CONTINUOUS
370
-3
390
F
  0
LAYER
  5
20A
100
AcDbSymbolTableRecord
100
AcDbLayerTableRecord
  2
04___PRT_ALL_DTM_PNT
 70
0
 62
7
  6
CONTINUOUS
370
-3
390
F
  0
LAYER
  5
20B
100
AcDbSymbolTableRecord
100
AcDbLayerTableRecord
  2
05_ALL_DTM_CSYS
 70
0
 62
7
  6
CONTINUOUS
370
-3
390
F
  0
LAYER
  5
20C
100
AcDbSymbolTableRecord
100
AcDbLayerTableRecord
  2
05__ASM_ALL_DTM_CSYS
 70
0
 62
7
  6
CONTINUOUS
370
-3
390
F
  0
LAYER
  5
20D
100
AcDbSymbolTableRecord
100
AcDbLayerTableRecord
  2
05__ASM_DEF_DTM_CSYS
 70
0
 62
7
  6
CONTINUOUS
370
-3
390
F
  0
LAYER
  5
20E
100
AcDbSymbolTableRecord
100
AcDbLayerTableRecord
  2
05___PRT_ALL_DTM_CSYS
 70
0
 62
7
  6
CONTINUOUS
370
-3
390
F
  0
LAYER
  5
20F
100
AcDbSymbolTableRecord
100
AcDbLayerTableRecord
  2
05___PRT_DEF_DTM_CSYS
 70
0
 62
7
  6
CONTINUOUS
370
-3
390
F
  0
LAYER
  5
210
100
AcDbSymbolTableRecord
100
AcDbLayerTableRecord
  2
06_ALL_SURFS
 70
0
 62
7
  6
CONTINUOUS
370
-3
390
F
  0
LAYER
  5
211
100
AcDbSymbolTableRecord
100
AcDbLayerTableRecord
  2
06__ASM_ALL_SURFS
 70
0
 62
7
  6
CONTINUOUS
370
-3
390
F
  0
LAYER
  5
212
100
AcDbSymbolTableRecord
100
AcDbLayerTableRecord
  2
06___PRT_ALL_SURFS
 70
0
 62
7
  6
CONTINUOUS
370
-3
390
F
  0
LAYER
  5
213
100
AcDbSymbolTableRecord
100
AcDbLayerTableRecord
  2
07__ASM_ALL_SKELETONS
 70
0
 62
7
  6
CONTINUOUS
370
-3
390
F
  0
LAYER
  5
214
100
AcDbSymbolTableRecord
100
AcDbLayerTableRecord
  2
LAYER_DIM
 70
0
 62
7
  6
CONTINUOUS
370
-3
390
F
  0
LAYER
  5
215
100
AcDbSymbolTableRecord
100
AcDbLayerTableRecord
  2
LAYER_FEATURE
 70
0
 62
7
  6
CONTINUOUS
370
-3
390
F
  0
LAYER
  5
216
100
AcDbSymbolTableRecord
100
AcDbLayerTableRecord
  2
LAYER_GEOM_FEAT
 70
0
 62
7
  6
CONTINUOUS
370
-3
390
F
  0
LAYER
  5
217
100
AcDbSymbolTableRecord
100
AcDbLayerTableRecord
  2
LAYER_PARAMETER_DIM
 70
0
 62
7
  6
CONTINUOUS
370
-3
390
F
  0
LAYER
  5
218
100
AcDbSymbolTableRecord
100
AcDbLayerTableRecord
  2
LAYER_PROTRUSION_FEAT
 70
0
 62
7
  6
CONTINUOUS
370
-3
390
F
  0
LAYER
  5
219
100
AcDbSymbolTableRecord
100
AcDbLayerTableRecord
  2
LAYER_ROUND_FEAT
 70
0
 62
7
  6
CONTINUOUS
370
-3
390
F
  0
ENDTAB
  0
TABLE
  2
STYLE
  5
3
100
AcDbSymbolTable
 70
1
  0
STYLE
  5
11
100
AcDbSymbolTableRecord
100
AcDbTextStyleTableRecord
  2
STANDARD
 70
0
 40
0.0
 41
0.8
 50
0.0
 71
0
 42
0.2
  3
txt
  4

  0
STYLE
  5
21A
100
AcDbSymbolTableRecord
100
AcDbTextStyleTableRecord
  2
TEXTSTYLE_1
 70
0
 40
0.0
 41
0.8
 50
0.0
 71
0
 42
0.2
  3
gdt
  4

  0
ENDTAB
  0
TABLE
  2
VIEW
  5
6
100
AcDbSymbolTable
 70
0
  0
ENDTAB
  0
TABLE
  2
UCS
  5
7
100
AcDbSymbolTable
 70
0
  0
ENDTAB
  0
TABLE
  2
APPID
  5
9
100
AcDbSymbolTable
 70
1
  0
APPID
  5
21B
100
AcDbSymbolTableRecord
100
AcDbRegAppTableRecord
  2
ACAD
 70
0
  0
ENDTAB
  0
TABLE
  2
BLOCK_RECORD
  5
1
100
AcDbSymbolTable
 70
0
  0
BLOCK_RECORD
  5
21C
100
AcDbSymbolTableRecord
100
AcDbBlockTableRecord
  2
*Model_Space
  0
BLOCK_RECORD
  5
21D
100
AcDbSymbolTableRecord
100
AcDbBlockTableRecord
  2
*Paper_Space
  0
ENDTAB
  0
TABLE
  2
DIMSTYLE
  5
A
100
AcDbSymbolTable
 70
1
100
AcDbDimStyleTable
 71
0
  0
DIMSTYLE
105
21E
100
AcDbSymbolTableRecord
100
AcDbDimStyleTableRecord
  2
STANDARD
 70
0
  3

  4

 40
1.0
 41
0.1875
 42
0.0625
 43
0.38
 44
0.125
 45
0.0
 46
0.0
 47
0.0001
 48
0.0001
140
0.15625
141
0.09
142
0.0
143
25.4
144
1.0
145
0.0
146
1.0
147
0.09
 71
0.0
 72
0.0
 73
1
 74
1
 75
0
 76
0
 77
0
 78
4
170
0
171
2
172
0
173
0
174
0
175
0
176
0
177
0
178
0
270
2
271
4
272
4
273
2
274
2
275
0
280
0
281
0
282
0
283
1
284
4
285
0
286
0
287
3
288
0
340
11
278
46
  0
ENDTAB
  0
ENDSEC
  0
SECTION
  2
BLOCKS
  0
BLOCK
  5
20
100
AcDbEntity
  8
0
100
AcDbBlockBegin
  2
*Model_Space
 70
0
 10
0.0
 20
0.0
 30
0.0
  3
*Model_Space
  1

  0
ENDBLK
  5
21
100
AcDbEntity
  8
0
100
AcDbBlockEnd
  0
BLOCK
  5
1C
100
AcDbEntity
  8
0
100
AcDbBlockBegin
  2
*Paper_Space
 70
0
 10
0.0
 20
0.0
 30
0.0
  3
*Paper_Space
  1

  0
ENDBLK
  5
1D
100
AcDbEntity
  8
0
100
AcDbBlockEnd
  0
ENDSEC
  0
SECTION
  2
ENTITIES
  0
MTEXT
  5
21F
100
AcDbEntity
  8
0
100
AcDbMText
 62
7
  6
CONTINUOUS
  7
STANDARD
 71
1
 72
1
 10
15.9560215477
 20
0.9479130325
 30
0.0
 11
1.0
 21
0.0
 31
0.0
 44
0.9
  1
SCALE: 1:1.000
 40
0.3
 41
3.36
  0
LINE
  5
220
100
AcDbEntity
  8
0
100
AcDbLine
 62
7
  6
CONTINUOUS
 10
0.0
 20
0.0
 11
0.0
 21
17.0
  0
LINE
  5
221
100
AcDbEntity
  8
0
100
AcDbLine
 62
7
  6
CONTINUOUS
 10
0.0
 20
0.0
 11
22.0
 21
0.0
  0
LINE
  5
222
100
AcDbEntity
  8
0
100
AcDbLine
 62
7
  6
CONTINUOUS
 10
0.0
 20
17.0
 11
22.0
 21
17.0
  0
LINE
  5
223
100
AcDbEntity
  8
0
100
AcDbLine
 62
7
  6
CONTINUOUS
 10
22.0
 20
0.0
 11
22.0
 21
17.0
  0
LINE
  5
224
100
AcDbEntity
  8
0
100
AcDbLine
 62
7
  6
CONTINUOUS
 10
4.6753672762
 20
5.7551198968
 11
4.6753672762
 21
5.6801198968
  0
LINE
  5
225
100
AcDbEntity
  8
0
100
AcDbLine
 62
7
  6
CONTINUOUS
 10
4.6753672762
 20
5.6801198968
 11
4.7932153786
 21
5.2896736584
  0
LINE
  5
226
100
AcDbEntity
  8
0
100
AcDbLine
 62
7
  6
CONTINUOUS
 10
5.3353672762
 20
5.6801198968
 11
5.3353672762
 21
5.7251198968
  0
LINE
  5
227
100
AcDbEntity
  8
0
100
AcDbLine
 62
7
  6
CONTINUOUS
 10
5.2175191737
 20
5.2896736584
 11
5.3353672762
 21
5.6801198968
  0
LINE
  5
228
100
AcDbEntity
  8
LAYER_FEATURE
100
AcDbLine
 62
7
  6
CONTINUOUS
 10
5.4253672762
 20
5.7251198968
 11
5.4253672762
 21
5.6801198968
  0
LINE
  5
229
100
AcDbEntity
  8
LAYER_FEATURE
100
AcDbLine
 62
7
  6
CONTINUOUS
 10
5.4253672762
 20
5.6801198968
 11
5.5432153786
 21
5.2896736584
  0
LINE
  5
22A
100
AcDbEntity
  8
0
100
AcDbLine
 62
7
  6
CONTINUOUS
 10
4.8195423096
 20
5.2701198968
 11
5.1911922427
 21
5.2701198968
  0
LINE
  5
22B
100
AcDbEntity
  8
LAYER_FEATURE
100
AcDbLine
 62
7
  6
CONTINUOUS
 10
5.5695423096
 20
5.2701198968
 11
5.9411922427
 21
5.2701198968
  0
LINE
  5
22C
100
AcDbEntity
  8
LAYER_FEATURE
100
AcDbLine
 62
7
  6
CONTINUOUS
 10
6.3195423096
 20
5.2701198968
 11
6.6911922427
 21
5.2701198968
  0
LINE
  5
22D
100
AcDbEntity
  8
LAYER_FEATURE
100
AcDbLine
 62
7
  6
CONTINUOUS
 10
7.0695423096
 20
5.2701198968
 11
7.4411922427
 21
5.2701198968
  0
LINE
  5
22E
100
AcDbEntity
  8
LAYER_FEATURE
100
AcDbLine
 62
7
  6
CONTINUOUS
 10
5.9675191737
 20
5.2896736584
 11
6.0853672762
 21
5.6801198968
  0
LINE
  5
22F
100
AcDbEntity
  8
LAYER_FEATURE
100
AcDbLine
 62
7
  6
CONTINUOUS
 10
6.0853672762
 20
5.6801198968
 11
6.0853672762
 21
5.7251198968
  0
LINE
  5
230
100
AcDbEntity
  8
LAYER_FEATURE
100
AcDbLine
 62
7
  6
CONTINUOUS
 10
6.1753672762
 20
5.7251198968
 11
6.1753672762
 21
5.6801198968
  0
LINE
  5
231
100
AcDbEntity
  8
LAYER_FEATURE
100
AcDbLine
 62
7
  6
CONTINUOUS
 10
6.1753672762
 20
5.6801198968
 11
6.2932153786
 21
5.2896736584
  0
LINE
  5
232
100
AcDbEntity
  8
LAYER_FEATURE
100
AcDbLine
 62
7
  6
CONTINUOUS
 10
5.3353672762
 20
5.7251198968
 11
5.4253672762
 21
5.7251198968
  0
LINE
  5
233
100
AcDbEntity
  8
LAYER_FEATURE
100
AcDbLine
 62
7
  6
CONTINUOUS
 10
6.0853672762
 20
5.7251198968
 11
6.1753672762
 21
5.7251198968
  0
LINE
  5
234
100
AcDbEntity
  8
LAYER_FEATURE
100
AcDbLine
 62
7
  6
CONTINUOUS
 10
6.8353672762
 20
5.7251198968
 11
6.9253672762
 21
5.7251198968
  0
LINE
  5
235
100
AcDbEntity
  8
0
100
AcDbLine
 62
7
  6
CONTINUOUS
 10
7.5703672762
 20
5.7701198968
 11
4.6903672762
 21
5.7701198968
  0
LINE
  5
236
100
AcDbEntity
  8
LAYER_FEATURE
100
AcDbLine
 62
7
  6
CONTINUOUS
 10
6.7175191737
 20
5.2896736584
 11
6.8353672762
 21
5.6801198968
  0
LINE
  5
237
100
AcDbEntity
  8
LAYER_FEATURE
100
AcDbLine
 62
7
  6
CONTINUOUS
 10
6.8353672762
 20
5.6801198968
 11
6.8353672762
 21
5.7251198968
  0
LINE
  5
238
100
AcDbEntity
  8
LAYER_FEATURE
100
AcDbLine
 62
7
  6
CONTINUOUS
 10
6.9253672762
 20
5.7251198968
 11
6.9253672762
 21
5.6801198968
  0
LINE
  5
239
100
AcDbEntity
  8
LAYER_FEATURE
100
AcDbLine
 62
7
  6
CONTINUOUS
 10
6.9253672762
 20
5.6801198968
 11
7.0432153786
 21
5.2896736584
  0
LINE
  5
23A
100
AcDbEntity
  8
0
100
AcDbLine
 62
7
  6
CONTINUOUS
 10
7.5853672762
 20
5.6801198968
 11
7.5853672762
 21
5.7551198968
  0
LINE
  5
23B
100
AcDbEntity
  8
LAYER_FEATURE
100
AcDbLine
 62
7
  6
CONTINUOUS
 10
7.4675191737
 20
5.2896736584
 11
7.5853672762
 21
5.6801198968
  0
LINE
  5
23C
100
AcDbEntity
  8
0
100
AcDbLine
 62
7
  6
CONTINUOUS
 10
7.5258720839
 20
10.6000477814
 11
4.6158720839
 21
10.6000477814
  0
LINE
  5
23D
100
AcDbEntity
  8
0
100
AcDbLine
 62
7
  6
CONTINUOUS
 10
4.6158720839
 20
14.6000477814
 11
4.6158720839
 21
10.6000477814
  0
LINE
  5
23E
100
AcDbEntity
  8
0
100
AcDbLine
 62
7
  6
CONTINUOUS
 10
7.5258720839
 20
10.6000477814
 11
7.5258720839
 21
14.6000477814
  0
LINE
  5
23F
100
AcDbEntity
  8
0
100
AcDbLine
 62
7
  6
CONTINUOUS
 10
4.6158720839
 20
14.6000477814
 11
7.5258720839
 21
14.6000477814
  0
LINE
  5
240
100
AcDbEntity
  8
LAYER_FEATURE
100
AcDbLine
 62
7
  6
CONTINUOUS
 10
13.5603552569
 20
5.2106247044
 11
13.5603552569
 21
5.6206247044
  0
LINE
  5
241
100
AcDbEntity
  8
0
100
AcDbLine
 62
7
  6
CONTINUOUS
 10
13.5603552569
 20
5.6206247044
 11
13.5603552569
 21
5.7106247044
  0
LINE
  5
242
100
AcDbEntity
  8
LAYER_FEATURE
100
AcDbLine
 62
7
  6
CONTINUOUS
 10
13.5603552569
 20
5.2106247044
 11
17.5603552569
 21
5.2106247044
  0
LINE
  5
243
100
AcDbEntity
  8
LAYER_FEATURE
100
AcDbLine
 62
7
  6
CONTINUOUS
 10
17.5603552569
 20
5.6206247044
 11
13.5603552569
 21
5.6206247044
  0
LINE
  5
244
100
AcDbEntity
  8
0
100
AcDbLine
 62
7
  6
CONTINUOUS
 10
13.5603552569
 20
5.7106247044
 11
17.5603552569
 21
5.7106247044
  0
LINE
  5
245
100
AcDbEntity
  8
0
100
AcDbLine
 62
7
  6
CONTINUOUS
 10
17.5603552569
 20
5.7106247044
 11
17.5603552569
 21
5.6206247044
  0
LINE
  5
246
100
AcDbEntity
  8
LAYER_FEATURE
100
AcDbLine
 62
7
  6
CONTINUOUS
 10
17.5603552569
 20
5.2106247044
 11
17.5603552569
 21
5.6206247044
  0
LINE
  5
247
100
AcDbEntity
  8
0
100
AcDbLine
 62
7
  6
CONTINUOUS
 10
13.6533464421
 20
11.0436087686
 11
13.8809941818
 21
10.8009034948
  0
LINE
  5
248
100
AcDbEntity
  8
0
100
AcDbLine
 62
7
  6
CONTINUOUS
 10
13.6304683021
 20
11.0902295162
 11
13.6533464421
 21
11.0436087686
  0
LINE
  5
249
100
AcDbEntity
  8
0
100
AcDbLine
 62
7
  6
CONTINUOUS
 10
13.911207607
 20
10.7887486816
 11
14.2535198638
 21
10.7887486816
  0
LINE
  5
24A
100
AcDbEntity
  8
LAYER_FEATURE
100
AcDbLine
 62
7
  6
CONTINUOUS
 10
14.6020033525
 20
10.7887486816
 11
14.9443156093
 21
10.7887486816
  0
LINE
  5
24B
100
AcDbEntity
  8
LAYER_FEATURE
100
AcDbLine
 62
7
  6
CONTINUOUS
 10
15.292799098
 20
10.7887486816
 11
15.6351113548
 21
10.7887486816
  0
LINE
  5
24C
100
AcDbEntity
  8
LAYER_FEATURE
100
AcDbLine
 62
7
  6
CONTINUOUS
 10
15.9835948435
 20
10.7887486816
 11
16.3259071003
 21
10.7887486816
  0
LINE
  5
24D
100
AcDbEntity
  8
LAYER_FEATURE
100
AcDbLine
 62
7
  6
CONTINUOUS
 10
14.3441421876
 20
11.0436087686
 11
14.5717899273
 21
10.8009034948
  0
LINE
  5
24E
100
AcDbEntity
  8
0
100
AcDbLine
 62
7
  6
CONTINUOUS
 10
14.2612466981
 20
11.0436087686
 11
14.2475198141
 21
11.0715812171
  0
LINE
  5
24F
100
AcDbEntity
  8
LAYER_FEATURE
100
AcDbLine
 62
7
  6
CONTINUOUS
 10
14.3304153036
 20
11.0715812171
 11
14.3441421876
 21
11.0436087686
  0
LINE
  5
250
100
AcDbEntity
  8
0
100
AcDbLine
 62
7
  6
CONTINUOUS
 10
14.5982181979
 20
14.2279658653
 11
13.6299529043
 21
11.0946582268
  0
LINE
  5
251
100
AcDbEntity
  8
LAYER_FEATURE
100
AcDbLine
 62
7
  6
CONTINUOUS
 10
14.2475198141
 20
11.0715812171
 11
14.3304153036
 21
11.0715812171
  0
LINE
  5
252
100
AcDbEntity
  8
LAYER_FEATURE
100
AcDbLine
 62
7
  6
CONTINUOUS
 10
14.9383155596
 20
11.0715812171
 11
15.0212110491
 21
11.0715812171
  0
LINE
  5
253
100
AcDbEntity
  8
LAYER_FEATURE
100
AcDbLine
 62
7
  6
CONTINUOUS
 10
15.6291113051
 20
11.0715812171
 11
15.7120067946
 21
11.0715812171
  0
LINE
  5
254
100
AcDbEntity
  8
0
100
AcDbLine
 62
7
  6
CONTINUOUS
 10
16.2923642517
 20
11.0995536657
 11
13.639708589
 21
11.0995536657
  0
LINE
  5
255
100
AcDbEntity
  8
0
100
AcDbLine
 62
7
  6
CONTINUOUS
 10
14.2718038571
 20
10.8009034948
 11
14.2612466981
 21
11.0436087686
  0
LINE
  5
256
100
AcDbEntity
  8
LAYER_FEATURE
100
AcDbLine
 62
7
  6
CONTINUOUS
 10
15.0349379331
 20
11.0436087686
 11
15.2625856728
 21
10.8009034948
  0
LINE
  5
257
100
AcDbEntity
  8
LAYER_FEATURE
100
AcDbLine
 62
7
  6
CONTINUOUS
 10
14.9520424436
 20
11.0436087686
 11
14.9383155596
 21
11.0715812171
  0
LINE
  5
258
100
AcDbEntity
  8
LAYER_FEATURE
100
AcDbLine
 62
7
  6
CONTINUOUS
 10
15.0212110491
 20
11.0715812171
 11
15.0349379331
 21
11.0436087686
  0
LINE
  5
259
100
AcDbEntity
  8
0
100
AcDbLine
 62
7
  6
CONTINUOUS
 10
14.2714001638
 20
10.797725228
 11
14.2718038571
 21
10.8009034948
  0
LINE
  5
25A
100
AcDbEntity
  8
LAYER_FEATURE
100
AcDbLine
 62
7
  6
CONTINUOUS
 10
15.7257336786
 20
11.0436087686
 11
15.9533814183
 21
10.8009034948
  0
LINE
  5
25B
100
AcDbEntity
  8
0
100
AcDbLine
 62
7
  6
CONTINUOUS
 10
14.2698908385
 20
11.0715812171
 11
14.2612466981
 21
11.0436087686
  0
LINE
  5
25C
100
AcDbEntity
  8
LAYER_FEATURE
100
AcDbLine
 62
7
  6
CONTINUOUS
 10
14.9625996026
 20
10.8009034948
 11
14.9520424436
 21
11.0436087686
  0
LINE
  5
25D
100
AcDbEntity
  8
0
100
AcDbLine
 62
7
  6
CONTINUOUS
 10
14.2723370168
 20
10.8007387359
 11
14.3465847864
 21
11.0410046064
  0
LINE
  5
25E
100
AcDbEntity
  8
LAYER_FEATURE
100
AcDbLine
 62
7
  6
CONTINUOUS
 10
15.6428381891
 20
11.0436087686
 11
15.6291113051
 21
11.0715812171
  0
LINE
  5
25F
100
AcDbEntity
  8
LAYER_FEATURE
100
AcDbLine
 62
7
  6
CONTINUOUS
 10
15.7120067946
 20
11.0715812171
 11
15.7257336786
 21
11.0436087686
  0
LINE
  5
260
100
AcDbEntity
  8
LAYER_FEATURE
100
AcDbLine
 62
7
  6
CONTINUOUS
 10
14.9621959093
 20
10.797725228
 11
14.9625996026
 21
10.8009034948
  0
LINE
  5
261
100
AcDbEntity
  8
LAYER_FEATURE
100
AcDbLine
 62
7
  6
CONTINUOUS
 10
14.960686584
 20
11.0715812171
 11
14.9520424436
 21
11.0436087686
  0
LINE
  5
262
100
AcDbEntity
  8
LAYER_FEATURE
100
AcDbLine
 62
7
  6
CONTINUOUS
 10
14.9631327623
 20
10.8007387359
 11
15.0373805319
 21
11.0410046064
  0
LINE
  5
263
100
AcDbEntity
  8
LAYER_FEATURE
100
AcDbLine
 62
7
  6
CONTINUOUS
 10
15.6533953481
 20
10.8009034948
 11
15.6428381891
 21
11.0436087686
  0
LINE
  5
264
100
AcDbEntity
  8
0
100
AcDbLine
 62
7
  6
CONTINUOUS
 10
16.3336339346
 20
11.0436087686
 11
16.3107557946
 21
11.0902295162
  0
LINE
  5
265
100
AcDbEntity
  8
LAYER_FEATURE
100
AcDbLine
 62
7
  6
CONTINUOUS
 10
15.6529916548
 20
10.797725228
 11
15.6533953481
 21
10.8009034948
  0
LINE
  5
266
100
AcDbEntity
  8
LAYER_FEATURE
100
AcDbLine
 62
7
  6
CONTINUOUS
 10
15.6514823295
 20
11.0715812171
 11
15.6428381891
 21
11.0436087686
  0
LINE
  5
267
100
AcDbEntity
  8
LAYER_FEATURE
100
AcDbLine
 62
7
  6
CONTINUOUS
 10
15.6539285078
 20
10.8007387359
 11
15.7281762774
 21
11.0410046064
  0
LINE
  5
268
100
AcDbEntity
  8
LAYER_FEATURE
100
AcDbLine
 62
7
  6
CONTINUOUS
 10
16.3441910936
 20
10.8009034948
 11
16.3336339346
 21
11.0436087686
  0
LINE
  5
269
100
AcDbEntity
  8
LAYER_FEATURE
100
AcDbLine
 62
7
  6
CONTINUOUS
 10
16.3437874003
 20
10.797725228
 11
16.3441910936
 21
10.8009034948
  0
LINE
  5
26A
100
AcDbEntity
  8
LAYER_FEATURE
100
AcDbLine
 62
7
  6
CONTINUOUS
 10
17.3018992282
 20
14.1769164071
 11
16.3336339346
 21
11.0436087686
  0
LINE
  5
26B
100
AcDbEntity
  8
LAYER_FEATURE
100
AcDbLine
 62
7
  6
CONTINUOUS
 10
16.3447242533
 20
10.8007387359
 11
17.3120578158
 21
13.9310312915
  0
LINE
  5
26C
100
AcDbEntity
  8
LAYER_FEATURE
100
AcDbLine
 62
7
  6
CONTINUOUS
 10
17.3124563872
 20
13.9342111333
 11
17.3120526939
 21
13.9310328666
  0
LINE
  5
26D
100
AcDbEntity
  8
0
100
AcDbLine
 62
7
  6
CONTINUOUS
 10
14.6079738826
 20
14.2328613042
 11
17.2606295453
 21
14.2328613042
  0
LINE
  5
26E
100
AcDbEntity
  8
LAYER_FEATURE
100
AcDbLine
 62
7
  6
CONTINUOUS
 10
17.3124563872
 20
13.9342111333
 11
17.3018992282
 21
14.1769164071
  0
LINE
  5
26F
100
AcDbEntity
  8
0
100
AcDbLine
 62
7
  6
CONTINUOUS
 10
17.2790210882
 20
14.2235371547
 11
17.3018992282
 21
14.1769164071
  0
ARC
  5
270
100
AcDbEntity
  8
0
100
AcDbCircle
 62
7
  6
CONTINUOUS
 10
4.8195423096
 20
5.2976198968
 40
0.0275
100
AcDbArc
 50
196.7953511265
 51
270.0
  0
ARC
  5
271
100
AcDbEntity
  8
0
100
AcDbCircle
 62
7
  6
CONTINUOUS
 10
5.1911922427
 20
5.2976198968
 40
0.0275
100
AcDbArc
 50
270.0
 51
343.2046488735
  0
ARC
  5
272
100
AcDbEntity
  8
LAYER_FEATURE
100
AcDbCircle
 62
7
  6
CONTINUOUS
 10
5.5695423096
 20
5.2976198968
 40
0.0275
100
AcDbArc
 50
196.7953511265
 51
270.0
  0
ARC
  5
273
100
AcDbEntity
  8
LAYER_FEATURE
100
AcDbCircle
 62
7
  6
CONTINUOUS
 10
5.9411922427
 20
5.2976198968
 40
0.0275
100
AcDbArc
 50
270.0
 51
343.2046488735
  0
ARC
  5
274
100
AcDbEntity
  8
LAYER_FEATURE
100
AcDbCircle
 62
7
  6
CONTINUOUS
 10
6.3195423096
 20
5.2976198968
 40
0.0275
100
AcDbArc
 50
196.7953511265
 51
270.0
  0
ARC
  5
275
100
AcDbEntity
  8
LAYER_FEATURE
100
AcDbCircle
 62
7
  6
CONTINUOUS
 10
6.6911922427
 20
5.2976198968
 40
0.0275
100
AcDbArc
 50
270.0
 51
343.2046488735
  0
ARC
  5
276
100
AcDbEntity
  8
LAYER_FEATURE
100
AcDbCircle
 62
7
  6
CONTINUOUS
 10
7.4411922427
 20
5.2976198968
 40
0.0275
100
AcDbArc
 50
270.0
 51
343.2046488735
  0
ARC
  5
277
100
AcDbEntity
  8
LAYER_FEATURE
100
AcDbCircle
 62
7
  6
CONTINUOUS
 10
7.0695423096
 20
5.2976198968
 40
0.0275
100
AcDbArc
 50
196.7953511265
 51
270.0
  0
ARC
  5
278
100
AcDbEntity
  8
0
100
AcDbCircle
 62
7
  6
CONTINUOUS
 10
4.6903672762
 20
5.7551198968
 40
0.015
100
AcDbArc
 50
90.0
 51
180.0
  0
ARC
  5
279
100
AcDbEntity
  8
0
100
AcDbCircle
 62
7
  6
CONTINUOUS
 10
7.5703672762
 20
5.7551198968
 40
0.015
100
AcDbArc
 50
0.0
 51
90.0
  0
SPLINE
  5
27A
100
AcDbEntity
  8
0
100
AcDbSpline
 62
7
  6
CONTINUOUS
 70
0
 71
3
 72
15
 73
11
 74
0
 42
0.0000001
 43
0.0000001
 44
0.0000000001
 40
0.0
 40
0.0
 40
0.0
 40
0.0
 40
0.1294191043
 40
0.2645249841
 40
0.4013044273
 40
0.5362662681
 40
0.6661530415
 40
0.7881326088
 40
0.8999162358
 40
1.0
 40
1.0
 40
1.0
 40
1.0
 10
17.2606295453
 20
14.2328613042
 30
0.0
 10
17.2615574168
 20
14.2328613042
 30
0.0
 10
17.2634552687
 20
14.2327310686
 30
0.0
 10
17.2662893835
 20
14.2322026348
 30
0.0
 10
17.2690837403
 20
14.2313446455
 30
0.0
 10
17.2717315029
 20
14.2301971662
 30
0.0
 10
17.2741341884
 20
14.2287984408
 30
0.0
 10
17.2762070252
 20
14.2272023589
 30
0.0
 10
17.277865038
 20
14.2254627965
 30
0.0
 10
17.2787049762
 20
14.2241813234
 30
0.0
 10
17.2790210882
 20
14.2235371547
 30
0.0
  0
SPLINE
  5
27B
100
AcDbEntity
  8
0
100
AcDbSpline
 62
7
  6
CONTINUOUS
 70
0
 71
3
 72
10
 73
6
 74
0
 42
0.0000001
 43
0.0000001
 44
0.0000000001
 40
0.0
 40
0.0
 40
0.0
 40
0.0
 40
0.2343705303
 40
0.4761718674
 40
1.0
 40
1.0
 40
1.0
 40
1.0
 10
13.6299529604
 20
11.0946581913
 30
0.0
 10
13.6298477434
 20
11.0943184315
 30
0.0
 10
13.6297098411
 20
11.0936019447
 30
0.0
 10
13.6297467395
 20
11.092076253
 30
0.0
 10
13.6301180895
 20
11.0909431743
 30
0.0
 10
13.6304683021
 20
11.0902295162
 30
0.0
  0
SPLINE
  5
27C
100
AcDbEntity
  8
0
100
AcDbSpline
 62
7
  6
CONTINUOUS
 70
0
 71
3
 72
13
 73
9
 74
0
 42
0.0000001
 43
0.0000001
 44
0.0000000001
 40
0.0
 40
0.0
 40
0.0
 40
0.0
 40
0.0997902754
 40
0.2030563563
 40
0.3128380548
 40
0.4312309438
 40
0.6971758756
 40
1.0
 40
1.0
 40
1.0
 40
1.0
 10
14.598218254
 20
14.2279658298
 30
0.0
 10
14.5983326031
 20
14.2283350787
 30
0.0
 10
14.5986563937
 20
14.2290611611
 30
0.0
 10
14.5993930802
 20
14.2300348892
 30
0.0
 10
14.6003680306
 20
14.2308826378
 30
0.0
 10
14.6020186886
 20
14.2318679281
 30
0.0
 10
14.6045914525
 20
14.2326738002
 30
0.0
 10
14.6068008576
 20
14.2328613042
 30
0.0
 10
14.6079738826
 20
14.2328613042
 30
0.0
  0
SPLINE
  5
27D
100
AcDbEntity
  8
LAYER_FEATURE
100
AcDbSpline
 62
7
  6
CONTINUOUS
 70
0
 71
3
 72
14
 73
10
 74
0
 42
0.0000001
 43
0.0000001
 44
0.0000000001
 40
0.0
 40
0.0
 40
0.0
 40
0.0
 40
0.1556484873
 40
0.3032785793
 40
0.5688081264
 40
0.6871107502
 40
0.7968534988
 40
0.9001586754
 40
1.0
 40
1.0
 40
1.0
 40
1.0
 10
16.3259071003
 20
10.7887486816
 30
0.0
 10
16.3270129034
 20
10.7887486816
 30
0.0
 10
16.3291700952
 20
10.788845197
 30
0.0
 10
16.3331716208
 20
10.7894223637
 30
0.0
 10
16.3368240382
 20
10.7905707481
 30
0.0
 10
16.3398490318
 20
10.7923732859
 30
0.0
 10
16.3416355068
 20
10.793928886
 30
0.0
 10
16.3429902239
 20
10.7957126342
 30
0.0
 10
16.3435819702
 20
10.7970462934
 30
0.0
 10
16.343791074
 20
10.7977240934
 30
0.0
  0
SPLINE
  5
27E
100
AcDbEntity
  8
LAYER_FEATURE
100
AcDbSpline
 62
7
  6
CONTINUOUS
 70
0
 71
3
 72
15
 73
11
 74
0
 42
0.0000001
 43
0.0000001
 44
0.0000000001
 40
0.0
 40
0.0
 40
0.0
 40
0.0
 40
0.1113484973
 40
0.2305609218
 40
0.3557415884
 40
0.4849646117
 40
0.6161985144
 40
0.7473103848
 40
0.8760831803
 40
1.0
 40
1.0
 40
1.0
 40
1.0
 10
15.9533814183
 20
10.8009034948
 30
0.0
 10
15.9542287923
 20
10.800000072
 30
0.0
 10
15.956118337
 20
10.7982537045
 30
0.0
 10
15.9593217907
 20
10.7959179413
 30
0.0
 10
15.9629257338
 20
10.7938335676
 30
0.0
 10
15.9668337024
 20
10.7920492696
 30
0.0
 10
15.9709516485
 20
10.7906113197
 30
0.0
 10
15.9751779588
 20
10.7895521377
 30
0.0
 10
15.9794039866
 20
10.7889046445
 30
0.0
 10
15.9822163996
 20
10.7887486816
 30
0.0
 10
15.9835948435
 20
10.7887486816
 30
0.0
  0
SPLINE
  5
27F
100
AcDbEntity
  8
LAYER_FEATURE
100
AcDbSpline
 62
7
  6
CONTINUOUS
 70
0
 71
3
 72
14
 73
10
 74
0
 42
0.0000001
 43
0.0000001
 44
0.0000000001
 40
0.0
 40
0.0
 40
0.0
 40
0.0
 40
0.1556484873
 40
0.3032785793
 40
0.5688081264
 40
0.6871107502
 40
0.7968534988
 40
0.9001586754
 40
1.0
 40
1.0
 40
1.0
 40
1.0
 10
15.6351113548
 20
10.7887486816
 30
0.0
 10
15.6362171579
 20
10.7887486816
 30
0.0
 10
15.6383743497
 20
10.788845197
 30
0.0
 10
15.6423758753
 20
10.7894223637
 30
0.0
 10
15.6460282927
 20
10.7905707481
 30
0.0
 10
15.6490532863
 20
10.7923732859
 30
0.0
 10
15.6508397613
 20
10.793928886
 30
0.0
 10
15.6521944784
 20
10.7957126342
 30
0.0
 10
15.6527862247
 20
10.7970462934
 30
0.0
 10
15.6529953285
 20
10.7977240934
 30
0.0
  0
SPLINE
  5
280
100
AcDbEntity
  8
LAYER_FEATURE
100
AcDbSpline
 62
7
  6
CONTINUOUS
 70
0
 71
3
 72
15
 73
11
 74
0
 42
0.0000001
 43
0.0000001
 44
0.0000000001
 40
0.0
 40
0.0
 40
0.0
 40
0.0
 40
0.1113484973
 40
0.2305609218
 40
0.3557415884
 40
0.4849646117
 40
0.6161985144
 40
0.7473103848
 40
0.8760831803
 40
1.0
 40
1.0
 40
1.0
 40
1.0
 10
15.2625856728
 20
10.8009034948
 30
0.0
 10
15.2634330468
 20
10.800000072
 30
0.0
 10
15.2653225915
 20
10.7982537045
 30
0.0
 10
15.2685260452
 20
10.7959179413
 30
0.0
 10
15.2721299883
 20
10.7938335676
 30
0.0
 10
15.2760379569
 20
10.7920492696
 30
0.0
 10
15.280155903
 20
10.7906113197
 30
0.0
 10
15.2843822133
 20
10.7895521377
 30
0.0
 10
15.2886082411
 20
10.7889046445
 30
0.0
 10
15.2914206541
 20
10.7887486816
 30
0.0
 10
15.292799098
 20
10.7887486816
 30
0.0
  0
SPLINE
  5
281
100
AcDbEntity
  8
LAYER_FEATURE
100
AcDbSpline
 62
7
  6
CONTINUOUS
 70
0
 71
3
 72
14
 73
10
 74
0
 42
0.0000001
 43
0.0000001
 44
0.0000000001
 40
0.0
 40
0.0
 40
0.0
 40
0.0
 40
0.1556484873
 40
0.3032785793
 40
0.5688081264
 40
0.6871107502
 40
0.7968534988
 40
0.9001586754
 40
1.0
 40
1.0
 40
1.0
 40
1.0
 10
14.9443156093
 20
10.7887486816
 30
0.0
 10
14.9454214124
 20
10.7887486816
 30
0.0
 10
14.9475786042
 20
10.788845197
 30
0.0
 10
14.9515801298
 20
10.7894223637
 30
0.0
 10
14.9552325472
 20
10.7905707481
 30
0.0
 10
14.9582575408
 20
10.7923732859
 30
0.0
 10
14.9600440158
 20
10.793928886
 30
0.0
 10
14.9613987329
 20
10.7957126342
 30
0.0
 10
14.9619904792
 20
10.7970462934
 30
0.0
 10
14.962199583
 20
10.7977240934
 30
0.0
  0
SPLINE
  5
282
100
AcDbEntity
  8
LAYER_FEATURE
100
AcDbSpline
 62
7
  6
CONTINUOUS
 70
0
 71
3
 72
15
 73
11
 74
0
 42
0.0000001
 43
0.0000001
 44
0.0000000001
 40
0.0
 40
0.0
 40
0.0
 40
0.0
 40
0.1113484973
 40
0.2305609218
 40
0.3557415884
 40
0.4849646117
 40
0.6161985144
 40
0.7473103848
 40
0.8760831803
 40
1.0
 40
1.0
 40
1.0
 40
1.0
 10
14.5717899273
 20
10.8009034948
 30
0.0
 10
14.5726373013
 20
10.800000072
 30
0.0
 10
14.574526846
 20
10.7982537045
 30
0.0
 10
14.5777302997
 20
10.7959179413
 30
0.0
 10
14.5813342428
 20
10.7938335676
 30
0.0
 10
14.5852422114
 20
10.7920492696
 30
0.0
 10
14.5893601575
 20
10.7906113197
 30
0.0
 10
14.5935864678
 20
10.7895521377
 30
0.0
 10
14.5978124955
 20
10.7889046445
 30
0.0
 10
14.6006249086
 20
10.7887486816
 30
0.0
 10
14.6020033525
 20
10.7887486816
 30
0.0
  0
SPLINE
  5
283
100
AcDbEntity
  8
0
100
AcDbSpline
 62
7
  6
CONTINUOUS
 70
0
 71
3
 72
14
 73
10
 74
0
 42
0.0000001
 43
0.0000001
 44
0.0000000001
 40
0.0
 40
0.0
 40
0.0
 40
0.0
 40
0.1556484873
 40
0.3032785793
 40
0.5688081264
 40
0.6871107502
 40
0.7968534988
 40
0.9001586754
 40
1.0
 40
1.0
 40
1.0
 40
1.0
 10
14.2535198638
 20
10.7887486816
 30
0.0
 10
14.2546256669
 20
10.7887486816
 30
0.0
 10
14.2567828587
 20
10.788845197
 30
0.0
 10
14.2607843842
 20
10.7894223637
 30
0.0
 10
14.2644368017
 20
10.7905707481
 30
0.0
 10
14.2674617953
 20
10.7923732859
 30
0.0
 10
14.2692482703
 20
10.793928886
 30
0.0
 10
14.2706029874
 20
10.7957126342
 30
0.0
 10
14.2711947337
 20
10.7970462934
 30
0.0
 10
14.2714038375
 20
10.7977240934
 30
0.0
  0
SPLINE
  5
284
100
AcDbEntity
  8
0
100
AcDbSpline
 62
7
  6
CONTINUOUS
 70
0
 71
3
 72
15
 73
11
 74
0
 42
0.0000001
 43
0.0000001
 44
0.0000000001
 40
0.0
 40
0.0
 40
0.0
 40
0.0
 40
0.1113484973
 40
0.2305609218
 40
0.3557415884
 40
0.4849646117
 40
0.6161985144
 40
0.7473103848
 40
0.8760831803
 40
1.0
 40
1.0
 40
1.0
 40
1.0
 10
13.8809941818
 20
10.8009034948
 30
0.0
 10
13.8818415558
 20
10.800000072
 30
0.0
 10
13.8837311005
 20
10.7982537045
 30
0.0
 10
13.8869345542
 20
10.7959179413
 30
0.0
 10
13.8905384973
 20
10.7938335676
 30
0.0
 10
13.8944464659
 20
10.7920492696
 30
0.0
 10
13.898564412
 20
10.7906113197
 30
0.0
 10
13.9027907223
 20
10.7895521377
 30
0.0
 10
13.90701675
 20
10.7889046445
 30
0.0
 10
13.9098291631
 20
10.7887486816
 30
0.0
 10
13.911207607
 20
10.7887486816
 30
0.0
  0
SPLINE
  5
285
100
AcDbEntity
  8
0
100
AcDbSpline
 62
7
  6
CONTINUOUS
 70
0
 71
3
 72
13
 73
9
 74
0
 42
0.0000001
 43
0.0000001
 44
0.0000000001
 40
0.0
 40
0.0
 40
0.0
 40
0.0
 40
0.3028241244
 40
0.5687690562
 40
0.6871619452
 40
0.7969436437
 40
0.9002097246
 40
1.0
 40
1.0
 40
1.0
 40
1.0
 10
13.639708589
 20
11.0995536657
 30
0.0
 10
13.638535564
 20
11.0995536657
 30
0.0
 10
13.6363261589
 20
11.0993661617
 30
0.0
 10
13.633753395
 20
11.0985602896
 30
0.0
 10
13.6321027369
 20
11.0975749993
 30
0.0
 10
13.6311277866
 20
11.0967272507
 30
0.0
 10
13.6303911
 20
11.0957535226
 30
0.0
 10
13.6300673095
 20
11.0950274402
 30
0.0
 10
13.6299529604
 20
11.0946581913
 30
0.0
  0
SPLINE
  5
286
100
AcDbEntity
  8
0
100
AcDbSpline
 62
7
  6
CONTINUOUS
 70
0
 71
3
 72
15
 73
11
 74
0
 42
0.0000001
 43
0.0000001
 44
0.0000000001
 40
0.0
 40
0.0
 40
0.0
 40
0.0
 40
0.1000837642
 40
0.2118673912
 40
0.3338469585
 40
0.4637337319
 40
0.5986955727
 40
0.7354750159
 40
0.8705808957
 40
1.0
 40
1.0
 40
1.0
 40
1.0
 10
16.3107557946
 20
11.0902295162
 30
0.0
 10
16.3104396825
 20
11.0908736849
 30
0.0
 10
16.3095997443
 20
11.092155158
 30
0.0
 10
16.3079417316
 20
11.0938947204
 30
0.0
 10
16.3058688947
 20
11.0954908023
 30
0.0
 10
16.3034662093
 20
11.0968895277
 30
0.0
 10
16.3008184467
 20
11.098037007
 30
0.0
 10
16.2980240899
 20
11.0988949963
 30
0.0
 10
16.2951899751
 20
11.0994234301
 30
0.0
 10
16.2932921232
 20
11.0995536657
 30
0.0
 10
16.2923642517
 20
11.0995536657
 30
0.0
  0
ENDSEC
  0
SECTION
  2
OBJECTS
  0
DICTIONARY
  5
C
100
AcDbDictionary
280
0
281
1
  3
ACAD_GROUP
350
D
  3
ACAD_MLINESTYLE
350
17
  3
ACAD_LAYOUT
350
1A
  3
ACAD_PLOTSETTINGS
350
19
  3
ACAD_PLOTSTYLENAME
350
E
  0
DICTIONARY
  5
D
102
{ACAD_REACTORS
330
C
102
}
100
AcDbDictionary
280
0
281
1
  0
ACDBDICTIONARYWDFLT
  5
E
102
{ACAD_REACTORS
330
C
102
}
100
AcDbDictionary
281
1
  3
Normal
350
F
100
AcDbDictionaryWithDefault
340
F
  0
DICTIONARY
  5
17
102
{ACAD_REACTORS
330
C
102
}
100
AcDbDictionary
280
0
281
1
  3
Standard
350
18
  0
DICTIONARY
  5
19
102
{ACAD_REACTORS
330
C
102
}
100
AcDbDictionary
281
1
  0
DICTIONARY
  5
1A
102
{ACAD_REACTORS
330
C
102
}
100
AcDbDictionary
281
1
  3
Model
350
287
  3
Layout1
350
288
  0
ACDBPLACEHOLDER
  5
F
102
{ACAD_REACTORS
330
E
102
}
  0
MLINESTYLE
  5
18
102
{ACAD_REACTORS
330
17
102
}
100
AcDbMlineStyle
  2
STANDARD
 70
0
  3

 62
256
 51
90.0
 52
90.0
 71
2
 49
0.5
 62
256
  6
BYLAYER
 49
-0.5
 62
256
  6
BYLAYER
  0
LAYOUT
  5
287
102
{ACAD_REACTORS
330
1A
102
}
100
AcDbPlotSettings
  1

  2
none_device
  4
ANSI_C_(22.00_x_17.00_Inches)
  6

 40
0.0
 41
0.0
 42
0.0
 43
0.0
 44
558.8
 45
431.8
 46
0.0
 47
0.0
 48
0.0
 49
0.0
140
0.0
141
0.0
142
1.0
143
1.0
 70
1024
 72
0
 73
0
 74
0
  7

 75
0
147
1.0
148
0.0
149
0.0
100
AcDbLayout
  1
Model
 70
0
 71
0
 10
0.0
 20
0.0
 11
22.0
 21
17.0
 12
0.0
 22
0.0
 32
0.0
 14
0.0
 24
0.0
 34
0.0
 15
0.0
 25
0.0
 35
0.0
146
0.0
 13
0.0
 23
0.0
 33
0.0
 16
1.0
 26
0.0
 36
0.0
 17
0.0
 27
1.0
 37
0.0
 76
0
330
21C
345
0
346
0
  0
LAYOUT
  5
288
102
{ACAD_REACTORS
330
1A
102
}
100
AcDbPlotSettings
  1

  2
none_device
  4
ANSI_C_(22.00_x_17.00_Inches)
  6

 40
0.0
 41
0.0
 42
0.0
 43
0.0
 44
558.8
 45
431.8
 46
0.0
 47
0.0
 48
0.0
 49
0.0
140
0.0
141
0.0
142
1.0
143
1.0
 70
0
 72
0
 73
0
 74
0
  7

 75
0
147
1.0
148
0.0
149
0.0
100
AcDbLayout
  1
Layout1
 70
0
 71
1
 10
0.0
 20
0.0
 11
22.0
 21
17.0
 12
0.0
 22
0.0
 32
0.0
 14
0.0
 24
0.0
 34
0.0
 15
0.0
 25
0.0
 35
0.0
146
0.0
 13
0.0
 23
0.0
 33
0.0
 16
1.0
 26
0.0
 36
0.0
 17
0.0
 27
1.0
 37
0.0
 76
0
330
21D
345
0
346
0
  0
ENDSEC
  0
EOF