999
DXF file: _cgs_temp_output.dxf
999
Pro/ENGINEER 2016360 by Parametric Technology Corporation
  0
SECTION
  2
HEADER
  9
$ACADVER
  1
AC1021
  9
$DWGCODEPAGE
  3
ANSI_1252
  9
$EXTMAX
 10
22.0
 20
17.0
 30
0.0
  9
$EXTMIN
 10
0.0
 20
0.0
 30
0.0
  9
$LIMMIN
 10
0.0
 20
0.0
  9
$LIMMAX
 10
22.0
 20
17.0
  9
$VIEWCTR
 10
11.0
 20
8.5
  9
$VIEWSIZE
 40
17.0
  9
$CLAYER
  8
0
  9
$LTSCALE
 40
1.21
  9
$CELTYPE
  6
BYLAYER
  9
$DIMSCALE
 40
1.0
  9
$DIMASZ
 40
0.1875
  9
$DIMEXO
 40
0.0625
  9
$DIMDLI
 40
0.836
  9
$DIMEXE
 40
0.125
  9
$DIMCEN
 40
0.198
  9
$DIMLFAC
 40
1.0
  9
$DIMBLK
  1
_CLOSED
  9
$DIMALT
 70
0
  9
$DIMALTF
 40
25.4
  9
$DIMTXT
 40
0.15625
  9
$DIMTOL
 70
0
  9
$DIMLIM
 70
0
  9
$DIMTFAC
 40
1.0
  9
$DIMGAP
 40
0.09
  9
$DIMDSEP
 70
46
  9
$AUNITS
 70
0
  9
$PDMODE
 70
3
  9
$PDSIZE
 40
0.3125
  9
$HANDSEED
  5
2F8
  9
$TILEMODE
 70
1
  9
$MEASUREMENT
 70
0
  9
$INSUNITS
 70
1
  0
ENDSEC
  0
SECTION
  2
CLASSES
  0
CLASS
  1
ACDBDICTIONARYWDFLT
  2
AcDbDictionaryWithDefault
  3
AutoCAD 2000
 90
0
 91
1
280
0
281
0
  0
CLASS
  1
ACDBPLACEHOLDER
  2
AcDbPlaceHolder
  3
AutoCAD 2000
 90
0
 91
1
280
0
281
0
  0
CLASS
  1
LAYOUT
  2
AcDbLayout
  3
AutoCAD 2000
 90
0
 91
0
280
0
281
0
  0
ENDSEC
  0
SECTION
  2
TABLES
  0
TABLE
  2
VPORT
  5
8
100
AcDbSymbolTable
 70
2
  0
VPORT
  5
1F4
100
AcDbSymbolTableRecord
100
AcDbViewportTableRecord
  2
*ACTIVE
 70
0
 10
0.0
 20
0.0
 11
1.0
 21
1.0
 12
11.0
 22
8.5
 13
0.0
 23
0.0
 14
1.0
 24
1.0
 15
0.0
 25
0.0
 16
0.0
 26
0.0
 36
1.0
 17
0.0
 27
0.0
 37
0.0
 40
17.0
 41
1.2941176471
 42
50.0
 43
0.0
 44
0.0
 50
0.0
 51
0.0
 71
0
 72
100
 73
1
 74
1
 75
0
 76
0
 77
0
 78
0
  0
ENDTAB
  0
TABLE
  2
LTYPE
  5
5
100
AcDbSymbolTable
 70
6
  0
LTYPE
  5
14
100
AcDbSymbolTableRecord
100
AcDbLinetypeTableRecord
  2
BYBLOCK
 70
0
  3

 72
65
 73
0
 40
0.0
  0
LTYPE
  5
15
100
AcDbSymbolTableRecord
100
AcDbLinetypeTableRecord
  2
BYLAYER
 70
0
  3

 72
65
 73
0
 40
0.0
  0
LTYPE
  5
16
100
AcDbSymbolTableRecord
100
AcDbLinetypeTableRecord
  2
CONTINUOUS
 70
64
  3
Solid line
 72
65
 73
0
 40
0.0
  0
LTYPE
  5
1F5
100
AcDbSymbolTableRecord
100
AcDbLinetypeTableRecord
  2
CENTER
 70
64
  3
____ _ ____ _ ____ _ ____ _ ____ _ ____ _ ____
 72
65
 73
4
 40
0.6
 49
0.375
 74
0
 49
-0.075
 74
0
 49
0.075
 74
0
 49
-0.075
 74
0
  0
LTYPE
  5
1F6
100
AcDbSymbolTableRecord
100
AcDbLinetypeTableRecord
  2
HIDDEN
 70
64
  3
- - - - - - - - - - - - - - - - - - - -
 72
65
 73
2
 40
0.2
 49
0.1
 74
0
 49
-0.1
 74
0
  0
LTYPE
  5
1F7
100
AcDbSymbolTableRecord
100
AcDbLinetypeTableRecord
  2
PHANTOM
 70
64
  3
_____ _ _ _____ _ _ _____ _ _ _____
 72
65
 73
6
 40
0.8
 49
0.45
 74
0
 49
-0.05
 74
0
 49
0.1
 74
0
 49
-0.05
 74
0
 49
0.1
 74
0
 49
-0.05
 74
0
  0
LTYPE
  5
1F8
100
AcDbSymbolTableRecord
100
AcDbLinetypeTableRecord
  2
DOT
 70
64
  3
. . . . . . . . . . . . . . . . . . . .
 72
65
 73
2
 40
0.2
 49
0.1
 74
0
 49
-0.1
 74
0
  0
LTYPE
  5
1F9
100
AcDbSymbolTableRecord
100
AcDbLinetypeTableRecord
  2
DASHED
 70
64
  3
- - - - - - - - - - - - - - - - - - - -
 72
65
 73
2
 40
0.2
 49
0.1
 74
0
 49
-0.1
 74
0
  0
ENDTAB
  0
TABLE
  2
LAYER
  5
2
100
AcDbSymbolTable
 70
36
  0
LAYER
  5
10
100
AcDbSymbolTableRecord
100
AcDbLayerTableRecord
  2
0
 70
0
 62
7
  6
CONTINUOUS
370
-3
390
F
  0
LAYER
  5
1FA
100
AcDbSymbolTableRecord
100
AcDbLayerTableRecord
  2
DEFAULT_1
 70
0
 62
7
  6
CENTER
370
-3
390
F
  0
LAYER
  5
1FB
100
AcDbSymbolTableRecord
100
AcDbLayerTableRecord
  2
DEFAULT_2
 70
0
 62
8
  6
HIDDEN
370
-3
390
F
  0
LAYER
  5
1FC
100
AcDbSymbolTableRecord
100
AcDbLayerTableRecord
  2
DEFAULT_3
 70
0
 62
7
  6
PHANTOM
370
-3
390
F
  0
LAYER
  5
1FD
100
AcDbSymbolTableRecord
100
AcDbLayerTableRecord
  2
01_ALL_DTM_PLN
 70
0
 62
7
  6
CONTINUOUS
370
-3
390
F
  0
LAYER
  5
1FE
100
AcDbSymbolTableRecord
100
AcDbLayerTableRecord
  2
01__ASM_ALL_DTM_PLN
 70
0
 62
7
  6
CONTINUOUS
370
-3
390
F
  0
LAYER
  5
1FF
100
AcDbSymbolTableRecord
100
AcDbLayerTableRecord
  2
01__ASM_DEF_DTM_PLN
 70
0
 62
7
  6
CONTINUOUS
370
-3
390
F
  0
LAYER
  5
200
100
AcDbSymbolTableRecord
100
AcDbLayerTableRecord
  2
01___PRT_ALL_DTM_PLN
 70
0
 62
7
  6
CONTINUOUS
370
-3
390
F
  0
LAYER
  5
201
100
AcDbSymbolTableRecord
100
AcDbLayerTableRecord
  2
01___PRT_DEF_DTM_PLN
 70
0
 62
7
  6
CONTINUOUS
370
-3
390
F
  0
LAYER
  5
202
100
AcDbSymbolTableRecord
100
AcDbLayerTableRecord
  2
02_ALL_AXES
 70
0
 62
7
  6
CONTINUOUS
370
-3
390
F
  0
LAYER
  5
203
100
AcDbSymbolTableRecord
100
AcDbLayerTableRecord
  2
02__ASM_ALL_AXES
 70
0
 62
7
  6
CONTINUOUS
370
-3
390
F
  0
LAYER
  5
204
100
AcDbSymbolTableRecord
100
AcDbLayerTableRecord
  2
02___PRT_ALL_AXES
 70
0
 62
7
  6
CONTINUOUS
370
-3
390
F
  0
LAYER
  5
205
100
AcDbSymbolTableRecord
100
AcDbLayerTableRecord
  2
03_ALL_CURVES
 70
0
 62
7
  6
CONTINUOUS
370
-3
390
F
  0
LAYER
  5
206
100
AcDbSymbolTableRecord
100
AcDbLayerTableRecord
  2
03__ASM_ALL_CURVES
 70
0
 62
7
  6
CONTINUOUS
370
-3
390
F
  0
LAYER
  5
207
100
AcDbSymbolTableRecord
100
AcDbLayerTableRecord
  2
03___PRT_ALL_CURVES
 70
0
 62
7
  6
CONTINUOUS
370
-3
390
F
  0
LAYER
  5
208
100
AcDbSymbolTableRecord
100
AcDbLayerTableRecord
  2
04_ALL_DTM_PNT
 70
0
 62
7
  6
CONTINUOUS
370
-3
390
F
  0
LAYER
  5
209
100
AcDbSymbolTableRecord
100
AcDbLayerTableRecord
  2
04__ASM_ALL_DTM_PNT
 70
0
 62
7
  6
CONTINUOUS
370
-3
390
F
  0
LAYER
  5
20A
100
AcDbSymbolTableRecord
100
AcDbLayerTableRecord
  2
04___PRT_ALL_DTM_PNT
 70
0
 62
7
  6
CONTINUOUS
370
-3
390
F
  0
LAYER
  5
20B
100
AcDbSymbolTableRecord
100
AcDbLayerTableRecord
  2
05_ALL_DTM_CSYS
 70
0
 62
7
  6
CONTINUOUS
370
-3
390
F
  0
LAYER
  5
20C
100
AcDbSymbolTableRecord
100
AcDbLayerTableRecord
  2
05__ASM_ALL_DTM_CSYS
 70
0
 62
7
  6
CONTINUOUS
370
-3
390
F
  0
LAYER
  5
20D
100
AcDbSymbolTableRecord
100
AcDbLayerTableRecord
  2
05__ASM_DEF_DTM_CSYS
 70
0
 62
7
  6
CONTINUOUS
370
-3
390
F
  0
LAYER
  5
20E
100
AcDbSymbolTableRecord
100
AcDbLayerTableRecord
  2
05___PRT_ALL_DTM_CSYS
 70
0
 62
7
  6
CONTINUOUS
370
-3
390
F
  0
LAYER
  5
20F
100
AcDbSymbolTableRecord
100
AcDbLayerTableRecord
  2
05___PRT_DEF_DTM_CSYS
 70
0
 62
7
  6
CONTINUOUS
370
-3
390
F
  0
LAYER
  5
210
100
AcDbSymbolTableRecord
100
AcDbLayerTableRecord
  2
06_ALL_SURFS
 70
0
 62
7
  6
CONTINUOUS
370
-3
390
F
  0
LAYER
  5
211
100
AcDbSymbolTableRecord
100
AcDbLayerTableRecord
  2
06__ASM_ALL_SURFS
 70
0
 62
7
  6
CONTINUOUS
370
-3
390
F
  0
LAYER
  5
212
100
AcDbSymbolTableRecord
100
AcDbLayerTableRecord
  2
06___PRT_ALL_SURFS
 70
0
 62
7
  6
CONTINUOUS
370
-3
390
F
  0
LAYER
  5
213
100
AcDbSymbolTableRecord
100
AcDbLayerTableRecord
  2
07__ASM_ALL_SKELETONS
 70
0
 62
7
  6
CONTINUOUS
370
-3
390
F
  0
ENDTAB
  0
TABLE
  2
STYLE
  5
3
100
AcDbSymbolTable
 70
1
  0
STYLE
  5
11
100
AcDbSymbolTableRecord
100
AcDbTextStyleTableRecord
  2
STANDARD
 70
0
 40
0.0
 41
0.8
 50
0.0
 71
0
 42
0.2
  3
txt
  4

  0
STYLE
  5
214
100
AcDbSymbolTableRecord
100
AcDbTextStyleTableRecord
  2
TEXTSTYLE_1
 70
0
 40
0.0
 41
0.8
 50
0.0
 71
0
 42
0.2
  3
gdt
  4

  0
ENDTAB
  0
TABLE
  2
VIEW
  5
6
100
AcDbSymbolTable
 70
0
  0
ENDTAB
  0
TABLE
  2
UCS
  5
7
100
AcDbSymbolTable
 70
0
  0
ENDTAB
  0
TABLE
  2
APPID
  5
9
100
AcDbSymbolTable
 70
1
  0
APPID
  5
215
100
AcDbSymbolTableRecord
100
AcDbRegAppTableRecord
  2
ACAD
 70
0
  0
ENDTAB
  0
TABLE
  2
BLOCK_RECORD
  5
1
100
AcDbSymbolTable
 70
0
  0
BLOCK_RECORD
  5
216
100
AcDbSymbolTableRecord
100
AcDbBlockTableRecord
  2
*Model_Space
  0
BLOCK_RECORD
  5
217
100
AcDbSymbolTableRecord
100
AcDbBlockTableRecord
  2
*Paper_Space
  0
ENDTAB
  0
TABLE
  2
DIMSTYLE
  5
A
100
AcDbSymbolTable
 70
1
100
AcDbDimStyleTable
 71
0
  0
DIMSTYLE
105
218
100
AcDbSymbolTableRecord
100
AcDbDimStyleTableRecord
  2
STANDARD
 70
0
  3

  4

 40
1.0
 41
0.1875
 42
0.0625
 43
0.38
 44
0.125
 45
0.0
 46
0.0
 47
0.0001
 48
0.0001
140
0.15625
141
0.09
142
0.0
143
25.4
144
1.0
145
0.0
146
1.0
147
0.09
 71
0.0
 72
0.0
 73
1
 74
1
 75
0
 76
0
 77
0
 78
4
 79
1
170
0
171
3
172
0
173
0
174
0
175
0
176
0
177
0
178
0
270
2
179
4
271
4
272
4
273
2
274
2
275
0
280
0
281
0
282
0
283
1
284
4
285
0
286
0
287
3
288
0
340
11
278
46
  0
ENDTAB
  0
ENDSEC
  0
SECTION
  2
BLOCKS
  0
BLOCK
  5
20
100
AcDbEntity
  8
0
100
AcDbBlockBegin
  2
*Model_Space
 70
0
 10
0.0
 20
0.0
 30
0.0
  3
*Model_Space
  1

  0
ENDBLK
  5
21
100
AcDbEntity
  8
0
100
AcDbBlockEnd
  0
BLOCK
  5
1C
100
AcDbEntity
  8
0
100
AcDbBlockBegin
  2
*Paper_Space
 70
0
 10
0.0
 20
0.0
 30
0.0
  3
*Paper_Space
  1

  0
ENDBLK
  5
1D
100
AcDbEntity
  8
0
100
AcDbBlockEnd
  0
ENDSEC
  0
SECTION
  2
ENTITIES
  0
MTEXT
  5
219
100
AcDbEntity
  8
0
100
AcDbMText
 62
7
  6
CONTINUOUS
  7
STANDARD
 71
1
 72
1
 10
15.9560215477
 20
0.9479130325
 30
0.0
 11
1.0
 21
0.0
 31
0.0
 44
0.9
  1
SCALE: 1:1.000
 40
0.3
 41
3.36
  0
LINE
  5
21A
100
AcDbEntity
  8
0
100
AcDbLine
 62
7
  6
CONTINUOUS
 10
0.0
 20
0.0
 11
0.0
 21
17.0
  0
LINE
  5
21B
100
AcDbEntity
  8
0
100
AcDbLine
 62
7
  6
CONTINUOUS
 10
0.0
 20
0.0
 11
22.0
 21
0.0
  0
LINE
  5
21C
100
AcDbEntity
  8
0
100
AcDbLine
 62
7
  6
CONTINUOUS
 10
0.0
 20
17.0
 11
22.0
 21
17.0
  0
LINE
  5
21D
100
AcDbEntity
  8
0
100
AcDbLine
 62
7
  6
CONTINUOUS
 10
22.0
 20
0.0
 11
22.0
 21
17.0
  0
LINE
  5
21E
100
AcDbEntity
  8
0
100
AcDbLine
 62
7
  6
CONTINUOUS
 10
4.8803672762
 20
5.8226198968
 11
4.8803672762
 21
5.6997083408
  0
LINE
  5
21F
100
AcDbEntity
  8
0
100
AcDbLine
 62
7
  6
CONTINUOUS
 10
5.0343712272
 20
5.2098944719
 11
4.8852616245
 21
5.6688066413
  0
LINE
  5
220
100
AcDbEntity
  8
0
100
AcDbLine
 62
7
  6
CONTINUOUS
 10
5.0581476401
 20
5.1926198968
 11
7.2025869122
 21
5.1926198968
  0
LINE
  5
221
100
AcDbEntity
  8
0
100
AcDbLine
 62
7
  6
CONTINUOUS
 10
4.9872068398
 20
5.4109532301
 11
7.2735277125
 21
5.4109532301
  0
LINE
  5
222
100
AcDbEntity
  8
0
100
AcDbLine
 62
7
  6
CONTINUOUS
 10
7.3553672762
 20
5.8476198968
 11
4.9053672762
 21
5.8476198968
  0
LINE
  5
223
100
AcDbEntity
  8
0
100
AcDbLine
 62
7
  6
CONTINUOUS
 10
7.3803672762
 20
5.6997083408
 11
7.3803672762
 21
5.8226198968
  0
LINE
  5
224
100
AcDbEntity
  8
0
100
AcDbLine
 62
7
  6
CONTINUOUS
 10
7.2263633251
 20
5.2098944719
 11
7.3754729278
 21
5.6688066413
  0
LINE
  5
225
100
AcDbEntity
  8
0
100
AcDbLine
 62
7
  6
CONTINUOUS
 10
7.3208720839
 20
10.6000477814
 11
4.8208720839
 21
10.6000477814
  0
LINE
  5
226
100
AcDbEntity
  8
0
100
AcDbLine
 62
7
  6
CONTINUOUS
 10
4.8208720839
 20
10.6000477814
 11
4.8208720839
 21
14.6000477814
  0
LINE
  5
227
100
AcDbEntity
  8
0
100
AcDbLine
 62
7
  6
CONTINUOUS
 10
7.3208720839
 20
10.6000477814
 11
7.3208720839
 21
14.6000477814
  0
LINE
  5
228
100
AcDbEntity
  8
0
100
AcDbLine
 62
7
  6
CONTINUOUS
 10
4.8208720839
 20
14.6000477814
 11
7.3208720839
 21
14.6000477814
  0
LINE
  5
229
100
AcDbEntity
  8
0
100
AcDbLine
 62
7
  6
CONTINUOUS
 10
13.5603552569
 20
5.3514580378
 11
13.5603552569
 21
5.7881247044
  0
LINE
  5
22A
100
AcDbEntity
  8
0
100
AcDbLine
 62
7
  6
CONTINUOUS
 10
13.6699189683
 20
5.3091532828
 11
13.7007915455
 21
5.1754294594
  0
LINE
  5
22B
100
AcDbEntity
  8
0
100
AcDbLine
 62
7
  6
CONTINUOUS
 10
13.9199189683
 20
5.1754294594
 11
13.9507915455
 21
5.3091532828
  0
LINE
  5
22C
100
AcDbEntity
  8
0
100
AcDbLine
 62
7
  6
CONTINUOUS
 10
14.1699189683
 20
5.3091532828
 11
14.2007915455
 21
5.1754294594
  0
LINE
  5
22D
100
AcDbEntity
  8
0
100
AcDbLine
 62
7
  6
CONTINUOUS
 10
14.4199189683
 20
5.1754294594
 11
14.4507915455
 21
5.3091532828
  0
LINE
  5
22E
100
AcDbEntity
  8
0
100
AcDbLine
 62
7
  6
CONTINUOUS
 10
14.6699189683
 20
5.3091532828
 11
14.7007915455
 21
5.1754294594
  0
LINE
  5
22F
100
AcDbEntity
  8
0
100
AcDbLine
 62
7
  6
CONTINUOUS
 10
14.9199189683
 20
5.1754294594
 11
14.9507915455
 21
5.3091532828
  0
LINE
  5
230
100
AcDbEntity
  8
0
100
AcDbLine
 62
7
  6
CONTINUOUS
 10
15.1699189683
 20
5.3091532828
 11
15.2007915455
 21
5.1754294594
  0
LINE
  5
231
100
AcDbEntity
  8
0
100
AcDbLine
 62
7
  6
CONTINUOUS
 10
13.7539759116
 20
5.1331247044
 11
13.8667346023
 21
5.1331247044
  0
LINE
  5
232
100
AcDbEntity
  8
0
100
AcDbLine
 62
7
  6
CONTINUOUS
 10
14.2539759116
 20
5.1331247044
 11
14.3667346023
 21
5.1331247044
  0
LINE
  5
233
100
AcDbEntity
  8
0
100
AcDbLine
 62
7
  6
CONTINUOUS
 10
14.7539759116
 20
5.1331247044
 11
14.8667346023
 21
5.1331247044
  0
LINE
  5
234
100
AcDbEntity
  8
0
100
AcDbLine
 62
7
  6
CONTINUOUS
 10
15.2539759116
 20
5.1331247044
 11
15.3667346023
 21
5.1331247044
  0
LINE
  5
235
100
AcDbEntity
  8
0
100
AcDbLine
 62
7
  6
CONTINUOUS
 10
15.7539759116
 20
5.1331247044
 11
15.8667346023
 21
5.1331247044
  0
LINE
  5
236
100
AcDbEntity
  8
0
100
AcDbLine
 62
7
  6
CONTINUOUS
 10
16.2539759116
 20
5.1331247044
 11
16.3667346023
 21
5.1331247044
  0
LINE
  5
237
100
AcDbEntity
  8
0
100
AcDbLine
 62
7
  6
CONTINUOUS
 10
16.7539759116
 20
5.1331247044
 11
16.8667346023
 21
5.1331247044
  0
LINE
  5
238
100
AcDbEntity
  8
0
100
AcDbLine
 62
7
  6
CONTINUOUS
 10
17.2539759116
 20
5.1331247044
 11
17.3667346023
 21
5.1331247044
  0
LINE
  5
239
100
AcDbEntity
  8
0
100
AcDbLine
 62
7
  6
CONTINUOUS
 10
15.4199189683
 20
5.1754294594
 11
15.4507915455
 21
5.3091532828
  0
LINE
  5
23A
100
AcDbEntity
  8
0
100
AcDbLine
 62
7
  6
CONTINUOUS
 10
13.5603552569
 20
5.3514580378
 11
13.6167346023
 21
5.3514580378
  0
LINE
  5
23B
100
AcDbEntity
  8
0
100
AcDbLine
 62
7
  6
CONTINUOUS
 10
14.0039759116
 20
5.3514580378
 11
14.1167346023
 21
5.3514580378
  0
LINE
  5
23C
100
AcDbEntity
  8
0
100
AcDbLine
 62
7
  6
CONTINUOUS
 10
14.5039759116
 20
5.3514580378
 11
14.6167346023
 21
5.3514580378
  0
LINE
  5
23D
100
AcDbEntity
  8
0
100
AcDbLine
 62
7
  6
CONTINUOUS
 10
15.0039759116
 20
5.3514580378
 11
15.1167346023
 21
5.3514580378
  0
LINE
  5
23E
100
AcDbEntity
  8
0
100
AcDbLine
 62
7
  6
CONTINUOUS
 10
15.5039759116
 20
5.3514580378
 11
15.6167346023
 21
5.3514580378
  0
LINE
  5
23F
100
AcDbEntity
  8
0
100
AcDbLine
 62
7
  6
CONTINUOUS
 10
16.0039759116
 20
5.3514580378
 11
16.1167346023
 21
5.3514580378
  0
LINE
  5
240
100
AcDbEntity
  8
0
100
AcDbLine
 62
7
  6
CONTINUOUS
 10
16.5039759116
 20
5.3514580378
 11
16.6167346023
 21
5.3514580378
  0
LINE
  5
241
100
AcDbEntity
  8
0
100
AcDbLine
 62
7
  6
CONTINUOUS
 10
17.0039759116
 20
5.3514580378
 11
17.1167346023
 21
5.3514580378
  0
LINE
  5
242
100
AcDbEntity
  8
0
100
AcDbLine
 62
7
  6
CONTINUOUS
 10
17.5039759116
 20
5.3514580378
 11
17.5603552569
 21
5.3514580378
  0
LINE
  5
243
100
AcDbEntity
  8
0
100
AcDbLine
 62
7
  6
CONTINUOUS
 10
15.6699189683
 20
5.3091532828
 11
15.7007915455
 21
5.1754294594
  0
LINE
  5
244
100
AcDbEntity
  8
0
100
AcDbLine
 62
7
  6
CONTINUOUS
 10
15.9199189683
 20
5.1754294594
 11
15.9507915455
 21
5.3091532828
  0
LINE
  5
245
100
AcDbEntity
  8
0
100
AcDbLine
 62
7
  6
CONTINUOUS
 10
13.5603552569
 20
5.7881247044
 11
17.5603552569
 21
5.7881247044
  0
LINE
  5
246
100
AcDbEntity
  8
0
100
AcDbLine
 62
7
  6
CONTINUOUS
 10
16.1699189683
 20
5.3091532828
 11
16.2007915455
 21
5.1754294594
  0
LINE
  5
247
100
AcDbEntity
  8
0
100
AcDbLine
 62
7
  6
CONTINUOUS
 10
16.4199189683
 20
5.1754294594
 11
16.4507915455
 21
5.3091532828
  0
LINE
  5
248
100
AcDbEntity
  8
0
100
AcDbLine
 62
7
  6
CONTINUOUS
 10
16.6699189683
 20
5.3091532828
 11
16.7007915455
 21
5.1754294594
  0
LINE
  5
249
100
AcDbEntity
  8
0
100
AcDbLine
 62
7
  6
CONTINUOUS
 10
16.9199189683
 20
5.1754294594
 11
16.9507915455
 21
5.3091532828
  0
LINE
  5
24A
100
AcDbEntity
  8
0
100
AcDbLine
 62
7
  6
CONTINUOUS
 10
17.1699189683
 20
5.3091532828
 11
17.2007915455
 21
5.1754294594
  0
LINE
  5
24B
100
AcDbEntity
  8
0
100
AcDbLine
 62
7
  6
CONTINUOUS
 10
17.5603552569
 20
5.3514580378
 11
17.5603552569
 21
5.7881247044
  0
LINE
  5
24C
100
AcDbEntity
  8
0
100
AcDbLine
 62
7
  6
CONTINUOUS
 10
17.4199189683
 20
5.1754294594
 11
17.4507915455
 21
5.3091532828
  0
LINE
  5
24D
100
AcDbEntity
  8
0
100
AcDbLine
 62
7
  6
CONTINUOUS
 10
13.8657959165
 20
10.9710681972
 11
14.0111807686
 21
10.8215219945
  0
LINE
  5
24E
100
AcDbEntity
  8
0
100
AcDbLine
 62
7
  6
CONTINUOUS
 10
14.1792070464
 20
10.8107839464
 11
14.1822150779
 21
10.8091615517
  0
LINE
  5
24F
100
AcDbEntity
  8
0
100
AcDbLine
 62
7
  6
CONTINUOUS
 10
13.8143684406
 20
11.06668005
 11
13.8518616111
 21
10.9902770016
  0
LINE
  5
250
100
AcDbEntity
  8
0
100
AcDbLine
 62
7
  6
CONTINUOUS
 10
14.1822150779
 20
10.8091615517
 11
14.1971833789
 21
10.8060803446
  0
LWPOLYLINE
  5
251
100
AcDbEntity
  8
0
100
AcDbPolyline
 62
7
  6
CONTINUOUS
 90
6
 70
0
 10
16.1790234298
 20
10.8060803306
 10
16.1878728127
 20
10.8076476584
 10
16.1959308102
 20
10.8123408948
 10
16.201224161
 20
10.8182423026
 10
16.2045335694
 20
10.8241026928
 10
16.207215727
 20
10.830751936
  0
LINE
  5
252
100
AcDbEntity
  8
0
100
AcDbLine
 62
7
  6
CONTINUOUS
 10
14.197160855
 20
10.8060802498
 11
16.1790194712
 21
10.8060802498
  0
LINE
  5
253
100
AcDbEntity
  8
0
100
AcDbLine
 62
7
  6
CONTINUOUS
 10
14.0383497637
 20
10.8107839464
 11
16.1441907394
 21
10.8107839464
  0
LWPOLYLINE
  5
254
100
AcDbEntity
  8
0
100
AcDbPolyline
 62
7
  6
CONTINUOUS
 90
6
 70
0
 10
16.3000565915
 20
11.1977437854
 10
16.3089059744
 20
11.1993111132
 10
16.3169639719
 20
11.2040043497
 10
16.3222573227
 20
11.2099057574
 10
16.3255667312
 20
11.2157661476
 10
16.3282488887
 20
11.2224153908
  0
LINE
  5
255
100
AcDbEntity
  8
0
100
AcDbLine
 62
7
  6
CONTINUOUS
 10
16.0863683541
 20
11.0822202992
 11
13.8297689188
 21
11.0822202992
  0
LINE
  5
256
100
AcDbEntity
  8
0
100
AcDbLine
 62
7
  6
CONTINUOUS
 10
16.2775084816
 20
11.1977437046
 11
16.3000526329
 21
11.1977437046
  0
LINE
  5
257
100
AcDbEntity
  8
0
100
AcDbLine
 62
7
  6
CONTINUOUS
 10
13.8135094444
 20
11.0740612343
 11
14.781774738
 21
14.2073688728
  0
LWPOLYLINE
  5
258
100
AcDbEntity
  8
0
100
AcDbPolyline
 62
7
  6
CONTINUOUS
 90
6
 70
0
 10
16.4210897532
 20
11.5894072402
 10
16.4299391361
 20
11.590974568
 10
16.4379971336
 20
11.5956678045
 10
16.4432904844
 20
11.6015692122
 10
16.4465998929
 20
11.6074296024
 10
16.4492820504
 20
11.6140788456
  0
LINE
  5
259
100
AcDbEntity
  8
0
100
AcDbLine
 62
7
  6
CONTINUOUS
 10
16.3985416433
 20
11.5894071594
 11
16.4210857946
 21
11.5894071594
  0
LWPOLYLINE
  5
25A
100
AcDbEntity
  8
0
100
AcDbPolyline
 62
7
  6
CONTINUOUS
 90
6
 70
0
 10
16.5421229149
 20
11.981070695
 10
16.5509722978
 20
11.9826380228
 10
16.5590302953
 20
11.9873312593
 10
16.5643236461
 20
11.993232667
 10
16.5676330546
 20
11.9990930572
 10
16.5703152121
 20
12.0057423004
  0
LINE
  5
25B
100
AcDbEntity
  8
0
100
AcDbLine
 62
7
  6
CONTINUOUS
 10
16.519574805
 20
11.9810706142
 11
16.5421189563
 21
11.9810706142
  0
LWPOLYLINE
  5
25C
100
AcDbEntity
  8
0
100
AcDbPolyline
 62
7
  6
CONTINUOUS
 90
6
 70
0
 10
16.6631560766
 20
12.3727341498
 10
16.6720054595
 20
12.3743014776
 10
16.680063457
 20
12.3789947141
 10
16.6853568079
 20
12.3848961218
 10
16.6886662163
 20
12.390756512
 10
16.6913483738
 20
12.3974057552
  0
LINE
  5
25D
100
AcDbEntity
  8
0
100
AcDbLine
 62
7
  6
CONTINUOUS
 10
16.6406079667
 20
12.3727340691
 11
16.663152118
 21
12.3727340691
  0
LWPOLYLINE
  5
25E
100
AcDbEntity
  8
0
100
AcDbPolyline
 62
7
  6
CONTINUOUS
 90
6
 70
0
 10
16.7841892383
 20
12.7643976046
 10
16.7930386212
 20
12.7659649324
 10
16.8010966187
 20
12.7706581689
 10
16.8063899696
 20
12.7765595767
 10
16.809699378
 20
12.7824199669
 10
16.8123815355
 20
12.7890692101
  0
LINE
  5
25F
100
AcDbEntity
  8
0
100
AcDbLine
 62
7
  6
CONTINUOUS
 10
16.1545140961
 20
10.9902770016
 11
16.1170209256
 21
11.06668005
  0
LINE
  5
260
100
AcDbEntity
  8
0
100
AcDbLine
 62
7
  6
CONTINUOUS
 10
16.7616411284
 20
12.7643975239
 11
16.7841852798
 21
12.7643975239
  0
LWPOLYLINE
  5
261
100
AcDbEntity
  8
0
100
AcDbPolyline
 62
7
  6
CONTINUOUS
 90
6
 70
0
 10
16.9052224
 20
13.1560610595
 10
16.9140717829
 20
13.1576283872
 10
16.9221297804
 20
13.1623216237
 10
16.9274231313
 20
13.1682230315
 10
16.9307325397
 20
13.1740834217
 10
16.9334146972
 20
13.1807326649
  0
LINE
  5
262
100
AcDbEntity
  8
0
100
AcDbLine
 62
7
  6
CONTINUOUS
 10
16.8826742901
 20
13.1560609787
 11
16.9052184415
 21
13.1560609787
  0
LINE
  5
263
100
AcDbEntity
  8
0
100
AcDbLine
 62
7
  6
CONTINUOUS
 10
16.1608207972
 20
10.8215219945
 11
16.1594324148
 21
10.9710681972
  0
LWPOLYLINE
  5
264
100
AcDbEntity
  8
0
100
AcDbPolyline
 62
7
  6
CONTINUOUS
 90
6
 70
0
 10
17.0262555617
 20
13.5477245143
 10
17.0351049446
 20
13.5492918421
 10
17.0431629421
 20
13.5539850785
 10
17.048456293
 20
13.5598864863
 10
17.0517657014
 20
13.5657468765
 10
17.0544478589
 20
13.5723961197
  0
LINE
  5
265
100
AcDbEntity
  8
0
100
AcDbLine
 62
7
  6
CONTINUOUS
 10
16.2437854766
 20
10.9658750486
 11
16.2504869666
 21
11.0731824302
  0
LINE
  5
266
100
AcDbEntity
  8
0
100
AcDbLine
 62
7
  6
CONTINUOUS
 10
16.3648186383
 20
11.3575385034
 11
16.3715201283
 21
11.464845885
  0
LWPOLYLINE
  5
267
100
AcDbEntity
  8
0
100
AcDbPolyline
 62
7
  6
CONTINUOUS
 90
6
 70
0
 10
16.2504881478
 20
11.0732046102
 10
16.2512124978
 20
11.0821926464
 10
16.2534396887
 20
11.1004134348
 10
16.2567611831
 20
11.1203623697
 10
16.2608594873
 20
11.140087481
 10
16.2653039621
 20
11.1577671603
  0
LINE
  5
268
100
AcDbEntity
  8
0
100
AcDbLine
 62
7
  6
CONTINUOUS
 10
16.243000278
 20
10.9574818253
 11
16.2437885985
 21
10.9659269941
  0
LINE
  5
269
100
AcDbEntity
  8
0
100
AcDbLine
 62
7
  6
CONTINUOUS
 10
16.160444361
 20
10.8189448114
 11
16.1608207972
 21
10.8215219945
  0
LINE
  5
26A
100
AcDbEntity
  8
0
100
AcDbLine
 62
7
  6
CONTINUOUS
 10
16.4858518
 20
11.7492019582
 11
16.49255329
 21
11.8565093398
  0
LWPOLYLINE
  5
26B
100
AcDbEntity
  8
0
100
AcDbPolyline
 62
7
  6
CONTINUOUS
 90
6
 70
0
 10
16.3715213095
 20
11.464868065
 10
16.3722456595
 20
11.4738561012
 10
16.3744728504
 20
11.4920768896
 10
16.3777943448
 20
11.5120258245
 10
16.381892649
 20
11.5317509358
 10
16.3863371238
 20
11.5494306151
  0
LWPOLYLINE
  5
26C
100
AcDbEntity
  8
0
100
AcDbPolyline
 62
7
  6
CONTINUOUS
 90
6
 70
0
 10
16.4925544712
 20
11.8565315198
 10
16.4932788212
 20
11.865519556
 10
16.4955060121
 20
11.8837403444
 10
16.4988275066
 20
11.9036892793
 10
16.5029258107
 20
11.9234143906
 10
16.5073702855
 20
11.94109407
  0
LINE
  5
26D
100
AcDbEntity
  8
0
100
AcDbLine
 62
7
  6
CONTINUOUS
 10
16.3640334397
 20
11.3491452801
 11
16.3648217602
 21
11.3575904489
  0
LINE
  5
26E
100
AcDbEntity
  8
0
100
AcDbLine
 62
7
  6
CONTINUOUS
 10
16.4850666014
 20
11.7408087349
 11
16.4858549219
 21
11.7492539038
  0
LWPOLYLINE
  5
26F
100
AcDbEntity
  8
0
100
AcDbPolyline
 62
7
  6
CONTINUOUS
 90
3
 70
0
 10
16.2378108075
 20
10.9300711459
 10
16.2408216244
 20
10.9435675338
 10
16.243000278
 20
10.9574818253
  0
LWPOLYLINE
  5
270
100
AcDbEntity
  8
0
100
AcDbPolyline
 62
7
  6
CONTINUOUS
 90
3
 70
0
 10
16.3588439692
 20
11.3217346007
 10
16.3618547861
 20
11.3352309886
 10
16.3640334397
 20
11.3491452801
  0
LINE
  5
271
100
AcDbEntity
  8
0
100
AcDbLine
 62
7
  6
CONTINUOUS
 10
17.0217461383
 20
13.6060879622
 11
17.0241424569
 21
13.6132474089
  0
LWPOLYLINE
  5
272
100
AcDbEntity
  8
0
100
AcDbPolyline
 62
7
  6
CONTINUOUS
 90
4
 70
0
 10
17.0241424569
 20
13.6132474089
 10
17.0262972896
 20
13.6188818207
 10
17.0280173021
 20
13.6227184906
 10
17.0286608514
 20
13.6239499187
  0
LWPOLYLINE
  5
273
100
AcDbEntity
  8
0
100
AcDbPolyline
 62
7
  6
CONTINUOUS
 90
4
 70
0
 10
16.9031092952
 20
13.2215839541
 10
16.9052641279
 20
13.2272183659
 10
16.9069841404
 20
13.2310550358
 10
16.9076276897
 20
13.2322864639
  0
LWPOLYLINE
  5
274
100
AcDbEntity
  8
0
100
AcDbPolyline
 62
7
  6
CONTINUOUS
 90
4
 70
0
 10
16.7820761335
 20
12.8299204993
 10
16.7842309662
 20
12.8355549111
 10
16.7859509787
 20
12.839391581
 10
16.786594528
 20
12.8406230091
  0
LINE
  5
275
100
AcDbEntity
  8
0
100
AcDbLine
 62
7
  6
CONTINUOUS
 10
17.0037074518
 20
13.5477244335
 11
17.0262516032
 21
13.5477244335
  0
LINE
  5
276
100
AcDbEntity
  8
0
100
AcDbLine
 62
7
  6
CONTINUOUS
 10
16.6068849617
 20
12.140865413
 11
16.6135864517
 21
12.2481727946
  0
LINE
  5
277
100
AcDbEntity
  8
0
100
AcDbLine
 62
7
  6
CONTINUOUS
 10
16.7279181234
 20
12.5325288679
 11
16.7346196134
 21
12.6398362494
  0
LWPOLYLINE
  5
278
100
AcDbEntity
  8
0
100
AcDbPolyline
 62
7
  6
CONTINUOUS
 90
6
 70
0
 10
16.6135876329
 20
12.2481949746
 10
16.6143119829
 20
12.2571830108
 10
16.6165391738
 20
12.2754037992
 10
16.6198606683
 20
12.2953527341
 10
16.6239589724
 20
12.3150778454
 10
16.6284034472
 20
12.3327575248
  0
LWPOLYLINE
  5
279
100
AcDbEntity
  8
0
100
AcDbPolyline
 62
7
  6
CONTINUOUS
 90
6
 70
0
 10
16.7346207946
 20
12.6398584294
 10
16.7353451446
 20
12.6488464656
 10
16.7375723355
 20
12.6670672541
 10
16.74089383
 20
12.6870161889
 10
16.7449921341
 20
12.7067413003
 10
16.7494366089
 20
12.7244209796
  0
LINE
  5
27A
100
AcDbEntity
  8
0
100
AcDbLine
 62
7
  6
CONTINUOUS
 10
16.6060997631
 20
12.1324721897
 11
16.6068880836
 21
12.1409173586
  0
LINE
  5
27B
100
AcDbEntity
  8
0
100
AcDbLine
 62
7
  6
CONTINUOUS
 10
16.7271329248
 20
12.5241356445
 11
16.7279212453
 21
12.5325808134
  0
LWPOLYLINE
  5
27C
100
AcDbEntity
  8
0
100
AcDbPolyline
 62
7
  6
CONTINUOUS
 90
3
 70
0
 10
16.4798771309
 20
11.7133980555
 10
16.4828879478
 20
11.7268944434
 10
16.4850666014
 20
11.7408087349
  0
LWPOLYLINE
  5
27D
100
AcDbEntity
  8
0
100
AcDbPolyline
 62
7
  6
CONTINUOUS
 90
3
 70
0
 10
16.6009102926
 20
12.1050615104
 10
16.6039211095
 20
12.1185578982
 10
16.6060997631
 20
12.1324721897
  0
LWPOLYLINE
  5
27E
100
AcDbEntity
  8
0
100
AcDbPolyline
 62
7
  6
CONTINUOUS
 90
3
 70
0
 10
16.7219434544
 20
12.4967249652
 10
16.7249542712
 20
12.510221353
 10
16.7271329248
 20
12.5241356445
  0
LWPOLYLINE
  5
27F
100
AcDbEntity
  8
0
100
AcDbPolyline
 62
7
  6
CONTINUOUS
 90
3
 70
0
 10
16.8429766161
 20
12.88838842
 10
16.8459874329
 20
12.9018848078
 10
16.8481660865
 20
12.9157990993
  0
LINE
  5
280
100
AcDbEntity
  8
0
100
AcDbLine
 62
7
  6
CONTINUOUS
 10
16.2358659794
 20
10.9231943684
 11
16.2378108075
 21
10.9300711459
  0
LINE
  5
281
100
AcDbEntity
  8
0
100
AcDbLine
 62
7
  6
CONTINUOUS
 10
16.3568991411
 20
11.3148578232
 11
16.3588439692
 21
11.3217346007
  0
LINE
  5
282
100
AcDbEntity
  8
0
100
AcDbLine
 62
7
  6
CONTINUOUS
 10
16.4779323028
 20
11.7065212781
 11
16.4798771309
 21
11.7133980555
  0
LINE
  5
283
100
AcDbEntity
  8
0
100
AcDbLine
 62
7
  6
CONTINUOUS
 10
16.5989654645
 20
12.0981847329
 11
16.6009102926
 21
12.1050615104
  0
LINE
  5
284
100
AcDbEntity
  8
0
100
AcDbLine
 62
7
  6
CONTINUOUS
 10
16.7199986262
 20
12.4898481877
 11
16.7219434544
 21
12.4967249652
  0
LINE
  5
285
100
AcDbEntity
  8
0
100
AcDbLine
 62
7
  6
CONTINUOUS
 10
16.8410317879
 20
12.8815116425
 11
16.8429766161
 21
12.88838842
  0
LINE
  5
286
100
AcDbEntity
  8
0
100
AcDbLine
 62
7
  6
CONTINUOUS
 10
16.9620649496
 20
13.2731750973
 11
16.9640097778
 21
13.2800518748
  0
LINE
  5
287
100
AcDbEntity
  8
0
100
AcDbLine
 62
7
  6
CONTINUOUS
 10
17.0830981113
 20
13.6648385521
 11
17.0850429395
 21
13.6717153296
  0
LINE
  5
288
100
AcDbEntity
  8
0
100
AcDbLine
 62
7
  6
CONTINUOUS
 10
16.2653039621
 20
11.1577671603
 11
16.2678305384
 21
11.1664312801
  0
LINE
  5
289
100
AcDbEntity
  8
0
100
AcDbLine
 62
7
  6
CONTINUOUS
 10
16.3863371238
 20
11.5494306151
 11
16.3888637001
 21
11.5580947349
  0
LINE
  5
28A
100
AcDbEntity
  8
0
100
AcDbLine
 62
7
  6
CONTINUOUS
 10
16.5073702855
 20
11.94109407
 11
16.5098968618
 21
11.9497581897
  0
LINE
  5
28B
100
AcDbEntity
  8
0
100
AcDbLine
 62
7
  6
CONTINUOUS
 10
16.6284034472
 20
12.3327575248
 11
16.6309300235
 21
12.3414216445
  0
LINE
  5
28C
100
AcDbEntity
  8
0
100
AcDbLine
 62
7
  6
CONTINUOUS
 10
16.7494366089
 20
12.7244209796
 11
16.7519631852
 21
12.7330850993
  0
LINE
  5
28D
100
AcDbEntity
  8
0
100
AcDbLine
 62
7
  6
CONTINUOUS
 10
16.8704697706
 20
13.1160844344
 11
16.8729963469
 21
13.1247485542
  0
LINE
  5
28E
100
AcDbEntity
  8
0
100
AcDbLine
 62
7
  6
CONTINUOUS
 10
16.9915029323
 20
13.5077478892
 11
16.9940295086
 21
13.516412009
  0
LINE
  5
28F
100
AcDbEntity
  8
0
100
AcDbLine
 62
7
  6
CONTINUOUS
 10
17.112536094
 20
13.899411344
 11
17.1150626703
 21
13.9080754638
  0
LINE
  5
290
100
AcDbEntity
  8
0
100
AcDbLine
 62
7
  6
CONTINUOUS
 10
17.1150679666
 20
13.9080871915
 11
17.1287155074
 21
13.9522506498
  0
LINE
  5
291
100
AcDbEntity
  8
0
100
AcDbLine
 62
7
  6
CONTINUOUS
 10
16.2085792573
 20
10.8348931039
 11
16.2358743405
 21
10.9232200257
  0
LINE
  5
292
100
AcDbEntity
  8
0
100
AcDbLine
 62
7
  6
CONTINUOUS
 10
16.329612419
 20
11.2265565588
 11
16.3569075023
 21
11.3148834806
  0
LINE
  5
293
100
AcDbEntity
  8
0
100
AcDbLine
 62
7
  6
CONTINUOUS
 10
16.4506455807
 20
11.6182200136
 11
16.477940664
 21
11.7065469354
  0
LINE
  5
294
100
AcDbEntity
  8
0
100
AcDbLine
 62
7
  6
CONTINUOUS
 10
16.5716787424
 20
12.0098834684
 11
16.5989738257
 21
12.0982103902
  0
LINE
  5
295
100
AcDbEntity
  8
0
100
AcDbLine
 62
7
  6
CONTINUOUS
 10
16.6927119041
 20
12.4015469232
 11
16.7200069874
 21
12.489873845
  0
LINE
  5
296
100
AcDbEntity
  8
0
100
AcDbLine
 62
7
  6
CONTINUOUS
 10
16.8137450658
 20
12.793210378
 11
16.8410401491
 21
12.8815372998
  0
LINE
  5
297
100
AcDbEntity
  8
0
100
AcDbLine
 62
7
  6
CONTINUOUS
 10
16.9347782275
 20
13.1848738328
 11
16.9620733108
 21
13.2732007546
  0
LINE
  5
298
100
AcDbEntity
  8
0
100
AcDbLine
 62
7
  6
CONTINUOUS
 10
17.0558113892
 20
13.5765372876
 11
17.0831064725
 21
13.6648642094
  0
LINE
  5
299
100
AcDbEntity
  8
0
100
AcDbLine
 62
7
  6
CONTINUOUS
 10
16.9940348049
 20
13.5164237367
 11
17.0217461383
 21
13.6060879622
  0
LINE
  5
29A
100
AcDbEntity
  8
0
100
AcDbLine
 62
7
  6
CONTINUOUS
 10
16.8730016432
 20
13.1247602818
 11
16.9007129766
 21
13.2144245074
  0
LINE
  5
29B
100
AcDbEntity
  8
0
100
AcDbLine
 62
7
  6
CONTINUOUS
 10
16.7519684815
 20
12.733096827
 11
16.7796798149
 21
12.8227610526
  0
LINE
  5
29C
100
AcDbEntity
  8
0
100
AcDbLine
 62
7
  6
CONTINUOUS
 10
16.6309353198
 20
12.3414333722
 11
16.6586466532
 21
12.4310975978
  0
LINE
  5
29D
100
AcDbEntity
  8
0
100
AcDbLine
 62
7
  6
CONTINUOUS
 10
16.5099021581
 20
11.9497699174
 11
16.5376134915
 21
12.039434143
  0
LINE
  5
29E
100
AcDbEntity
  8
0
100
AcDbLine
 62
7
  6
CONTINUOUS
 10
16.3888689964
 20
11.5581064626
 11
16.4165803298
 21
11.6477706881
  0
LINE
  5
29F
100
AcDbEntity
  8
0
100
AcDbLine
 62
7
  6
CONTINUOUS
 10
16.2678358347
 20
11.1664430078
 11
16.2955471681
 21
11.2561072333
  0
LINE
  5
2A0
100
AcDbEntity
  8
0
100
AcDbLine
 62
7
  6
CONTINUOUS
 10
16.1612100117
 20
10.8214017181
 11
16.1745140064
 21
10.8644437785
  0
LINE
  5
2A1
100
AcDbEntity
  8
0
100
AcDbLine
 62
7
  6
CONTINUOUS
 10
17.0544478589
 20
13.5723961197
 11
17.0558160897
 21
13.5765537341
  0
LINE
  5
2A2
100
AcDbEntity
  8
0
100
AcDbLine
 62
7
  6
CONTINUOUS
 10
16.9334146972
 20
13.1807326649
 11
16.934782928
 21
13.1848902793
  0
LINE
  5
2A3
100
AcDbEntity
  8
0
100
AcDbLine
 62
7
  6
CONTINUOUS
 10
16.8123815355
 20
12.7890692101
 11
16.8137497663
 21
12.7932268245
  0
LINE
  5
2A4
100
AcDbEntity
  8
0
100
AcDbLine
 62
7
  6
CONTINUOUS
 10
16.6913483738
 20
12.3974057552
 11
16.6927166046
 21
12.4015633697
  0
LINE
  5
2A5
100
AcDbEntity
  8
0
100
AcDbLine
 62
7
  6
CONTINUOUS
 10
16.5703152121
 20
12.0057423004
 11
16.5716834429
 21
12.0098999149
  0
LINE
  5
2A6
100
AcDbEntity
  8
0
100
AcDbLine
 62
7
  6
CONTINUOUS
 10
16.4492820504
 20
11.6140788456
 11
16.4506502812
 21
11.6182364601
  0
LINE
  5
2A7
100
AcDbEntity
  8
0
100
AcDbLine
 62
7
  6
CONTINUOUS
 10
16.3282488887
 20
11.2224153908
 11
16.3296171195
 21
11.2265730053
  0
LINE
  5
2A8
100
AcDbEntity
  8
0
100
AcDbLine
 62
7
  6
CONTINUOUS
 10
16.207215727
 20
10.830751936
 11
16.2085839578
 21
10.8349095505
  0
LINE
  5
2A9
100
AcDbEntity
  8
0
100
AcDbLine
 62
7
  6
CONTINUOUS
 10
16.9007129766
 20
13.2144245074
 11
16.9031092952
 21
13.2215839541
  0
LINE
  5
2AA
100
AcDbEntity
  8
0
100
AcDbLine
 62
7
  6
CONTINUOUS
 10
16.7796798149
 20
12.8227610526
 11
16.7820761335
 21
12.8299204993
  0
LINE
  5
2AB
100
AcDbEntity
  8
0
100
AcDbLine
 62
7
  6
CONTINUOUS
 10
16.6586466532
 20
12.4310975978
 11
16.6610429718
 21
12.4382570445
  0
LINE
  5
2AC
100
AcDbEntity
  8
0
100
AcDbLine
 62
7
  6
CONTINUOUS
 10
16.5376134915
 20
12.039434143
 11
16.5400098101
 21
12.0465935897
  0
LINE
  5
2AD
100
AcDbEntity
  8
0
100
AcDbLine
 62
7
  6
CONTINUOUS
 10
16.4165803298
 20
11.6477706881
 11
16.4189766484
 21
11.6549301349
  0
LINE
  5
2AE
100
AcDbEntity
  8
0
100
AcDbLine
 62
7
  6
CONTINUOUS
 10
16.2955471681
 20
11.2561072333
 11
16.2979434867
 21
11.26326668
  0
LINE
  5
2AF
100
AcDbEntity
  8
0
100
AcDbLine
 62
7
  6
CONTINUOUS
 10
16.1745140064
 20
10.8644437785
 11
16.176910325
 21
10.8716032252
  0
LWPOLYLINE
  5
2B0
100
AcDbEntity
  8
0
100
AcDbPolyline
 62
7
  6
CONTINUOUS
 90
4
 70
0
 10
16.6610429718
 20
12.4382570445
 10
16.6631978045
 20
12.4438914562
 10
16.664917817
 20
12.4477281262
 10
16.6655613663
 20
12.4489595542
  0
LWPOLYLINE
  5
2B1
100
AcDbEntity
  8
0
100
AcDbPolyline
 62
7
  6
CONTINUOUS
 90
4
 70
0
 10
16.5400098101
 20
12.0465935897
 10
16.5421646428
 20
12.0522280014
 10
16.5438846553
 20
12.0560646714
 10
16.5445282046
 20
12.0572960994
  0
LWPOLYLINE
  5
2B2
100
AcDbEntity
  8
0
100
AcDbPolyline
 62
7
  6
CONTINUOUS
 90
4
 70
0
 10
16.4189766484
 20
11.6549301349
 10
16.4211314811
 20
11.6605645466
 10
16.4228514936
 20
11.6644012166
 10
16.4234950429
 20
11.6656326446
  0
LWPOLYLINE
  5
2B3
100
AcDbEntity
  8
0
100
AcDbPolyline
 62
7
  6
CONTINUOUS
 90
4
 70
0
 10
16.2979434867
 20
11.26326668
 10
16.3000983194
 20
11.2689010918
 10
16.3018183319
 20
11.2727377617
 10
16.3024618812
 20
11.2739691898
  0
LWPOLYLINE
  5
2B4
100
AcDbEntity
  8
0
100
AcDbPolyline
 62
7
  6
CONTINUOUS
 90
4
 70
0
 10
16.176910325
 20
10.8716032252
 10
16.1790651577
 20
10.877237637
 10
16.1807851702
 20
10.8810743069
 10
16.1814287195
 20
10.882305735
  0
LINE
  5
2B5
100
AcDbEntity
  8
0
100
AcDbLine
 62
7
  6
CONTINUOUS
 10
16.8489512851
 20
12.9241923227
 11
16.8556527751
 21
13.0314997042
  0
LINE
  5
2B6
100
AcDbEntity
  8
0
100
AcDbLine
 62
7
  6
CONTINUOUS
 10
16.9699844468
 20
13.3158557775
 11
16.9766859368
 21
13.423163159
  0
LWPOLYLINE
  5
2B7
100
AcDbEntity
  8
0
100
AcDbPolyline
 62
7
  6
CONTINUOUS
 90
6
 70
0
 10
16.8556539563
 20
13.0315218842
 10
16.8563783063
 20
13.0405099204
 10
16.8586054972
 20
13.0587307089
 10
16.8619269917
 20
13.0786796437
 10
16.8660252958
 20
13.0984047551
 10
16.8704697706
 20
13.1160844344
  0
LWPOLYLINE
  5
2B8
100
AcDbEntity
  8
0
100
AcDbPolyline
 62
7
  6
CONTINUOUS
 90
6
 70
0
 10
16.976687118
 20
13.4231853391
 10
16.977411468
 20
13.4321733753
 10
16.9796386589
 20
13.4503941637
 10
16.9829601534
 20
13.4703430985
 10
16.9870584575
 20
13.4900682099
 10
16.9915029323
 20
13.5077478892
  0
LINE
  5
2B9
100
AcDbEntity
  8
0
100
AcDbLine
 62
7
  6
CONTINUOUS
 10
16.8481660865
 20
12.9157990993
 11
16.848954407
 21
12.9242442682
  0
LINE
  5
2BA
100
AcDbEntity
  8
0
100
AcDbLine
 62
7
  6
CONTINUOUS
 10
16.9691992482
 20
13.3074625541
 11
16.9699875687
 21
13.315907723
  0
LINE
  5
2BB
100
AcDbEntity
  8
0
100
AcDbLine
 62
7
  6
CONTINUOUS
 10
17.1290860909
 20
13.954829633
 11
17.1287096547
 21
13.9522524499
  0
LWPOLYLINE
  5
2BC
100
AcDbEntity
  8
0
100
AcDbPolyline
 62
7
  6
CONTINUOUS
 90
3
 70
0
 10
16.9640097778
 20
13.2800518748
 10
16.9670205946
 20
13.2935482626
 10
16.9691992482
 20
13.3074625541
  0
LWPOLYLINE
  5
2BD
100
AcDbEntity
  8
0
100
AcDbPolyline
 62
7
  6
CONTINUOUS
 90
3
 70
0
 10
17.0850429395
 20
13.6717153296
 10
17.0880537563
 20
13.6852117175
 10
17.0902324099
 20
13.699126009
  0
LINE
  5
2BE
100
AcDbEntity
  8
0
100
AcDbLine
 62
7
  6
CONTINUOUS
 10
17.0910176085
 20
13.7075192323
 11
17.0977190985
 21
13.8148266139
  0
LWPOLYLINE
  5
2BF
100
AcDbEntity
  8
0
100
AcDbPolyline
 62
7
  6
CONTINUOUS
 90
6
 70
0
 10
17.0977202798
 20
13.8148487939
 10
17.0984446297
 20
13.8238368301
 10
17.1006718207
 20
13.8420576185
 10
17.1039933151
 20
13.8620065534
 10
17.1080916192
 20
13.8817316647
 10
17.112536094
 20
13.899411344
  0
LINE
  5
2C0
100
AcDbEntity
  8
0
100
AcDbLine
 62
7
  6
CONTINUOUS
 10
17.0902324099
 20
13.699126009
 11
17.0910207304
 21
13.7075711778
  0
LINE
  5
2C1
100
AcDbEntity
  8
0
100
AcDbLine
 62
7
  6
CONTINUOUS
 10
17.1290860909
 20
13.954829633
 11
17.1276977084
 21
14.1043758357
  0
LINE
  5
2C2
100
AcDbEntity
  8
0
100
AcDbLine
 62
7
  6
CONTINUOUS
 10
17.0546336477
 20
14.2155279377
 11
14.7980342124
 21
14.2155279377
  0
LINE
  5
2C3
100
AcDbEntity
  8
0
100
AcDbLine
 62
7
  6
CONTINUOUS
 10
17.1227793897
 20
14.1235846401
 11
17.0852862192
 21
14.1999876885
  0
ARC
  5
2C4
100
AcDbEntity
  8
0
100
AcDbCircle
 62
7
  6
CONTINUOUS
 10
4.9872068398
 20
5.4359532301
 40
0.025
100
AcDbArc
 50
198.0
 51
270.0
  0
ARC
  5
2C5
100
AcDbEntity
  8
0
100
AcDbCircle
 62
7
  6
CONTINUOUS
 10
5.0581471374
 20
5.217621444
 40
0.025
100
AcDbArc
 50
198.0037285784
 51
270.0011516885
  0
ARC
  5
2C6
100
AcDbEntity
  8
0
100
AcDbCircle
 62
7
  6
CONTINUOUS
 10
4.9803672762
 20
5.6997083408
 40
0.1
100
AcDbArc
 50
180.0
 51
198.0
  0
ARC
  5
2C7
100
AcDbEntity
  8
0
100
AcDbCircle
 62
7
  6
CONTINUOUS
 10
4.9053672762
 20
5.8226198968
 40
0.025
100
AcDbArc
 50
90.0
 51
180.0
  0
ARC
  5
2C8
100
AcDbEntity
  8
0
100
AcDbCircle
 62
7
  6
CONTINUOUS
 10
7.2025869122
 20
5.2176198968
 40
0.025
100
AcDbArc
 50
270.0
 51
342.0
  0
ARC
  5
2C9
100
AcDbEntity
  8
0
100
AcDbCircle
 62
7
  6
CONTINUOUS
 10
7.2735277125
 20
5.4359532301
 40
0.025
100
AcDbArc
 50
270.0
 51
342.0
  0
ARC
  5
2CA
100
AcDbEntity
  8
0
100
AcDbCircle
 62
7
  6
CONTINUOUS
 10
7.2803672762
 20
5.6997083408
 40
0.1
100
AcDbArc
 50
342.0
 51
360.0
  0
ARC
  5
2CB
100
AcDbEntity
  8
0
100
AcDbCircle
 62
7
  6
CONTINUOUS
 10
7.3553672762
 20
5.8226198968
 40
0.025
100
AcDbArc
 50
0.0
 51
90.0
  0
ARC
  5
2CC
100
AcDbEntity
  8
0
100
AcDbCircle
 62
7
  6
CONTINUOUS
 10
13.7539759116
 20
5.1877080378
 40
0.0545833333
100
AcDbArc
 50
193.0
 51
270.0
  0
ARC
  5
2CD
100
AcDbEntity
  8
0
100
AcDbCircle
 62
7
  6
CONTINUOUS
 10
13.8667346023
 20
5.1877080378
 40
0.0545833333
100
AcDbArc
 50
270.0
 51
347.0
  0
ARC
  5
2CE
100
AcDbEntity
  8
0
100
AcDbCircle
 62
7
  6
CONTINUOUS
 10
14.2539759116
 20
5.1877080378
 40
0.0545833333
100
AcDbArc
 50
193.0
 51
270.0
  0
ARC
  5
2CF
100
AcDbEntity
  8
0
100
AcDbCircle
 62
7
  6
CONTINUOUS
 10
14.3667346023
 20
5.1877080378
 40
0.0545833333
100
AcDbArc
 50
270.0
 51
347.0
  0
ARC
  5
2D0
100
AcDbEntity
  8
0
100
AcDbCircle
 62
7
  6
CONTINUOUS
 10
14.7539759116
 20
5.1877080378
 40
0.0545833333
100
AcDbArc
 50
193.0
 51
270.0
  0
ARC
  5
2D1
100
AcDbEntity
  8
0
100
AcDbCircle
 62
7
  6
CONTINUOUS
 10
14.8667346023
 20
5.1877080378
 40
0.0545833333
100
AcDbArc
 50
270.0
 51
347.0
  0
ARC
  5
2D2
100
AcDbEntity
  8
0
100
AcDbCircle
 62
7
  6
CONTINUOUS
 10
15.2539759116
 20
5.1877080378
 40
0.0545833333
100
AcDbArc
 50
193.0
 51
270.0
  0
ARC
  5
2D3
100
AcDbEntity
  8
0
100
AcDbCircle
 62
7
  6
CONTINUOUS
 10
15.3667346023
 20
5.1877080378
 40
0.0545833333
100
AcDbArc
 50
270.0
 51
347.0
  0
ARC
  5
2D4
100
AcDbEntity
  8
0
100
AcDbCircle
 62
7
  6
CONTINUOUS
 10
13.6167346023
 20
5.2968747044
 40
0.0545833333
100
AcDbArc
 50
13.0
 51
90.0
  0
ARC
  5
2D5
100
AcDbEntity
  8
0
100
AcDbCircle
 62
7
  6
CONTINUOUS
 10
14.0039759116
 20
5.2968747044
 40
0.0545833333
100
AcDbArc
 50
90.0
 51
167.0
  0
ARC
  5
2D6
100
AcDbEntity
  8
0
100
AcDbCircle
 62
7
  6
CONTINUOUS
 10
14.1167346023
 20
5.2968747044
 40
0.0545833333
100
AcDbArc
 50
13.0
 51
90.0
  0
ARC
  5
2D7
100
AcDbEntity
  8
0
100
AcDbCircle
 62
7
  6
CONTINUOUS
 10
14.5039759116
 20
5.2968747044
 40
0.0545833333
100
AcDbArc
 50
90.0
 51
167.0
  0
ARC
  5
2D8
100
AcDbEntity
  8
0
100
AcDbCircle
 62
7
  6
CONTINUOUS
 10
14.6167346023
 20
5.2968747044
 40
0.0545833333
100
AcDbArc
 50
13.0
 51
90.0
  0
ARC
  5
2D9
100
AcDbEntity
  8
0
100
AcDbCircle
 62
7
  6
CONTINUOUS
 10
15.0039759116
 20
5.2968747044
 40
0.0545833333
100
AcDbArc
 50
90.0
 51
167.0
  0
ARC
  5
2DA
100
AcDbEntity
  8
0
100
AcDbCircle
 62
7
  6
CONTINUOUS
 10
15.1167346023
 20
5.2968747044
 40
0.0545833333
100
AcDbArc
 50
13.0
 51
90.0
  0
ARC
  5
2DB
100
AcDbEntity
  8
0
100
AcDbCircle
 62
7
  6
CONTINUOUS
 10
15.5039759116
 20
5.2968747044
 40
0.0545833333
100
AcDbArc
 50
90.0
 51
167.0
  0
ARC
  5
2DC
100
AcDbEntity
  8
0
100
AcDbCircle
 62
7
  6
CONTINUOUS
 10
17.3667346023
 20
5.1877080378
 40
0.0545833333
100
AcDbArc
 50
270.0
 51
347.0
  0
ARC
  5
2DD
100
AcDbEntity
  8
0
100
AcDbCircle
 62
7
  6
CONTINUOUS
 10
17.2539759116
 20
5.1877080378
 40
0.0545833333
100
AcDbArc
 50
193.0
 51
270.0
  0
ARC
  5
2DE
100
AcDbEntity
  8
0
100
AcDbCircle
 62
7
  6
CONTINUOUS
 10
16.8667346023
 20
5.1877080378
 40
0.0545833333
100
AcDbArc
 50
270.0
 51
347.0
  0
ARC
  5
2DF
100
AcDbEntity
  8
0
100
AcDbCircle
 62
7
  6
CONTINUOUS
 10
16.7539759116
 20
5.1877080378
 40
0.0545833333
100
AcDbArc
 50
193.0
 51
270.0
  0
ARC
  5
2E0
100
AcDbEntity
  8
0
100
AcDbCircle
 62
7
  6
CONTINUOUS
 10
16.3667346023
 20
5.1877080378
 40
0.0545833333
100
AcDbArc
 50
270.0
 51
347.0
  0
ARC
  5
2E1
100
AcDbEntity
  8
0
100
AcDbCircle
 62
7
  6
CONTINUOUS
 10
16.2539759116
 20
5.1877080378
 40
0.0545833333
100
AcDbArc
 50
193.0
 51
270.0
  0
ARC
  5
2E2
100
AcDbEntity
  8
0
100
AcDbCircle
 62
7
  6
CONTINUOUS
 10
15.8667346023
 20
5.1877080378
 40
0.0545833333
100
AcDbArc
 50
270.0
 51
347.0
  0
ARC
  5
2E3
100
AcDbEntity
  8
0
100
AcDbCircle
 62
7
  6
CONTINUOUS
 10
15.7539759116
 20
5.1877080378
 40
0.0545833333
100
AcDbArc
 50
193.0
 51
270.0
  0
ARC
  5
2E4
100
AcDbEntity
  8
0
100
AcDbCircle
 62
7
  6
CONTINUOUS
 10
17.5039759116
 20
5.2968747044
 40
0.0545833333
100
AcDbArc
 50
90.0
 51
167.0
  0
ARC
  5
2E5
100
AcDbEntity
  8
0
100
AcDbCircle
 62
7
  6
CONTINUOUS
 10
17.1167346023
 20
5.2968747044
 40
0.0545833333
100
AcDbArc
 50
13.0
 51
90.0
  0
ARC
  5
2E6
100
AcDbEntity
  8
0
100
AcDbCircle
 62
7
  6
CONTINUOUS
 10
17.0039759116
 20
5.2968747044
 40
0.0545833333
100
AcDbArc
 50
90.0
 51
167.0
  0
ARC
  5
2E7
100
AcDbEntity
  8
0
100
AcDbCircle
 62
7
  6
CONTINUOUS
 10
16.6167346023
 20
5.2968747044
 40
0.0545833333
100
AcDbArc
 50
13.0
 51
90.0
  0
ARC
  5
2E8
100
AcDbEntity
  8
0
100
AcDbCircle
 62
7
  6
CONTINUOUS
 10
16.5039759116
 20
5.2968747044
 40
0.0545833333
100
AcDbArc
 50
90.0
 51
167.0
  0
ARC
  5
2E9
100
AcDbEntity
  8
0
100
AcDbCircle
 62
7
  6
CONTINUOUS
 10
16.1167346023
 20
5.2968747044
 40
0.0545833333
100
AcDbArc
 50
13.0
 51
90.0
  0
ARC
  5
2EA
100
AcDbEntity
  8
0
100
AcDbCircle
 62
7
  6
CONTINUOUS
 10
16.0039759116
 20
5.2968747044
 40
0.0545833333
100
AcDbArc
 50
90.0
 51
167.0
  0
ARC
  5
2EB
100
AcDbEntity
  8
0
100
AcDbCircle
 62
7
  6
CONTINUOUS
 10
15.6167346023
 20
5.2968747044
 40
0.0545833333
100
AcDbArc
 50
13.0
 51
90.0
  0
SPLINE
  5
2EC
100
AcDbEntity
  8
0
100
AcDbSpline
 62
7
  6
CONTINUOUS
 70
0
 71
3
 72
15
 73
11
 74
0
 42
0.0000001
 43
0.0000001
 44
0.0000000001
 40
0.0
 40
0.0
 40
0.0
 40
0.0
 40
0.1295695462
 40
0.2645772805
 40
0.4012662082
 40
0.5362715324
 40
0.666215302
 40
0.7880994182
 40
0.8998132631
 40
1.0
 40
1.0
 40
1.0
 40
1.0
 10
17.0546336477
 20
14.2155279377
 30
0.0
 10
17.0561819185
 20
14.2155279377
 30
0.0
 10
17.0593458878
 20
14.2153126901
 30
0.0
 10
17.0640684091
 20
14.2144288206
 30
0.0
 10
17.0687247008
 20
14.2130013618
 30
0.0
 10
17.0731365383
 20
14.211086038
 30
0.0
 10
17.0771427141
 20
14.2087573788
 30
0.0
 10
17.0805948018
 20
14.2060960666
 30
0.0
 10
17.0833606324
 20
14.2031999953
 30
0.0
 10
17.0847588167
 20
14.2010624219
 30
0.0
 10
17.0852862192
 20
14.1999876885
 30
0.0
  0
SPLINE
  5
2ED
100
AcDbEntity
  8
0
100
AcDbSpline
 62
7
  6
CONTINUOUS
 70
0
 71
3
 72
15
 73
11
 74
0
 42
0.0000001
 43
0.0000001
 44
0.0000000001
 40
0.0
 40
0.0
 40
0.0
 40
0.0
 40
0.0996452328
 40
0.2028712535
 40
0.3125935084
 40
0.4308551354
 40
0.5588117128
 40
0.6968285182
 40
0.8443974101
 40
1.0
 40
1.0
 40
1.0
 40
1.0
 10
14.7817747097
 20
14.2073688842
 30
0.0
 10
14.781964825
 20
14.2079841199
 30
0.0
 10
14.7825034728
 20
14.2091950542
 30
0.0
 10
14.7837344639
 20
14.2108159892
 30
0.0
 10
14.7853578371
 20
14.2122311586
 30
0.0
 10
14.7873419749
 20
14.2134152265
 30
0.0
 10
14.7896495026
 20
14.2143538624
 30
0.0
 10
14.7922411291
 20
14.2150325702
 30
0.0
 10
14.7950680256
 20
14.2154402452
 30
0.0
 10
14.7970286577
 20
14.2155279377
 30
0.0
 10
14.7980342124
 20
14.2155279377
 30
0.0
  0
SPLINE
  5
2EE
100
AcDbEntity
  8
0
100
AcDbSpline
 62
7
  6
CONTINUOUS
 70
0
 71
3
 72
11
 73
7
 74
0
 42
0.0000001
 43
0.0000001
 44
0.0000000001
 40
0.0
 40
0.0
 40
0.0
 40
0.0
 40
0.2336918564
 40
0.4747261248
 40
0.7289541844
 40
1.0
 40
1.0
 40
1.0
 40
1.0
 10
13.8135094161
 20
11.0740612457
 30
0.0
 10
13.8133345619
 20
11.0734953968
 30
0.0
 10
13.8131042538
 20
11.0723032522
 30
0.0
 10
13.8131465688
 20
11.0704439762
 30
0.0
 10
13.8135643657
 20
11.0685367941
 30
0.0
 10
13.8140658248
 20
11.0672967161
 30
0.0
 10
13.8143684406
 20
11.06668005
 30
0.0
  0
SPLINE
  5
2EF
100
AcDbEntity
  8
0
100
AcDbSpline
 62
7
  6
CONTINUOUS
 70
0
 71
3
 72
10
 73
6
 74
0
 42
0.0000001
 43
0.0000001
 44
0.0000000001
 40
0.0
 40
0.0
 40
0.0
 40
0.0
 40
0.51988348
 40
0.7641608716
 40
1.0
 40
1.0
 40
1.0
 40
1.0
 10
17.1227793897
 20
14.1235846401
 30
0.0
 10
17.1243040136
 20
14.1204777833
 30
0.0
 10
17.126147007
 20
14.1156841767
 30
0.0
 10
17.1274438016
 20
14.1091431829
 30
0.0
 10
17.1276831337
 20
14.1059457134
 30
0.0
 10
17.1276977084
 20
14.1043758357
 30
0.0
  0
SPLINE
  5
2F0
100
AcDbEntity
  8
0
100
AcDbSpline
 62
7
  6
CONTINUOUS
 70
0
 71
3
 72
14
 73
10
 74
0
 42
0.0000001
 43
0.0000001
 44
0.0000000001
 40
0.0
 40
0.0
 40
0.0
 40
0.0
 40
0.1556614511
 40
0.3032881586
 40
0.5687995961
 40
0.6870993967
 40
0.7968477066
 40
0.9001599492
 40
1.0
 40
1.0
 40
1.0
 40
1.0
 10
16.1441907394
 20
10.8107839464
 30
0.0
 10
16.1451960992
 20
10.8107839464
 30
0.0
 10
16.1471572497
 20
10.8108716386
 30
0.0
 10
16.1507949396
 20
10.8113963579
 30
0.0
 10
16.1541152044
 20
10.8124402577
 30
0.0
 10
16.1568650191
 20
10.8140790023
 30
0.0
 10
16.1584893034
 20
10.8154930389
 30
0.0
 10
16.1597207609
 20
10.817114844
 30
0.0
 10
16.1602586414
 20
10.8183272862
 30
0.0
 10
16.160448895
 20
10.8189434106
 30
0.0
  0
SPLINE
  5
2F1
100
AcDbEntity
  8
0
100
AcDbSpline
 62
7
  6
CONTINUOUS
 70
0
 71
3
 72
15
 73
11
 74
0
 42
0.0000001
 43
0.0000001
 44
0.0000000001
 40
0.0
 40
0.0
 40
0.0
 40
0.0
 40
0.1121030379
 40
0.2317713318
 40
0.3571209008
 40
0.4862728417
 40
0.6172597955
 40
0.7480178346
 40
0.8764055653
 40
1.0
 40
1.0
 40
1.0
 40
1.0
 10
14.0111807686
 20
10.8215219945
 30
0.0
 10
14.0119597896
 20
10.8207206755
 30
0.0
 10
14.0136854017
 20
10.8191737324
 30
0.0
 10
14.0165914546
 20
10.817106241
 30
0.0
 10
14.0198423731
 20
10.8152645474
 30
0.0
 10
14.0233540919
 20
10.8136904072
 30
0.0
 10
14.0270447378
 20
10.812423251
 30
0.0
 10
14.0308261701
 20
10.8114907233
 30
0.0
 10
14.0346042399
 20
10.8109209499
 30
0.0
 10
14.0371176231
 20
10.8107839464
 30
0.0
 10
14.0383497637
 20
10.8107839464
 30
0.0
  0
SPLINE
  5
2F2
100
AcDbEntity
  8
0
100
AcDbSpline
 62
7
  6
CONTINUOUS
 70
0
 71
3
 72
9
 73
5
 74
0
 42
0.0000001
 43
0.0000001
 44
0.0000000001
 40
0.0
 40
0.0
 40
0.0
 40
0.0
 40
0.4779587912
 40
1.0
 40
1.0
 40
1.0
 40
1.0
 10
13.8518616111
 20
10.9902770016
 30
0.0
 10
13.8535323065
 20
10.9868724822
 30
0.0
 10
13.8577268584
 20
10.9800839456
 30
0.0
 10
13.8629086024
 20
10.9740381549
 30
0.0
 10
13.8657959165
 20
10.9710681972
 30
0.0
  0
SPLINE
  5
2F3
100
AcDbEntity
  8
0
100
AcDbSpline
 62
7
  6
CONTINUOUS
 70
0
 71
3
 72
15
 73
11
 74
0
 42
0.0000001
 43
0.0000001
 44
0.0000000001
 40
0.0
 40
0.0
 40
0.0
 40
0.0
 40
0.1001867369
 40
0.2119005818
 40
0.333784698
 40
0.4637284676
 40
0.5987337918
 40
0.7354227195
 40
0.8704304538
 40
1.0
 40
1.0
 40
1.0
 40
1.0
 10
16.1170209256
 20
11.06668005
 30
0.0
 10
16.1164935231
 20
11.0677547834
 30
0.0
 10
16.1150953388
 20
11.0698923568
 30
0.0
 10
16.1123295082
 20
11.0727884281
 30
0.0
 10
16.1088774205
 20
11.0754497402
 30
0.0
 10
16.1048712446
 20
11.0777783995
 30
0.0
 10
16.1004594072
 20
11.0796937233
 30
0.0
 10
16.0958031154
 20
11.0811211821
 30
0.0
 10
16.0910805942
 20
11.0820050516
 30
0.0
 10
16.0879166248
 20
11.0822202992
 30
0.0
 10
16.0863683541
 20
11.0822202992
 30
0.0
  0
SPLINE
  5
2F4
100
AcDbEntity
  8
0
100
AcDbSpline
 62
7
  6
CONTINUOUS
 70
0
 71
3
 72
15
 73
11
 74
0
 42
0.0000001
 43
0.0000001
 44
0.0000000001
 40
0.0
 40
0.0
 40
0.0
 40
0.0
 40
0.1556025899
 40
0.3031714818
 40
0.4411882872
 40
0.5691448646
 40
0.6874064916
 40
0.7971287465
 40
0.9003547672
 40
1.0
 40
1.0
 40
1.0
 40
1.0
 10
13.8297689188
 20
11.0822202992
 30
0.0
 10
13.8287633641
 20
11.0822202992
 30
0.0
 10
13.8268027319
 20
11.0821326067
 30
0.0
 10
13.8239758354
 20
11.0817249317
 30
0.0
 10
13.8213842089
 20
11.0810462238
 30
0.0
 10
13.8190766813
 20
11.080107588
 30
0.0
 10
13.8170925434
 20
11.0789235201
 30
0.0
 10
13.8154691703
 20
11.0775083507
 30
0.0
 10
13.8142381792
 20
11.0758874157
 30
0.0
 10
13.8136995313
 20
11.0746764814
 30
0.0
 10
13.8135094161
 20
11.0740612457
 30
0.0
  0
SPLINE
  5
2F5
100
AcDbEntity
  8
0
100
AcDbSpline
 62
7
  6
CONTINUOUS
 70
0
 71
3
 72
10
 73
6
 74
0
 42
0.0000001
 43
0.0000001
 44
0.0000000001
 40
0.0
 40
0.0
 40
0.0
 40
0.0
 40
0.2358391284
 40
0.48011652
 40
1.0
 40
1.0
 40
1.0
 40
1.0
 10
16.1594324148
 20
10.9710681972
 30
0.0
 10
16.1594178401
 20
10.9726380749
 30
0.0
 10
16.159178508
 20
10.9758355444
 30
0.0
 10
16.1578817133
 20
10.9823765381
 30
0.0
 10
16.1560387199
 20
10.9871701448
 30
0.0
 10
16.1545140961
 20
10.9902770016
 30
0.0
  0
ENDSEC
  0
SECTION
  2
OBJECTS
  0
DICTIONARY
  5
C
100
AcDbDictionary
280
0
281
1
  3
ACAD_GROUP
350
D
  3
ACAD_MLINESTYLE
350
17
  3
ACAD_LAYOUT
350
1A
  3
ACAD_PLOTSETTINGS
350
19
  3
ACAD_PLOTSTYLENAME
350
E
  0
DICTIONARY
  5
D
102
{ACAD_REACTORS
330
C
102
}
100
AcDbDictionary
280
0
281
1
  0
ACDBDICTIONARYWDFLT
  5
E
102
{ACAD_REACTORS
330
C
102
}
100
AcDbDictionary
281
1
  3
Normal
350
F
100
AcDbDictionaryWithDefault
340
F
  0
DICTIONARY
  5
17
102
{ACAD_REACTORS
330
C
102
}
100
AcDbDictionary
280
0
281
1
  3
Standard
350
18
  0
DICTIONARY
  5
19
102
{ACAD_REACTORS
330
C
102
}
100
AcDbDictionary
281
1
  0
DICTIONARY
  5
1A
102
{ACAD_REACTORS
330
C
102
}
100
AcDbDictionary
281
1
  3
Model
350
2F6
  3
Layout1
350
2F7
  0
ACDBPLACEHOLDER
  5
F
102
{ACAD_REACTORS
330
E
102
}
  0
MLINESTYLE
  5
18
102
{ACAD_REACTORS
330
17
102
}
100
AcDbMlineStyle
  2
STANDARD
 70
0
  3

 62
256
 51
90.0
 52
90.0
 71
2
 49
0.5
 62
256
  6
BYLAYER
 49
-0.5
 62
256
  6
BYLAYER
  0
LAYOUT
  5
2F6
102
{ACAD_REACTORS
330
1A
102
}
100
AcDbPlotSettings
  1

  2
none_device
  4
ANSI_C_(22.00_x_17.00_Inches)
  6

 40
0.0
 41
0.0
 42
0.0
 43
0.0
 44
558.8
 45
431.8
 46
0.0
 47
0.0
 48
0.0
 49
0.0
140
0.0
141
0.0
142
1.0
143
1.0
 70
1024
 72
0
 73
0
 74
0
  7

 75
0
147
1.0
148
0.0
149
0.0
100
AcDbLayout
  1
Model
 70
0
 71
0
 10
0.0
 20
0.0
 11
22.0
 21
17.0
 12
0.0
 22
0.0
 32
0.0
 14
0.0
 24
0.0
 34
0.0
 15
0.0
 25
0.0
 35
0.0
146
0.0
 13
0.0
 23
0.0
 33
0.0
 16
1.0
 26
0.0
 36
0.0
 17
0.0
 27
1.0
 37
0.0
 76
0
330
216
345
0
346
0
  0
LAYOUT
  5
2F7
102
{ACAD_REACTORS
330
1A
102
}
100
AcDbPlotSettings
  1

  2
none_device
  4
ANSI_C_(22.00_x_17.00_Inches)
  6

 40
0.0
 41
0.0
 42
0.0
 43
0.0
 44
558.8
 45
431.8
 46
0.0
 47
0.0
 48
0.0
 49
0.0
140
0.0
141
0.0
142
1.0
143
1.0
 70
0
 72
0
 73
0
 74
0
  7

 75
0
147
1.0
148
0.0
149
0.0
100
AcDbLayout
  1
Layout1
 70
0
 71
1
 10
0.0
 20
0.0
 11
22.0
 21
17.0
 12
0.0
 22
0.0
 32
0.0
 14
0.0
 24
0.0
 34
0.0
 15
0.0
 25
0.0
 35
0.0
146
0.0
 13
0.0
 23
0.0
 33
0.0
 16
1.0
 26
0.0
 36
0.0
 17
0.0
 27
1.0
 37
0.0
 76
0
330
217
345
0
346
0
  0
ENDSEC
  0
EOF