999
DXF file: _cgs_temp_output.dxf
999
Pro/ENGINEER 2016360 by Parametric Technology Corporation
  0
SECTION
  2
HEADER
  9
$ACADVER
  1
AC1021
  9
$DWGCODEPAGE
  3
ANSI_1252
  9
$EXTMAX
 10
22.0
 20
17.0
 30
0.0
  9
$EXTMIN
 10
0.0
 20
0.0
 30
0.0
  9
$LIMMIN
 10
0.0
 20
0.0
  9
$LIMMAX
 10
22.0
 20
17.0
  9
$VIEWCTR
 10
11.0
 20
8.5
  9
$VIEWSIZE
 40
17.0
  9
$CLAYER
  8
0
  9
$LTSCALE
 40
1.21
  9
$CELTYPE
  6
BYLAYER
  9
$DIMSCALE
 40
1.0
  9
$DIMASZ
 40
0.1875
  9
$DIMEXO
 40
0.0625
  9
$DIMDLI
 40
0.836
  9
$DIMEXE
 40
0.125
  9
$DIMCEN
 40
0.198
  9
$DIMLFAC
 40
1.0
  9
$DIMBLK
  1
_CLOSED
  9
$DIMALT
 70
0
  9
$DIMALTF
 40
25.4
  9
$DIMTXT
 40
0.15625
  9
$DIMTOL
 70
0
  9
$DIMLIM
 70
0
  9
$DIMTFAC
 40
1.0
  9
$DIMGAP
 40
0.09
  9
$DIMDSEP
 70
46
  9
$AUNITS
 70
0
  9
$PDMODE
 70
3
  9
$PDSIZE
 40
0.3125
  9
$HANDSEED
  5
2F6
  9
$TILEMODE
 70
1
  9
$MEASUREMENT
 70
0
  9
$INSUNITS
 70
1
  0
ENDSEC
  0
SECTION
  2
CLASSES
  0
CLASS
  1
ACDBDICTIONARYWDFLT
  2
AcDbDictionaryWithDefault
  3
AutoCAD 2000
 90
0
 91
1
280
0
281
0
  0
CLASS
  1
ACDBPLACEHOLDER
  2
AcDbPlaceHolder
  3
AutoCAD 2000
 90
0
 91
1
280
0
281
0
  0
CLASS
  1
LAYOUT
  2
AcDbLayout
  3
AutoCAD 2000
 90
0
 91
0
280
0
281
0
  0
ENDSEC
  0
SECTION
  2
TABLES
  0
TABLE
  2
VPORT
  5
8
100
AcDbSymbolTable
 70
2
  0
VPORT
  5
1F4
100
AcDbSymbolTableRecord
100
AcDbViewportTableRecord
  2
*ACTIVE
 70
0
 10
0.0
 20
0.0
 11
1.0
 21
1.0
 12
11.0
 22
8.5
 13
0.0
 23
0.0
 14
1.0
 24
1.0
 15
0.0
 25
0.0
 16
0.0
 26
0.0
 36
1.0
 17
0.0
 27
0.0
 37
0.0
 40
17.0
 41
1.2941176471
 42
50.0
 43
0.0
 44
0.0
 50
0.0
 51
0.0
 71
0
 72
100
 73
1
 74
1
 75
0
 76
0
 77
0
 78
0
  0
ENDTAB
  0
TABLE
  2
LTYPE
  5
5
100
AcDbSymbolTable
 70
6
  0
LTYPE
  5
14
100
AcDbSymbolTableRecord
100
AcDbLinetypeTableRecord
  2
BYBLOCK
 70
0
  3

 72
65
 73
0
 40
0.0
  0
LTYPE
  5
15
100
AcDbSymbolTableRecord
100
AcDbLinetypeTableRecord
  2
BYLAYER
 70
0
  3

 72
65
 73
0
 40
0.0
  0
LTYPE
  5
16
100
AcDbSymbolTableRecord
100
AcDbLinetypeTableRecord
  2
CONTINUOUS
 70
64
  3
Solid line
 72
65
 73
0
 40
0.0
  0
LTYPE
  5
1F5
100
AcDbSymbolTableRecord
100
AcDbLinetypeTableRecord
  2
CENTER
 70
64
  3
____ _ ____ _ ____ _ ____ _ ____ _ ____ _ ____
 72
65
 73
4
 40
0.6
 49
0.375
 74
0
 49
-0.075
 74
0
 49
0.075
 74
0
 49
-0.075
 74
0
  0
LTYPE
  5
1F6
100
AcDbSymbolTableRecord
100
AcDbLinetypeTableRecord
  2
HIDDEN
 70
64
  3
- - - - - - - - - - - - - - - - - - - -
 72
65
 73
2
 40
0.2
 49
0.1
 74
0
 49
-0.1
 74
0
  0
LTYPE
  5
1F7
100
AcDbSymbolTableRecord
100
AcDbLinetypeTableRecord
  2
PHANTOM
 70
64
  3
_____ _ _ _____ _ _ _____ _ _ _____
 72
65
 73
6
 40
0.8
 49
0.45
 74
0
 49
-0.05
 74
0
 49
0.1
 74
0
 49
-0.05
 74
0
 49
0.1
 74
0
 49
-0.05
 74
0
  0
LTYPE
  5
1F8
100
AcDbSymbolTableRecord
100
AcDbLinetypeTableRecord
  2
DOT
 70
64
  3
. . . . . . . . . . . . . . . . . . . .
 72
65
 73
2
 40
0.2
 49
0.1
 74
0
 49
-0.1
 74
0
  0
LTYPE
  5
1F9
100
AcDbSymbolTableRecord
100
AcDbLinetypeTableRecord
  2
DASHED
 70
64
  3
- - - - - - - - - - - - - - - - - - - -
 72
65
 73
2
 40
0.2
 49
0.1
 74
0
 49
-0.1
 74
0
  0
ENDTAB
  0
TABLE
  2
LAYER
  5
2
100
AcDbSymbolTable
 70
36
  0
LAYER
  5
10
100
AcDbSymbolTableRecord
100
AcDbLayerTableRecord
  2
0
 70
0
 62
7
  6
CONTINUOUS
370
-3
390
F
  0
LAYER
  5
1FA
100
AcDbSymbolTableRecord
100
AcDbLayerTableRecord
  2
DEFAULT_1
 70
0
 62
7
  6
CENTER
370
-3
390
F
  0
LAYER
  5
1FB
100
AcDbSymbolTableRecord
100
AcDbLayerTableRecord
  2
DEFAULT_2
 70
0
 62
8
  6
HIDDEN
370
-3
390
F
  0
LAYER
  5
1FC
100
AcDbSymbolTableRecord
100
AcDbLayerTableRecord
  2
DEFAULT_3
 70
0
 62
7
  6
PHANTOM
370
-3
390
F
  0
LAYER
  5
1FD
100
AcDbSymbolTableRecord
100
AcDbLayerTableRecord
  2
01_ALL_DTM_PLN
 70
0
 62
7
  6
CONTINUOUS
370
-3
390
F
  0
LAYER
  5
1FE
100
AcDbSymbolTableRecord
100
AcDbLayerTableRecord
  2
01__ASM_ALL_DTM_PLN
 70
0
 62
7
  6
CONTINUOUS
370
-3
390
F
  0
LAYER
  5
1FF
100
AcDbSymbolTableRecord
100
AcDbLayerTableRecord
  2
01__ASM_DEF_DTM_PLN
 70
0
 62
7
  6
CONTINUOUS
370
-3
390
F
  0
LAYER
  5
200
100
AcDbSymbolTableRecord
100
AcDbLayerTableRecord
  2
01___PRT_ALL_DTM_PLN
 70
0
 62
7
  6
CONTINUOUS
370
-3
390
F
  0
LAYER
  5
201
100
AcDbSymbolTableRecord
100
AcDbLayerTableRecord
  2
01___PRT_DEF_DTM_PLN
 70
0
 62
7
  6
CONTINUOUS
370
-3
390
F
  0
LAYER
  5
202
100
AcDbSymbolTableRecord
100
AcDbLayerTableRecord
  2
02_ALL_AXES
 70
0
 62
7
  6
CONTINUOUS
370
-3
390
F
  0
LAYER
  5
203
100
AcDbSymbolTableRecord
100
AcDbLayerTableRecord
  2
02__ASM_ALL_AXES
 70
0
 62
7
  6
CONTINUOUS
370
-3
390
F
  0
LAYER
  5
204
100
AcDbSymbolTableRecord
100
AcDbLayerTableRecord
  2
02___PRT_ALL_AXES
 70
0
 62
7
  6
CONTINUOUS
370
-3
390
F
  0
LAYER
  5
205
100
AcDbSymbolTableRecord
100
AcDbLayerTableRecord
  2
03_ALL_CURVES
 70
0
 62
7
  6
CONTINUOUS
370
-3
390
F
  0
LAYER
  5
206
100
AcDbSymbolTableRecord
100
AcDbLayerTableRecord
  2
03__ASM_ALL_CURVES
 70
0
 62
7
  6
CONTINUOUS
370
-3
390
F
  0
LAYER
  5
207
100
AcDbSymbolTableRecord
100
AcDbLayerTableRecord
  2
03___PRT_ALL_CURVES
 70
0
 62
7
  6
CONTINUOUS
370
-3
390
F
  0
LAYER
  5
208
100
AcDbSymbolTableRecord
100
AcDbLayerTableRecord
  2
04_ALL_DTM_PNT
 70
0
 62
7
  6
CONTINUOUS
370
-3
390
F
  0
LAYER
  5
209
100
AcDbSymbolTableRecord
100
AcDbLayerTableRecord
  2
04__ASM_ALL_DTM_PNT
 70
0
 62
7
  6
CONTINUOUS
370
-3
390
F
  0
LAYER
  5
20A
100
AcDbSymbolTableRecord
100
AcDbLayerTableRecord
  2
04___PRT_ALL_DTM_PNT
 70
0
 62
7
  6
CONTINUOUS
370
-3
390
F
  0
LAYER
  5
20B
100
AcDbSymbolTableRecord
100
AcDbLayerTableRecord
  2
05_ALL_DTM_CSYS
 70
0
 62
7
  6
CONTINUOUS
370
-3
390
F
  0
LAYER
  5
20C
100
AcDbSymbolTableRecord
100
AcDbLayerTableRecord
  2
05__ASM_ALL_DTM_CSYS
 70
0
 62
7
  6
CONTINUOUS
370
-3
390
F
  0
LAYER
  5
20D
100
AcDbSymbolTableRecord
100
AcDbLayerTableRecord
  2
05__ASM_DEF_DTM_CSYS
 70
0
 62
7
  6
CONTINUOUS
370
-3
390
F
  0
LAYER
  5
20E
100
AcDbSymbolTableRecord
100
AcDbLayerTableRecord
  2
05___PRT_ALL_DTM_CSYS
 70
0
 62
7
  6
CONTINUOUS
370
-3
390
F
  0
LAYER
  5
20F
100
AcDbSymbolTableRecord
100
AcDbLayerTableRecord
  2
05___PRT_DEF_DTM_CSYS
 70
0
 62
7
  6
CONTINUOUS
370
-3
390
F
  0
LAYER
  5
210
100
AcDbSymbolTableRecord
100
AcDbLayerTableRecord
  2
06_ALL_SURFS
 70
0
 62
7
  6
CONTINUOUS
370
-3
390
F
  0
LAYER
  5
211
100
AcDbSymbolTableRecord
100
AcDbLayerTableRecord
  2
06__ASM_ALL_SURFS
 70
0
 62
7
  6
CONTINUOUS
370
-3
390
F
  0
LAYER
  5
212
100
AcDbSymbolTableRecord
100
AcDbLayerTableRecord
  2
06___PRT_ALL_SURFS
 70
0
 62
7
  6
CONTINUOUS
370
-3
390
F
  0
LAYER
  5
213
100
AcDbSymbolTableRecord
100
AcDbLayerTableRecord
  2
07__ASM_ALL_SKELETONS
 70
0
 62
7
  6
CONTINUOUS
370
-3
390
F
  0
ENDTAB
  0
TABLE
  2
STYLE
  5
3
100
AcDbSymbolTable
 70
1
  0
STYLE
  5
11
100
AcDbSymbolTableRecord
100
AcDbTextStyleTableRecord
  2
STANDARD
 70
0
 40
0.0
 41
0.8
 50
0.0
 71
0
 42
0.2
  3
txt
  4

  0
STYLE
  5
214
100
AcDbSymbolTableRecord
100
AcDbTextStyleTableRecord
  2
TEXTSTYLE_1
 70
0
 40
0.0
 41
0.8
 50
0.0
 71
0
 42
0.2
  3
gdt
  4

  0
ENDTAB
  0
TABLE
  2
VIEW
  5
6
100
AcDbSymbolTable
 70
0
  0
ENDTAB
  0
TABLE
  2
UCS
  5
7
100
AcDbSymbolTable
 70
0
  0
ENDTAB
  0
TABLE
  2
APPID
  5
9
100
AcDbSymbolTable
 70
1
  0
APPID
  5
215
100
AcDbSymbolTableRecord
100
AcDbRegAppTableRecord
  2
ACAD
 70
0
  0
ENDTAB
  0
TABLE
  2
BLOCK_RECORD
  5
1
100
AcDbSymbolTable
 70
0
  0
BLOCK_RECORD
  5
216
100
AcDbSymbolTableRecord
100
AcDbBlockTableRecord
  2
*Model_Space
  0
BLOCK_RECORD
  5
217
100
AcDbSymbolTableRecord
100
AcDbBlockTableRecord
  2
*Paper_Space
  0
ENDTAB
  0
TABLE
  2
DIMSTYLE
  5
A
100
AcDbSymbolTable
 70
1
100
AcDbDimStyleTable
 71
0
  0
DIMSTYLE
105
218
100
AcDbSymbolTableRecord
100
AcDbDimStyleTableRecord
  2
STANDARD
 70
0
  3

  4

 40
1.0
 41
0.1875
 42
0.0625
 43
0.38
 44
0.125
 45
0.0
 46
0.0
 47
0.0001
 48
0.0001
140
0.15625
141
0.09
142
0.0
143
25.4
144
1.0
145
0.0
146
1.0
147
0.09
 71
0.0
 72
0.0
 73
1
 74
1
 75
0
 76
0
 77
0
 78
4
 79
1
170
0
171
3
172
0
173
0
174
0
175
0
176
0
177
0
178
0
270
2
179
4
271
4
272
4
273
2
274
2
275
0
280
0
281
0
282
0
283
1
284
4
285
0
286
0
287
3
288
0
340
11
278
46
  0
ENDTAB
  0
ENDSEC
  0
SECTION
  2
BLOCKS
  0
BLOCK
  5
20
100
AcDbEntity
  8
0
100
AcDbBlockBegin
  2
*Model_Space
 70
0
 10
0.0
 20
0.0
 30
0.0
  3
*Model_Space
  1

  0
ENDBLK
  5
21
100
AcDbEntity
  8
0
100
AcDbBlockEnd
  0
BLOCK
  5
1C
100
AcDbEntity
  8
0
100
AcDbBlockBegin
  2
*Paper_Space
 70
0
 10
0.0
 20
0.0
 30
0.0
  3
*Paper_Space
  1

  0
ENDBLK
  5
1D
100
AcDbEntity
  8
0
100
AcDbBlockEnd
  0
ENDSEC
  0
SECTION
  2
ENTITIES
  0
MTEXT
  5
219
100
AcDbEntity
  8
0
100
AcDbMText
 62
7
  6
CONTINUOUS
  7
STANDARD
 71
1
 72
1
 10
15.9560215477
 20
0.9479130325
 30
0.0
 11
1.0
 21
0.0
 31
0.0
 44
0.9
  1
SCALE: 1:1.000
 40
0.3
 41
3.36
  0
LINE
  5
21A
100
AcDbEntity
  8
0
100
AcDbLine
 62
7
  6
CONTINUOUS
 10
0.0
 20
0.0
 11
0.0
 21
17.0
  0
LINE
  5
21B
100
AcDbEntity
  8
0
100
AcDbLine
 62
7
  6
CONTINUOUS
 10
0.0
 20
0.0
 11
22.0
 21
0.0
  0
LINE
  5
21C
100
AcDbEntity
  8
0
100
AcDbLine
 62
7
  6
CONTINUOUS
 10
0.0
 20
17.0
 11
22.0
 21
17.0
  0
LINE
  5
21D
100
AcDbEntity
  8
0
100
AcDbLine
 62
7
  6
CONTINUOUS
 10
22.0
 20
0.0
 11
22.0
 21
17.0
  0
LINE
  5
21E
100
AcDbEntity
  8
0
100
AcDbLine
 62
7
  6
CONTINUOUS
 10
5.3943672762
 20
5.5982448968
 11
5.3943672762
 21
5.5461615634
  0
LINE
  5
21F
100
AcDbEntity
  8
0
100
AcDbLine
 62
7
  6
CONTINUOUS
 10
5.3943672762
 20
5.5461615634
 11
5.4157738913
 21
5.4492113138
  0
LINE
  5
220
100
AcDbEntity
  8
0
100
AcDbLine
 62
7
  6
CONTINUOUS
 10
5.4649606611
 20
5.4492113138
 11
5.4863672762
 21
5.5461615634
  0
LINE
  5
221
100
AcDbEntity
  8
0
100
AcDbLine
 62
7
  6
CONTINUOUS
 10
5.4863672762
 20
5.5461615634
 11
5.5077738913
 21
5.4492113138
  0
LINE
  5
222
100
AcDbEntity
  8
0
100
AcDbLine
 62
7
  6
CONTINUOUS
 10
5.5569606611
 20
5.4492113138
 11
5.5783672762
 21
5.5461615634
  0
LINE
  5
223
100
AcDbEntity
  8
0
100
AcDbLine
 62
7
  6
CONTINUOUS
 10
5.5783672762
 20
5.5461615634
 11
5.5997738913
 21
5.4492113138
  0
LINE
  5
224
100
AcDbEntity
  8
0
100
AcDbLine
 62
7
  6
CONTINUOUS
 10
5.6489606611
 20
5.4492113138
 11
5.6703672762
 21
5.5461615634
  0
LINE
  5
225
100
AcDbEntity
  8
0
100
AcDbLine
 62
7
  6
CONTINUOUS
 10
5.6703672762
 20
5.5461615634
 11
5.6917738913
 21
5.4492113138
  0
LINE
  5
226
100
AcDbEntity
  8
0
100
AcDbLine
 62
7
  6
CONTINUOUS
 10
5.7409606611
 20
5.4492113138
 11
5.7623672762
 21
5.5461615634
  0
LINE
  5
227
100
AcDbEntity
  8
0
100
AcDbLine
 62
7
  6
CONTINUOUS
 10
5.7623672762
 20
5.5461615634
 11
5.7837738913
 21
5.4492113138
  0
LINE
  5
228
100
AcDbEntity
  8
0
100
AcDbLine
 62
7
  6
CONTINUOUS
 10
5.8329606611
 20
5.4492113138
 11
5.8543672762
 21
5.5461615634
  0
LINE
  5
229
100
AcDbEntity
  8
0
100
AcDbLine
 62
7
  6
CONTINUOUS
 10
5.8543672762
 20
5.5461615634
 11
5.8757738913
 21
5.4492113138
  0
LINE
  5
22A
100
AcDbEntity
  8
0
100
AcDbLine
 62
7
  6
CONTINUOUS
 10
5.9249606611
 20
5.4492113138
 11
5.9463672762
 21
5.5461615634
  0
LINE
  5
22B
100
AcDbEntity
  8
0
100
AcDbLine
 62
7
  6
CONTINUOUS
 10
5.9463672762
 20
5.5461615634
 11
5.9677738913
 21
5.4492113138
  0
LINE
  5
22C
100
AcDbEntity
  8
0
100
AcDbLine
 62
7
  6
CONTINUOUS
 10
6.0169606611
 20
5.4492113138
 11
6.0383672762
 21
5.5461615634
  0
LINE
  5
22D
100
AcDbEntity
  8
0
100
AcDbLine
 62
7
  6
CONTINUOUS
 10
5.4247575096
 20
5.4419948968
 11
5.4559770427
 21
5.4419948968
  0
LINE
  5
22E
100
AcDbEntity
  8
0
100
AcDbLine
 62
7
  6
CONTINUOUS
 10
5.5167575096
 20
5.4419948968
 11
5.5479770427
 21
5.4419948968
  0
LINE
  5
22F
100
AcDbEntity
  8
0
100
AcDbLine
 62
7
  6
CONTINUOUS
 10
5.6087575096
 20
5.4419948968
 11
5.6399770427
 21
5.4419948968
  0
LINE
  5
230
100
AcDbEntity
  8
0
100
AcDbLine
 62
7
  6
CONTINUOUS
 10
5.7007575096
 20
5.4419948968
 11
5.7319770427
 21
5.4419948968
  0
LINE
  5
231
100
AcDbEntity
  8
0
100
AcDbLine
 62
7
  6
CONTINUOUS
 10
5.7927575096
 20
5.4419948968
 11
5.8239770427
 21
5.4419948968
  0
LINE
  5
232
100
AcDbEntity
  8
0
100
AcDbLine
 62
7
  6
CONTINUOUS
 10
5.8847575096
 20
5.4419948968
 11
5.9159770427
 21
5.4419948968
  0
LINE
  5
233
100
AcDbEntity
  8
0
100
AcDbLine
 62
7
  6
CONTINUOUS
 10
5.9767575096
 20
5.4419948968
 11
6.0079770427
 21
5.4419948968
  0
LINE
  5
234
100
AcDbEntity
  8
0
100
AcDbLine
 62
7
  6
CONTINUOUS
 10
6.0687575096
 20
5.4419948968
 11
6.0999770427
 21
5.4419948968
  0
LINE
  5
235
100
AcDbEntity
  8
0
100
AcDbLine
 62
7
  6
CONTINUOUS
 10
6.1607575096
 20
5.4419948968
 11
6.1919770427
 21
5.4419948968
  0
LINE
  5
236
100
AcDbEntity
  8
0
100
AcDbLine
 62
7
  6
CONTINUOUS
 10
6.2527575096
 20
5.4419948968
 11
6.2839770427
 21
5.4419948968
  0
LINE
  5
237
100
AcDbEntity
  8
0
100
AcDbLine
 62
7
  6
CONTINUOUS
 10
6.3447575096
 20
5.4419948968
 11
6.3759770427
 21
5.4419948968
  0
LINE
  5
238
100
AcDbEntity
  8
0
100
AcDbLine
 62
7
  6
CONTINUOUS
 10
6.4367575096
 20
5.4419948968
 11
6.4679770427
 21
5.4419948968
  0
LINE
  5
239
100
AcDbEntity
  8
0
100
AcDbLine
 62
7
  6
CONTINUOUS
 10
6.5287575096
 20
5.4419948968
 11
6.5599770427
 21
5.4419948968
  0
LINE
  5
23A
100
AcDbEntity
  8
0
100
AcDbLine
 62
7
  6
CONTINUOUS
 10
6.6207575096
 20
5.4419948968
 11
6.6519770427
 21
5.4419948968
  0
LINE
  5
23B
100
AcDbEntity
  8
0
100
AcDbLine
 62
7
  6
CONTINUOUS
 10
6.7127575096
 20
5.4419948968
 11
6.7439770427
 21
5.4419948968
  0
LINE
  5
23C
100
AcDbEntity
  8
0
100
AcDbLine
 62
7
  6
CONTINUOUS
 10
6.8047575096
 20
5.4419948968
 11
6.8359770427
 21
5.4419948968
  0
LINE
  5
23D
100
AcDbEntity
  8
0
100
AcDbLine
 62
7
  6
CONTINUOUS
 10
6.0383672762
 20
5.5461615634
 11
6.0597738913
 21
5.4492113138
  0
LINE
  5
23E
100
AcDbEntity
  8
0
100
AcDbLine
 62
7
  6
CONTINUOUS
 10
6.1089606611
 20
5.4492113138
 11
6.1303672762
 21
5.5461615634
  0
LINE
  5
23F
100
AcDbEntity
  8
0
100
AcDbLine
 62
7
  6
CONTINUOUS
 10
6.1303672762
 20
5.5461615634
 11
6.1517738913
 21
5.4492113138
  0
LINE
  5
240
100
AcDbEntity
  8
0
100
AcDbLine
 62
7
  6
CONTINUOUS
 10
6.2009606611
 20
5.4492113138
 11
6.2223672762
 21
5.5461615634
  0
LINE
  5
241
100
AcDbEntity
  8
0
100
AcDbLine
 62
7
  6
CONTINUOUS
 10
6.8663672762
 20
5.5982448968
 11
5.3943672762
 21
5.5982448968
  0
LINE
  5
242
100
AcDbEntity
  8
0
100
AcDbLine
 62
7
  6
CONTINUOUS
 10
6.2223672762
 20
5.5461615634
 11
6.2437738913
 21
5.4492113138
  0
LINE
  5
243
100
AcDbEntity
  8
0
100
AcDbLine
 62
7
  6
CONTINUOUS
 10
6.2929606611
 20
5.4492113138
 11
6.3143672762
 21
5.5461615634
  0
LINE
  5
244
100
AcDbEntity
  8
0
100
AcDbLine
 62
7
  6
CONTINUOUS
 10
6.3143672762
 20
5.5461615634
 11
6.3357738913
 21
5.4492113138
  0
LINE
  5
245
100
AcDbEntity
  8
0
100
AcDbLine
 62
7
  6
CONTINUOUS
 10
6.3849606611
 20
5.4492113138
 11
6.4063672762
 21
5.5461615634
  0
LINE
  5
246
100
AcDbEntity
  8
0
100
AcDbLine
 62
7
  6
CONTINUOUS
 10
6.4063672762
 20
5.5461615634
 11
6.4277738913
 21
5.4492113138
  0
LINE
  5
247
100
AcDbEntity
  8
0
100
AcDbLine
 62
7
  6
CONTINUOUS
 10
6.4769606611
 20
5.4492113138
 11
6.4983672762
 21
5.5461615634
  0
LINE
  5
248
100
AcDbEntity
  8
0
100
AcDbLine
 62
7
  6
CONTINUOUS
 10
6.4983672762
 20
5.5461615634
 11
6.5197738913
 21
5.4492113138
  0
LINE
  5
249
100
AcDbEntity
  8
0
100
AcDbLine
 62
7
  6
CONTINUOUS
 10
6.5689606611
 20
5.4492113138
 11
6.5903672762
 21
5.5461615634
  0
LINE
  5
24A
100
AcDbEntity
  8
0
100
AcDbLine
 62
7
  6
CONTINUOUS
 10
6.5903672762
 20
5.5461615634
 11
6.6117738913
 21
5.4492113138
  0
LINE
  5
24B
100
AcDbEntity
  8
0
100
AcDbLine
 62
7
  6
CONTINUOUS
 10
6.6609606611
 20
5.4492113138
 11
6.6823672762
 21
5.5461615634
  0
LINE
  5
24C
100
AcDbEntity
  8
0
100
AcDbLine
 62
7
  6
CONTINUOUS
 10
6.6823672762
 20
5.5461615634
 11
6.7037738913
 21
5.4492113138
  0
LINE
  5
24D
100
AcDbEntity
  8
0
100
AcDbLine
 62
7
  6
CONTINUOUS
 10
6.7529606611
 20
5.4492113138
 11
6.7743672762
 21
5.5461615634
  0
LINE
  5
24E
100
AcDbEntity
  8
0
100
AcDbLine
 62
7
  6
CONTINUOUS
 10
6.7743672762
 20
5.5461615634
 11
6.7957738913
 21
5.4492113138
  0
LINE
  5
24F
100
AcDbEntity
  8
0
100
AcDbLine
 62
7
  6
CONTINUOUS
 10
6.8663672762
 20
5.5461615634
 11
6.8663672762
 21
5.5982448968
  0
LINE
  5
250
100
AcDbEntity
  8
0
100
AcDbLine
 62
7
  6
CONTINUOUS
 10
6.8449606611
 20
5.4492113138
 11
6.8663672762
 21
5.5461615634
  0
LINE
  5
251
100
AcDbEntity
  8
0
100
AcDbLine
 62
7
  6
CONTINUOUS
 10
6.8068720839
 20
10.6000477814
 11
5.3348720839
 21
10.6000477814
  0
LINE
  5
252
100
AcDbEntity
  8
0
100
AcDbLine
 62
7
  6
CONTINUOUS
 10
5.3348720839
 20
14.6000477814
 11
5.3348720839
 21
10.6000477814
  0
LINE
  5
253
100
AcDbEntity
  8
0
100
AcDbLine
 62
7
  6
CONTINUOUS
 10
6.8068720839
 20
14.6000477814
 11
6.8068720839
 21
10.6000477814
  0
LINE
  5
254
100
AcDbEntity
  8
0
100
AcDbLine
 62
7
  6
CONTINUOUS
 10
5.3348720839
 20
14.6000477814
 11
6.8068720839
 21
14.6000477814
  0
LINE
  5
255
100
AcDbEntity
  8
0
100
AcDbLine
 62
7
  6
CONTINUOUS
 10
13.5603552569
 20
5.3824997044
 11
13.5603552569
 21
5.5387497044
  0
LINE
  5
256
100
AcDbEntity
  8
0
100
AcDbLine
 62
7
  6
CONTINUOUS
 10
13.5603552569
 20
5.3824997044
 11
17.5603552569
 21
5.3824997044
  0
LINE
  5
257
100
AcDbEntity
  8
0
100
AcDbLine
 62
7
  6
CONTINUOUS
 10
17.5603552569
 20
5.4866663711
 11
13.5603552569
 21
5.4866663711
  0
LINE
  5
258
100
AcDbEntity
  8
0
100
AcDbLine
 62
7
  6
CONTINUOUS
 10
17.5603552569
 20
5.5387497044
 11
13.5603552569
 21
5.5387497044
  0
LINE
  5
259
100
AcDbEntity
  8
0
100
AcDbLine
 62
7
  6
CONTINUOUS
 10
17.5603552569
 20
5.3824997044
 11
17.5603552569
 21
5.5387497044
  0
LINE
  5
25A
100
AcDbEntity
  8
0
100
AcDbLine
 62
7
  6
CONTINUOUS
 10
14.3120941852
 20
10.9603389332
 11
14.3613848685
 21
10.9000736917
  0
LINE
  5
25B
100
AcDbEntity
  8
0
100
AcDbLine
 62
7
  6
CONTINUOUS
 10
14.3968317967
 20
10.9603389332
 11
14.44612248
 21
10.9000736917
  0
LINE
  5
25C
100
AcDbEntity
  8
0
100
AcDbLine
 62
7
  6
CONTINUOUS
 10
14.4815694081
 20
10.9603389332
 11
14.5308600914
 21
10.9000736917
  0
LINE
  5
25D
100
AcDbEntity
  8
0
100
AcDbLine
 62
7
  6
CONTINUOUS
 10
14.296206588
 20
10.9927144524
 11
14.3120941852
 21
10.9603389332
  0
LINE
  5
25E
100
AcDbEntity
  8
0
100
AcDbLine
 62
7
  6
CONTINUOUS
 10
14.3718606383
 20
10.8955878949
 11
14.4006157325
 21
10.8955878949
  0
LINE
  5
25F
100
AcDbEntity
  8
0
100
AcDbLine
 62
7
  6
CONTINUOUS
 10
14.4565982498
 20
10.8955878949
 11
14.4853533439
 21
10.8955878949
  0
LINE
  5
260
100
AcDbEntity
  8
0
100
AcDbLine
 62
7
  6
CONTINUOUS
 10
14.5413358612
 20
10.8955878949
 11
14.5700909554
 21
10.8955878949
  0
LINE
  5
261
100
AcDbEntity
  8
0
100
AcDbLine
 62
7
  6
CONTINUOUS
 10
14.6260734727
 20
10.8955878949
 11
14.6548285668
 21
10.8955878949
  0
LINE
  5
262
100
AcDbEntity
  8
0
100
AcDbLine
 62
7
  6
CONTINUOUS
 10
14.7108110841
 20
10.8955878949
 11
14.7395661783
 21
10.8955878949
  0
LINE
  5
263
100
AcDbEntity
  8
0
100
AcDbLine
 62
7
  6
CONTINUOUS
 10
14.7955486956
 20
10.8955878949
 11
14.8243037897
 21
10.8955878949
  0
LINE
  5
264
100
AcDbEntity
  8
0
100
AcDbLine
 62
7
  6
CONTINUOUS
 10
14.880286307
 20
10.8955878949
 11
14.9090414012
 21
10.8955878949
  0
LINE
  5
265
100
AcDbEntity
  8
0
100
AcDbLine
 62
7
  6
CONTINUOUS
 10
14.9650239185
 20
10.8955878949
 11
14.9937790126
 21
10.8955878949
  0
LINE
  5
266
100
AcDbEntity
  8
0
100
AcDbLine
 62
7
  6
CONTINUOUS
 10
15.0497615299
 20
10.8955878949
 11
15.0785166241
 21
10.8955878949
  0
LINE
  5
267
100
AcDbEntity
  8
0
100
AcDbLine
 62
7
  6
CONTINUOUS
 10
15.1344991413
 20
10.8955878949
 11
15.1632542355
 21
10.8955878949
  0
LINE
  5
268
100
AcDbEntity
  8
0
100
AcDbLine
 62
7
  6
CONTINUOUS
 10
15.2192367528
 20
10.8955878949
 11
15.247991847
 21
10.8955878949
  0
LINE
  5
269
100
AcDbEntity
  8
0
100
AcDbLine
 62
7
  6
CONTINUOUS
 10
15.3039743642
 20
10.8955878949
 11
15.3327294584
 21
10.8955878949
  0
LINE
  5
26A
100
AcDbEntity
  8
0
100
AcDbLine
 62
7
  6
CONTINUOUS
 10
15.3887119757
 20
10.8955878949
 11
15.4174670699
 21
10.8955878949
  0
LINE
  5
26B
100
AcDbEntity
  8
0
100
AcDbLine
 62
7
  6
CONTINUOUS
 10
15.4734495871
 20
10.8955878949
 11
15.5022046813
 21
10.8955878949
  0
LINE
  5
26C
100
AcDbEntity
  8
0
100
AcDbLine
 62
7
  6
CONTINUOUS
 10
15.5581871986
 20
10.8955878949
 11
15.5869422927
 21
10.8955878949
  0
LINE
  5
26D
100
AcDbEntity
  8
0
100
AcDbLine
 62
7
  6
CONTINUOUS
 10
15.64292481
 20
10.8955878949
 11
15.6716799042
 21
10.8955878949
  0
LINE
  5
26E
100
AcDbEntity
  8
0
100
AcDbLine
 62
7
  6
CONTINUOUS
 10
14.5663070196
 20
10.9603389332
 11
14.6155977029
 21
10.9000736917
  0
LINE
  5
26F
100
AcDbEntity
  8
0
100
AcDbLine
 62
7
  6
CONTINUOUS
 10
14.651044631
 20
10.9603389332
 11
14.7003353143
 21
10.9000736917
  0
LINE
  5
270
100
AcDbEntity
  8
0
100
AcDbLine
 62
7
  6
CONTINUOUS
 10
15.6520083712
 20
10.9927144524
 11
14.296206588
 21
10.9927144524
  0
LINE
  5
271
100
AcDbEntity
  8
0
100
AcDbLine
 62
7
  6
CONTINUOUS
 10
14.7357822425
 20
10.9603389332
 11
14.7850729258
 21
10.9000736917
  0
LINE
  5
272
100
AcDbEntity
  8
0
100
AcDbLine
 62
7
  6
CONTINUOUS
 10
14.8205198539
 20
10.9603389332
 11
14.8698105372
 21
10.9000736917
  0
LINE
  5
273
100
AcDbEntity
  8
0
100
AcDbLine
 62
7
  6
CONTINUOUS
 10
14.9052574654
 20
10.9603389332
 11
14.9545481487
 21
10.9000736917
  0
LINE
  5
274
100
AcDbEntity
  8
0
100
AcDbLine
 62
7
  6
CONTINUOUS
 10
14.9899950768
 20
10.9603389332
 11
15.0392857601
 21
10.9000736917
  0
LINE
  5
275
100
AcDbEntity
  8
0
100
AcDbLine
 62
7
  6
CONTINUOUS
 10
15.0747326883
 20
10.9603389332
 11
15.1240233716
 21
10.9000736917
  0
LINE
  5
276
100
AcDbEntity
  8
0
100
AcDbLine
 62
7
  6
CONTINUOUS
 10
15.1594702997
 20
10.9603389332
 11
15.208760983
 21
10.9000736917
  0
LINE
  5
277
100
AcDbEntity
  8
0
100
AcDbLine
 62
7
  6
CONTINUOUS
 10
14.4066888836
 20
10.9000736917
 11
14.3968317967
 21
10.9603389332
  0
LINE
  5
278
100
AcDbEntity
  8
0
100
AcDbLine
 62
7
  6
CONTINUOUS
 10
14.491426495
 20
10.9000736917
 11
14.4815694081
 21
10.9603389332
  0
LINE
  5
279
100
AcDbEntity
  8
0
100
AcDbLine
 62
7
  6
CONTINUOUS
 10
15.2442079112
 20
10.9603389332
 11
15.2934985945
 21
10.9000736917
  0
LINE
  5
27A
100
AcDbEntity
  8
0
100
AcDbLine
 62
7
  6
CONTINUOUS
 10
15.3289455226
 20
10.9603389332
 11
15.3782362059
 21
10.9000736917
  0
LINE
  5
27B
100
AcDbEntity
  8
0
100
AcDbLine
 62
7
  6
CONTINUOUS
 10
14.5761641065
 20
10.9000736917
 11
14.5663070196
 21
10.9603389332
  0
LINE
  5
27C
100
AcDbEntity
  8
0
100
AcDbLine
 62
7
  6
CONTINUOUS
 10
14.6609017179
 20
10.9000736917
 11
14.651044631
 21
10.9603389332
  0
LINE
  5
27D
100
AcDbEntity
  8
0
100
AcDbLine
 62
7
  6
CONTINUOUS
 10
14.4065996615
 20
10.898590294
 11
14.4066888836
 21
10.9000736917
  0
LINE
  5
27E
100
AcDbEntity
  8
0
100
AcDbLine
 62
7
  6
CONTINUOUS
 10
15.4136831341
 20
10.9603389332
 11
15.4629738174
 21
10.9000736917
  0
LINE
  5
27F
100
AcDbEntity
  8
0
100
AcDbLine
 62
7
  6
CONTINUOUS
 10
15.4984207455
 20
10.9603389332
 11
15.5477114288
 21
10.9000736917
  0
LINE
  5
280
100
AcDbEntity
  8
0
100
AcDbLine
 62
7
  6
CONTINUOUS
 10
14.7456393294
 20
10.9000736917
 11
14.7357822425
 21
10.9603389332
  0
LINE
  5
281
100
AcDbEntity
  8
0
100
AcDbLine
 62
7
  6
CONTINUOUS
 10
14.491337273
 20
10.898590294
 11
14.491426495
 21
10.9000736917
  0
LINE
  5
282
100
AcDbEntity
  8
0
100
AcDbLine
 62
7
  6
CONTINUOUS
 10
14.5760748844
 20
10.898590294
 11
14.5761641065
 21
10.9000736917
  0
LINE
  5
283
100
AcDbEntity
  8
0
100
AcDbLine
 62
7
  6
CONTINUOUS
 10
15.583158357
 20
10.9603389332
 11
15.6324490403
 21
10.9000736917
  0
LINE
  5
284
100
AcDbEntity
  8
0
100
AcDbLine
 62
7
  6
CONTINUOUS
 10
14.8303769408
 20
10.9000736917
 11
14.8205198539
 21
10.9603389332
  0
LINE
  5
285
100
AcDbEntity
  8
0
100
AcDbLine
 62
7
  6
CONTINUOUS
 10
14.9151145523
 20
10.9000736917
 11
14.9052574654
 21
10.9603389332
  0
LINE
  5
286
100
AcDbEntity
  8
0
100
AcDbLine
 62
7
  6
CONTINUOUS
 10
14.6608124959
 20
10.898590294
 11
14.6609017179
 21
10.9000736917
  0
LINE
  5
287
100
AcDbEntity
  8
0
100
AcDbLine
 62
7
  6
CONTINUOUS
 10
15.2644718816
 20
14.1260220909
 11
14.296206588
 21
10.9927144524
  0
LINE
  5
288
100
AcDbEntity
  8
0
100
AcDbLine
 62
7
  6
CONTINUOUS
 10
14.9998521637
 20
10.9000736917
 11
14.9899950768
 21
10.9603389332
  0
LINE
  5
289
100
AcDbEntity
  8
0
100
AcDbLine
 62
7
  6
CONTINUOUS
 10
14.7455501073
 20
10.898590294
 11
14.7456393294
 21
10.9000736917
  0
LINE
  5
28A
100
AcDbEntity
  8
0
100
AcDbLine
 62
7
  6
CONTINUOUS
 10
14.8302877188
 20
10.898590294
 11
14.8303769408
 21
10.9000736917
  0
LINE
  5
28B
100
AcDbEntity
  8
0
100
AcDbLine
 62
7
  6
CONTINUOUS
 10
14.4065992191
 20
10.8985904308
 11
14.4177699446
 21
10.9347389119
  0
LINE
  5
28C
100
AcDbEntity
  8
0
100
AcDbLine
 62
7
  6
CONTINUOUS
 10
15.0845897752
 20
10.9000736917
 11
15.0747326883
 21
10.9603389332
  0
LINE
  5
28D
100
AcDbEntity
  8
0
100
AcDbLine
 62
7
  6
CONTINUOUS
 10
15.1693273866
 20
10.9000736917
 11
15.1594702997
 21
10.9603389332
  0
LINE
  5
28E
100
AcDbEntity
  8
0
100
AcDbLine
 62
7
  6
CONTINUOUS
 10
14.9150253302
 20
10.898590294
 11
14.9151145523
 21
10.9000736917
  0
LINE
  5
28F
100
AcDbEntity
  8
0
100
AcDbLine
 62
7
  6
CONTINUOUS
 10
14.4913368305
 20
10.8985904308
 11
14.5025075561
 21
10.9347389119
  0
LINE
  5
290
100
AcDbEntity
  8
0
100
AcDbLine
 62
7
  6
CONTINUOUS
 10
15.6678959684
 20
10.9603389332
 11
15.6520083712
 21
10.9927144524
  0
LINE
  5
291
100
AcDbEntity
  8
0
100
AcDbLine
 62
7
  6
CONTINUOUS
 10
15.2540649981
 20
10.9000736917
 11
15.2442079112
 21
10.9603389332
  0
LINE
  5
292
100
AcDbEntity
  8
0
100
AcDbLine
 62
7
  6
CONTINUOUS
 10
15.3388026095
 20
10.9000736917
 11
15.3289455226
 21
10.9603389332
  0
LINE
  5
293
100
AcDbEntity
  8
0
100
AcDbLine
 62
7
  6
CONTINUOUS
 10
14.999763239
 20
10.8985902019
 11
14.9998521637
 21
10.9000736917
  0
LINE
  5
294
100
AcDbEntity
  8
0
100
AcDbLine
 62
7
  6
CONTINUOUS
 10
15.0845008504
 20
10.8985902019
 11
15.0845897752
 21
10.9000736917
  0
LINE
  5
295
100
AcDbEntity
  8
0
100
AcDbLine
 62
7
  6
CONTINUOUS
 10
14.576074442
 20
10.8985904308
 11
14.5872451675
 21
10.9347389119
  0
LINE
  5
296
100
AcDbEntity
  8
0
100
AcDbLine
 62
7
  6
CONTINUOUS
 10
14.6608120534
 20
10.8985904308
 11
14.671982779
 21
10.9347389119
  0
LINE
  5
297
100
AcDbEntity
  8
0
100
AcDbLine
 62
7
  6
CONTINUOUS
 10
15.423540221
 20
10.9000736917
 11
15.4136831341
 21
10.9603389332
  0
LINE
  5
298
100
AcDbEntity
  8
0
100
AcDbLine
 62
7
  6
CONTINUOUS
 10
15.1692381646
 20
10.898590294
 11
15.1693273866
 21
10.9000736917
  0
LINE
  5
299
100
AcDbEntity
  8
0
100
AcDbLine
 62
7
  6
CONTINUOUS
 10
15.253975776
 20
10.898590294
 11
15.2540649981
 21
10.9000736917
  0
LINE
  5
29A
100
AcDbEntity
  8
0
100
AcDbLine
 62
7
  6
CONTINUOUS
 10
14.7455496649
 20
10.8985904308
 11
14.7567203904
 21
10.9347389119
  0
LINE
  5
29B
100
AcDbEntity
  8
0
100
AcDbLine
 62
7
  6
CONTINUOUS
 10
14.8302872763
 20
10.8985904308
 11
14.8414580019
 21
10.9347389119
  0
LINE
  5
29C
100
AcDbEntity
  8
0
100
AcDbLine
 62
7
  6
CONTINUOUS
 10
15.5082778324
 20
10.9000736917
 11
15.4984207455
 21
10.9603389332
  0
LINE
  5
29D
100
AcDbEntity
  8
0
100
AcDbLine
 62
7
  6
CONTINUOUS
 10
15.5930154439
 20
10.9000736917
 11
15.583158357
 21
10.9603389332
  0
LINE
  5
29E
100
AcDbEntity
  8
0
100
AcDbLine
 62
7
  6
CONTINUOUS
 10
15.3387133875
 20
10.898590294
 11
15.3388026095
 21
10.9000736917
  0
LINE
  5
29F
100
AcDbEntity
  8
0
100
AcDbLine
 62
7
  6
CONTINUOUS
 10
14.9150248878
 20
10.8985904308
 11
14.9261956133
 21
10.9347389119
  0
LINE
  5
2A0
100
AcDbEntity
  8
0
100
AcDbLine
 62
7
  6
CONTINUOUS
 10
15.6777530553
 20
10.9000736917
 11
15.6678959684
 21
10.9603389332
  0
LINE
  5
2A1
100
AcDbEntity
  8
0
100
AcDbLine
 62
7
  6
CONTINUOUS
 10
15.4234509989
 20
10.898590294
 11
15.423540221
 21
10.9000736917
  0
LINE
  5
2A2
100
AcDbEntity
  8
0
100
AcDbLine
 62
7
  6
CONTINUOUS
 10
15.5081886104
 20
10.898590294
 11
15.5082778324
 21
10.9000736917
  0
LINE
  5
2A3
100
AcDbEntity
  8
0
100
AcDbLine
 62
7
  6
CONTINUOUS
 10
14.9997624992
 20
10.8985904308
 11
15.0109332248
 21
10.9347389119
  0
LINE
  5
2A4
100
AcDbEntity
  8
0
100
AcDbLine
 62
7
  6
CONTINUOUS
 10
15.0845001107
 20
10.8985904308
 11
15.0956708362
 21
10.9347389119
  0
LINE
  5
2A5
100
AcDbEntity
  8
0
100
AcDbLine
 62
7
  6
CONTINUOUS
 10
15.5929262218
 20
10.898590294
 11
15.5930154439
 21
10.9000736917
  0
LINE
  5
2A6
100
AcDbEntity
  8
0
100
AcDbLine
 62
7
  6
CONTINUOUS
 10
15.1692377221
 20
10.8985904308
 11
15.1804084477
 21
10.9347389119
  0
LINE
  5
2A7
100
AcDbEntity
  8
0
100
AcDbLine
 62
7
  6
CONTINUOUS
 10
15.2539753335
 20
10.8985904308
 11
15.2651460591
 21
10.9347389119
  0
LINE
  5
2A8
100
AcDbEntity
  8
0
100
AcDbLine
 62
7
  6
CONTINUOUS
 10
15.6776638332
 20
10.898590294
 11
15.6777530553
 21
10.9000736917
  0
LINE
  5
2A9
100
AcDbEntity
  8
0
100
AcDbLine
 62
7
  6
CONTINUOUS
 10
15.338712945
 20
10.8985904308
 11
15.3498836706
 21
10.9347389119
  0
LINE
  5
2AA
100
AcDbEntity
  8
0
100
AcDbLine
 62
7
  6
CONTINUOUS
 10
15.4234505564
 20
10.8985904308
 11
15.434621282
 21
10.9347389119
  0
LINE
  5
2AB
100
AcDbEntity
  8
0
100
AcDbLine
 62
7
  6
CONTINUOUS
 10
15.5081881679
 20
10.8985904308
 11
15.5193588934
 21
10.9347389119
  0
LINE
  5
2AC
100
AcDbEntity
  8
0
100
AcDbLine
 62
7
  6
CONTINUOUS
 10
15.5929257793
 20
10.8985904308
 11
15.6040965049
 21
10.9347389119
  0
LINE
  5
2AD
100
AcDbEntity
  8
0
100
AcDbLine
 62
7
  6
CONTINUOUS
 10
16.6202736648
 20
14.1260220909
 11
15.6520083712
 21
10.9927144524
  0
LINE
  5
2AE
100
AcDbEntity
  8
0
100
AcDbLine
 62
7
  6
CONTINUOUS
 10
16.636161262
 20
14.0936465718
 11
15.6678959684
 21
10.9603389332
  0
LINE
  5
2AF
100
AcDbEntity
  8
0
100
AcDbLine
 62
7
  6
CONTINUOUS
 10
15.6776633908
 20
10.8985904308
 11
16.6459286844
 21
14.0318980693
  0
LINE
  5
2B0
100
AcDbEntity
  8
0
100
AcDbLine
 62
7
  6
CONTINUOUS
 10
16.6460183489
 20
14.0333813302
 11
16.6459291269
 21
14.0318979326
  0
LINE
  5
2B1
100
AcDbEntity
  8
0
100
AcDbLine
 62
7
  6
CONTINUOUS
 10
16.6460183489
 20
14.0333813302
 11
16.636161262
 21
14.0936465718
  0
LINE
  5
2B2
100
AcDbEntity
  8
0
100
AcDbLine
 62
7
  6
CONTINUOUS
 10
15.2644718816
 20
14.1260220909
 11
16.6202736648
 21
14.1260220909
  0
LINE
  5
2B3
100
AcDbEntity
  8
0
100
AcDbLine
 62
7
  6
CONTINUOUS
 10
16.636161262
 20
14.0936465718
 11
16.6202736648
 21
14.1260220909
  0
ARC
  5
2B4
100
AcDbEntity
  8
0
100
AcDbCircle
 62
7
  6
CONTINUOUS
 10
5.4247575096
 20
5.4511948968
 40
0.0092
100
AcDbArc
 50
192.4511317296
 51
270.0
  0
ARC
  5
2B5
100
AcDbEntity
  8
0
100
AcDbCircle
 62
7
  6
CONTINUOUS
 10
5.4559770427
 20
5.4511948968
 40
0.0092
100
AcDbArc
 50
270.0
 51
347.5488682704
  0
ARC
  5
2B6
100
AcDbEntity
  8
0
100
AcDbCircle
 62
7
  6
CONTINUOUS
 10
5.5167575096
 20
5.4511948968
 40
0.0092
100
AcDbArc
 50
192.4511317296
 51
270.0
  0
ARC
  5
2B7
100
AcDbEntity
  8
0
100
AcDbCircle
 62
7
  6
CONTINUOUS
 10
5.5479770427
 20
5.4511948968
 40
0.0092
100
AcDbArc
 50
270.0
 51
347.5488682704
  0
ARC
  5
2B8
100
AcDbEntity
  8
0
100
AcDbCircle
 62
7
  6
CONTINUOUS
 10
5.6087575096
 20
5.4511948968
 40
0.0092
100
AcDbArc
 50
192.4511317296
 51
270.0
  0
ARC
  5
2B9
100
AcDbEntity
  8
0
100
AcDbCircle
 62
7
  6
CONTINUOUS
 10
5.6399770427
 20
5.4511948968
 40
0.0092
100
AcDbArc
 50
270.0
 51
347.5488682704
  0
ARC
  5
2BA
100
AcDbEntity
  8
0
100
AcDbCircle
 62
7
  6
CONTINUOUS
 10
5.7007575096
 20
5.4511948968
 40
0.0092
100
AcDbArc
 50
192.4511317296
 51
270.0
  0
ARC
  5
2BB
100
AcDbEntity
  8
0
100
AcDbCircle
 62
7
  6
CONTINUOUS
 10
5.7319770427
 20
5.4511948968
 40
0.0092
100
AcDbArc
 50
270.0
 51
347.5488682704
  0
ARC
  5
2BC
100
AcDbEntity
  8
0
100
AcDbCircle
 62
7
  6
CONTINUOUS
 10
5.7927575096
 20
5.4511948968
 40
0.0092
100
AcDbArc
 50
192.4511317296
 51
270.0
  0
ARC
  5
2BD
100
AcDbEntity
  8
0
100
AcDbCircle
 62
7
  6
CONTINUOUS
 10
5.8239770427
 20
5.4511948968
 40
0.0092
100
AcDbArc
 50
270.0
 51
347.5488682704
  0
ARC
  5
2BE
100
AcDbEntity
  8
0
100
AcDbCircle
 62
7
  6
CONTINUOUS
 10
5.8847575096
 20
5.4511948968
 40
0.0092
100
AcDbArc
 50
192.4511317296
 51
270.0
  0
ARC
  5
2BF
100
AcDbEntity
  8
0
100
AcDbCircle
 62
7
  6
CONTINUOUS
 10
5.9159770427
 20
5.4511948968
 40
0.0092
100
AcDbArc
 50
270.0
 51
347.5488682704
  0
ARC
  5
2C0
100
AcDbEntity
  8
0
100
AcDbCircle
 62
7
  6
CONTINUOUS
 10
5.9767575096
 20
5.4511948968
 40
0.0092
100
AcDbArc
 50
192.4511317296
 51
270.0
  0
ARC
  5
2C1
100
AcDbEntity
  8
0
100
AcDbCircle
 62
7
  6
CONTINUOUS
 10
6.0079770427
 20
5.4511948968
 40
0.0092
100
AcDbArc
 50
270.0
 51
347.5488682704
  0
ARC
  5
2C2
100
AcDbEntity
  8
0
100
AcDbCircle
 62
7
  6
CONTINUOUS
 10
6.0687575096
 20
5.4511948968
 40
0.0092
100
AcDbArc
 50
192.4511317296
 51
270.0
  0
ARC
  5
2C3
100
AcDbEntity
  8
0
100
AcDbCircle
 62
7
  6
CONTINUOUS
 10
6.0999770427
 20
5.4511948968
 40
0.0092
100
AcDbArc
 50
270.0
 51
347.5488682704
  0
ARC
  5
2C4
100
AcDbEntity
  8
0
100
AcDbCircle
 62
7
  6
CONTINUOUS
 10
6.1607575096
 20
5.4511948968
 40
0.0092
100
AcDbArc
 50
192.4511317296
 51
270.0
  0
ARC
  5
2C5
100
AcDbEntity
  8
0
100
AcDbCircle
 62
7
  6
CONTINUOUS
 10
6.1919770427
 20
5.4511948968
 40
0.0092
100
AcDbArc
 50
270.0
 51
347.5488682704
  0
ARC
  5
2C6
100
AcDbEntity
  8
0
100
AcDbCircle
 62
7
  6
CONTINUOUS
 10
6.2527575096
 20
5.4511948968
 40
0.0092
100
AcDbArc
 50
192.4511317296
 51
270.0
  0
ARC
  5
2C7
100
AcDbEntity
  8
0
100
AcDbCircle
 62
7
  6
CONTINUOUS
 10
6.2839770427
 20
5.4511948968
 40
0.0092
100
AcDbArc
 50
270.0
 51
347.5488682704
  0
ARC
  5
2C8
100
AcDbEntity
  8
0
100
AcDbCircle
 62
7
  6
CONTINUOUS
 10
6.3447575096
 20
5.4511948968
 40
0.0092
100
AcDbArc
 50
192.4511317296
 51
270.0
  0
ARC
  5
2C9
100
AcDbEntity
  8
0
100
AcDbCircle
 62
7
  6
CONTINUOUS
 10
6.3759770427
 20
5.4511948968
 40
0.0092
100
AcDbArc
 50
270.0
 51
347.5488682704
  0
ARC
  5
2CA
100
AcDbEntity
  8
0
100
AcDbCircle
 62
7
  6
CONTINUOUS
 10
6.4367575096
 20
5.4511948968
 40
0.0092
100
AcDbArc
 50
192.4511317296
 51
270.0
  0
ARC
  5
2CB
100
AcDbEntity
  8
0
100
AcDbCircle
 62
7
  6
CONTINUOUS
 10
6.4679770427
 20
5.4511948968
 40
0.0092
100
AcDbArc
 50
270.0
 51
347.5488682704
  0
ARC
  5
2CC
100
AcDbEntity
  8
0
100
AcDbCircle
 62
7
  6
CONTINUOUS
 10
6.5287575096
 20
5.4511948968
 40
0.0092
100
AcDbArc
 50
192.4511317296
 51
270.0
  0
ARC
  5
2CD
100
AcDbEntity
  8
0
100
AcDbCircle
 62
7
  6
CONTINUOUS
 10
6.5599770427
 20
5.4511948968
 40
0.0092
100
AcDbArc
 50
270.0
 51
347.5488682704
  0
ARC
  5
2CE
100
AcDbEntity
  8
0
100
AcDbCircle
 62
7
  6
CONTINUOUS
 10
6.6207575096
 20
5.4511948968
 40
0.0092
100
AcDbArc
 50
192.4511317296
 51
270.0
  0
ARC
  5
2CF
100
AcDbEntity
  8
0
100
AcDbCircle
 62
7
  6
CONTINUOUS
 10
6.6519770427
 20
5.4511948968
 40
0.0092
100
AcDbArc
 50
270.0
 51
347.5488682704
  0
ARC
  5
2D0
100
AcDbEntity
  8
0
100
AcDbCircle
 62
7
  6
CONTINUOUS
 10
6.7127575096
 20
5.4511948968
 40
0.0092
100
AcDbArc
 50
192.4511317296
 51
270.0
  0
ARC
  5
2D1
100
AcDbEntity
  8
0
100
AcDbCircle
 62
7
  6
CONTINUOUS
 10
6.7439770427
 20
5.4511948968
 40
0.0092
100
AcDbArc
 50
270.0
 51
347.5488682704
  0
ARC
  5
2D2
100
AcDbEntity
  8
0
100
AcDbCircle
 62
7
  6
CONTINUOUS
 10
6.8047575096
 20
5.4511948968
 40
0.0092
100
AcDbArc
 50
192.4511317296
 51
270.0
  0
ARC
  5
2D3
100
AcDbEntity
  8
0
100
AcDbCircle
 62
7
  6
CONTINUOUS
 10
6.8359770427
 20
5.4511948968
 40
0.0092
100
AcDbArc
 50
270.0
 51
347.5488682704
  0
SPLINE
  5
2D4
100
AcDbEntity
  8
0
100
AcDbSpline
 62
7
  6
CONTINUOUS
 70
0
 71
3
 72
12
 73
8
 74
0
 42
0.0000001
 43
0.0000001
 44
0.0000000001
 40
0.0
 40
0.0
 40
0.0
 40
0.0
 40
0.3032472245
 40
0.5691991646
 40
0.7966395926
 40
0.9000537989
 40
1.0
 40
1.0
 40
1.0
 40
1.0
 10
15.6716799042
 20
10.8955878949
 30
0.0
 10
15.6723997239
 20
10.8955878949
 30
0.0
 10
15.6737562259
 20
10.8957032092
 30
0.0
 10
15.6755780605
 20
10.8962725837
 30
0.0
 10
15.6767722234
 20
10.8970971059
 30
0.0
 10
15.6773948482
 20
10.897917927
 30
0.0
 10
15.6775933192
 20
10.898363772
 30
0.0
 10
15.6776631104
 20
10.8985905171
 30
0.0
  0
SPLINE
  5
2D5
100
AcDbEntity
  8
0
100
AcDbSpline
 62
7
  6
CONTINUOUS
 70
0
 71
3
 72
12
 73
8
 74
0
 42
0.0000001
 43
0.0000001
 44
0.0000000001
 40
0.0
 40
0.0
 40
0.0
 40
0.0
 40
0.1086520882
 40
0.226248947
 40
0.4801255353
 40
0.7447007984
 40
1.0
 40
1.0
 40
1.0
 40
1.0
 10
15.6324490403
 20
10.9000736917
 30
0.0
 10
15.6327175337
 20
10.8997454182
 30
0.0
 10
15.6333333845
 20
10.8991073238
 30
0.0
 10
15.6348019101
 20
10.8979369667
 30
0.0
 10
15.637001823
 20
10.8967417392
 30
0.0
 10
15.6398952613
 20
10.8958249912
 30
0.0
 10
15.6419283284
 20
10.8955878949
 30
0.0
 10
15.64292481
 20
10.8955878949
 30
0.0
  0
SPLINE
  5
2D6
100
AcDbEntity
  8
0
100
AcDbSpline
 62
7
  6
CONTINUOUS
 70
0
 71
3
 72
12
 73
8
 74
0
 42
0.0000001
 43
0.0000001
 44
0.0000000001
 40
0.0
 40
0.0
 40
0.0
 40
0.0
 40
0.3032472245
 40
0.5691991646
 40
0.7966395926
 40
0.9000537989
 40
1.0
 40
1.0
 40
1.0
 40
1.0
 10
15.5869422927
 20
10.8955878949
 30
0.0
 10
15.5876621125
 20
10.8955878949
 30
0.0
 10
15.5890186145
 20
10.8957032092
 30
0.0
 10
15.590840449
 20
10.8962725837
 30
0.0
 10
15.592034612
 20
10.8970971059
 30
0.0
 10
15.5926572367
 20
10.897917927
 30
0.0
 10
15.5928557077
 20
10.898363772
 30
0.0
 10
15.592925499
 20
10.8985905171
 30
0.0
  0
SPLINE
  5
2D7
100
AcDbEntity
  8
0
100
AcDbSpline
 62
7
  6
CONTINUOUS
 70
0
 71
3
 72
12
 73
8
 74
0
 42
0.0000001
 43
0.0000001
 44
0.0000000001
 40
0.0
 40
0.0
 40
0.0
 40
0.0
 40
0.1086520882
 40
0.226248947
 40
0.4801255353
 40
0.7447007984
 40
1.0
 40
1.0
 40
1.0
 40
1.0
 10
15.5477114288
 20
10.9000736917
 30
0.0
 10
15.5479799223
 20
10.8997454182
 30
0.0
 10
15.548595773
 20
10.8991073238
 30
0.0
 10
15.5500642986
 20
10.8979369667
 30
0.0
 10
15.5522642116
 20
10.8967417392
 30
0.0
 10
15.5551576499
 20
10.8958249912
 30
0.0
 10
15.557190717
 20
10.8955878949
 30
0.0
 10
15.5581871986
 20
10.8955878949
 30
0.0
  0
SPLINE
  5
2D8
100
AcDbEntity
  8
0
100
AcDbSpline
 62
7
  6
CONTINUOUS
 70
0
 71
3
 72
12
 73
8
 74
0
 42
0.0000001
 43
0.0000001
 44
0.0000000001
 40
0.0
 40
0.0
 40
0.0
 40
0.0
 40
0.3032472245
 40
0.5691991646
 40
0.7966395926
 40
0.9000537989
 40
1.0
 40
1.0
 40
1.0
 40
1.0
 10
15.5022046813
 20
10.8955878949
 30
0.0
 10
15.502924501
 20
10.8955878949
 30
0.0
 10
15.504281003
 20
10.8957032092
 30
0.0
 10
15.5061028376
 20
10.8962725837
 30
0.0
 10
15.5072970005
 20
10.8970971059
 30
0.0
 10
15.5079196253
 20
10.897917927
 30
0.0
 10
15.5081180963
 20
10.898363772
 30
0.0
 10
15.5081878875
 20
10.8985905171
 30
0.0
  0
SPLINE
  5
2D9
100
AcDbEntity
  8
0
100
AcDbSpline
 62
7
  6
CONTINUOUS
 70
0
 71
3
 72
12
 73
8
 74
0
 42
0.0000001
 43
0.0000001
 44
0.0000000001
 40
0.0
 40
0.0
 40
0.0
 40
0.0
 40
0.1086520882
 40
0.226248947
 40
0.4801255353
 40
0.7447007984
 40
1.0
 40
1.0
 40
1.0
 40
1.0
 10
15.4629738174
 20
10.9000736917
 30
0.0
 10
15.4632423108
 20
10.8997454182
 30
0.0
 10
15.4638581616
 20
10.8991073238
 30
0.0
 10
15.4653266872
 20
10.8979369667
 30
0.0
 10
15.4675266001
 20
10.8967417392
 30
0.0
 10
15.4704200384
 20
10.8958249912
 30
0.0
 10
15.4724531055
 20
10.8955878949
 30
0.0
 10
15.4734495871
 20
10.8955878949
 30
0.0
  0
SPLINE
  5
2DA
100
AcDbEntity
  8
0
100
AcDbSpline
 62
7
  6
CONTINUOUS
 70
0
 71
3
 72
12
 73
8
 74
0
 42
0.0000001
 43
0.0000001
 44
0.0000000001
 40
0.0
 40
0.0
 40
0.0
 40
0.0
 40
0.3032472245
 40
0.5691991646
 40
0.7966395926
 40
0.9000537989
 40
1.0
 40
1.0
 40
1.0
 40
1.0
 10
15.4174670699
 20
10.8955878949
 30
0.0
 10
15.4181868896
 20
10.8955878949
 30
0.0
 10
15.4195433916
 20
10.8957032092
 30
0.0
 10
15.4213652261
 20
10.8962725837
 30
0.0
 10
15.4225593891
 20
10.8970971059
 30
0.0
 10
15.4231820138
 20
10.897917927
 30
0.0
 10
15.4233804848
 20
10.898363772
 30
0.0
 10
15.4234502761
 20
10.8985905171
 30
0.0
  0
SPLINE
  5
2DB
100
AcDbEntity
  8
0
100
AcDbSpline
 62
7
  6
CONTINUOUS
 70
0
 71
3
 72
12
 73
8
 74
0
 42
0.0000001
 43
0.0000001
 44
0.0000000001
 40
0.0
 40
0.0
 40
0.0
 40
0.0
 40
0.1086520882
 40
0.226248947
 40
0.4801255353
 40
0.7447007984
 40
1.0
 40
1.0
 40
1.0
 40
1.0
 10
15.3782362059
 20
10.9000736917
 30
0.0
 10
15.3785046994
 20
10.8997454182
 30
0.0
 10
15.3791205501
 20
10.8991073238
 30
0.0
 10
15.3805890757
 20
10.8979369667
 30
0.0
 10
15.3827889887
 20
10.8967417392
 30
0.0
 10
15.385682427
 20
10.8958249912
 30
0.0
 10
15.3877154941
 20
10.8955878949
 30
0.0
 10
15.3887119757
 20
10.8955878949
 30
0.0
  0
SPLINE
  5
2DC
100
AcDbEntity
  8
0
100
AcDbSpline
 62
7
  6
CONTINUOUS
 70
0
 71
3
 72
12
 73
8
 74
0
 42
0.0000001
 43
0.0000001
 44
0.0000000001
 40
0.0
 40
0.0
 40
0.0
 40
0.0
 40
0.3032472245
 40
0.5691991646
 40
0.7966395926
 40
0.9000537989
 40
1.0
 40
1.0
 40
1.0
 40
1.0
 10
15.3327294584
 20
10.8955878949
 30
0.0
 10
15.3334492781
 20
10.8955878949
 30
0.0
 10
15.3348057801
 20
10.8957032092
 30
0.0
 10
15.3366276147
 20
10.8962725837
 30
0.0
 10
15.3378217776
 20
10.8970971059
 30
0.0
 10
15.3384444024
 20
10.897917927
 30
0.0
 10
15.3386428734
 20
10.898363772
 30
0.0
 10
15.3387126646
 20
10.8985905171
 30
0.0
  0
SPLINE
  5
2DD
100
AcDbEntity
  8
0
100
AcDbSpline
 62
7
  6
CONTINUOUS
 70
0
 71
3
 72
12
 73
8
 74
0
 42
0.0000001
 43
0.0000001
 44
0.0000000001
 40
0.0
 40
0.0
 40
0.0
 40
0.0
 40
0.1086520882
 40
0.226248947
 40
0.4801255353
 40
0.7447007984
 40
1.0
 40
1.0
 40
1.0
 40
1.0
 10
15.2934985945
 20
10.9000736917
 30
0.0
 10
15.2937670879
 20
10.8997454182
 30
0.0
 10
15.2943829387
 20
10.8991073238
 30
0.0
 10
15.2958514643
 20
10.8979369667
 30
0.0
 10
15.2980513773
 20
10.8967417392
 30
0.0
 10
15.3009448155
 20
10.8958249912
 30
0.0
 10
15.3029778826
 20
10.8955878949
 30
0.0
 10
15.3039743642
 20
10.8955878949
 30
0.0
  0
SPLINE
  5
2DE
100
AcDbEntity
  8
0
100
AcDbSpline
 62
7
  6
CONTINUOUS
 70
0
 71
3
 72
12
 73
8
 74
0
 42
0.0000001
 43
0.0000001
 44
0.0000000001
 40
0.0
 40
0.0
 40
0.0
 40
0.0
 40
0.3032472245
 40
0.5691991646
 40
0.7966395926
 40
0.9000537989
 40
1.0
 40
1.0
 40
1.0
 40
1.0
 10
15.247991847
 20
10.8955878949
 30
0.0
 10
15.2487116667
 20
10.8955878949
 30
0.0
 10
15.2500681687
 20
10.8957032092
 30
0.0
 10
15.2518900032
 20
10.8962725837
 30
0.0
 10
15.2530841662
 20
10.8970971059
 30
0.0
 10
15.2537067909
 20
10.897917927
 30
0.0
 10
15.2539052619
 20
10.898363772
 30
0.0
 10
15.2539750532
 20
10.8985905171
 30
0.0
  0
SPLINE
  5
2DF
100
AcDbEntity
  8
0
100
AcDbSpline
 62
7
  6
CONTINUOUS
 70
0
 71
3
 72
12
 73
8
 74
0
 42
0.0000001
 43
0.0000001
 44
0.0000000001
 40
0.0
 40
0.0
 40
0.0
 40
0.0
 40
0.1086520882
 40
0.226248947
 40
0.4801255353
 40
0.7447007984
 40
1.0
 40
1.0
 40
1.0
 40
1.0
 10
15.208760983
 20
10.9000736917
 30
0.0
 10
15.2090294765
 20
10.8997454182
 30
0.0
 10
15.2096453272
 20
10.8991073238
 30
0.0
 10
15.2111138528
 20
10.8979369667
 30
0.0
 10
15.2133137658
 20
10.8967417392
 30
0.0
 10
15.2162072041
 20
10.8958249912
 30
0.0
 10
15.2182402712
 20
10.8955878949
 30
0.0
 10
15.2192367528
 20
10.8955878949
 30
0.0
  0
SPLINE
  5
2E0
100
AcDbEntity
  8
0
100
AcDbSpline
 62
7
  6
CONTINUOUS
 70
0
 71
3
 72
12
 73
8
 74
0
 42
0.0000001
 43
0.0000001
 44
0.0000000001
 40
0.0
 40
0.0
 40
0.0
 40
0.0
 40
0.3032472245
 40
0.5691991646
 40
0.7966395926
 40
0.9000537989
 40
1.0
 40
1.0
 40
1.0
 40
1.0
 10
15.1632542355
 20
10.8955878949
 30
0.0
 10
15.1639740553
 20
10.8955878949
 30
0.0
 10
15.1653305572
 20
10.8957032092
 30
0.0
 10
15.1671523918
 20
10.8962725837
 30
0.0
 10
15.1683465547
 20
10.8970971059
 30
0.0
 10
15.1689691795
 20
10.897917927
 30
0.0
 10
15.1691676505
 20
10.898363772
 30
0.0
 10
15.1692374417
 20
10.8985905171
 30
0.0
  0
SPLINE
  5
2E1
100
AcDbEntity
  8
0
100
AcDbSpline
 62
7
  6
CONTINUOUS
 70
0
 71
3
 72
12
 73
8
 74
0
 42
0.0000001
 43
0.0000001
 44
0.0000000001
 40
0.0
 40
0.0
 40
0.0
 40
0.0
 40
0.1086520882
 40
0.226248947
 40
0.4801255353
 40
0.7447007984
 40
1.0
 40
1.0
 40
1.0
 40
1.0
 10
15.1240233716
 20
10.9000736917
 30
0.0
 10
15.124291865
 20
10.8997454182
 30
0.0
 10
15.1249077158
 20
10.8991073238
 30
0.0
 10
15.1263762414
 20
10.8979369667
 30
0.0
 10
15.1285761544
 20
10.8967417392
 30
0.0
 10
15.1314695926
 20
10.8958249912
 30
0.0
 10
15.1335026597
 20
10.8955878949
 30
0.0
 10
15.1344991413
 20
10.8955878949
 30
0.0
  0
SPLINE
  5
2E2
100
AcDbEntity
  8
0
100
AcDbSpline
 62
7
  6
CONTINUOUS
 70
0
 71
3
 72
12
 73
8
 74
0
 42
0.0000001
 43
0.0000001
 44
0.0000000001
 40
0.0
 40
0.0
 40
0.0
 40
0.0
 40
0.3032472013
 40
0.5692000621
 40
0.7966411943
 40
0.9000556902
 40
1.0
 40
1.0
 40
1.0
 40
1.0
 10
15.0785166241
 20
10.8955878949
 30
0.0
 10
15.0792364435
 20
10.8955878949
 30
0.0
 10
15.0805929458
 20
10.8957032157
 30
0.0
 10
15.0824147874
 20
10.8962725785
 30
0.0
 10
15.0836089492
 20
10.8970971158
 30
0.0
 10
15.0842315608
 20
10.8979179407
 30
0.0
 10
15.0844300463
 20
10.8983637741
 30
0.0
 10
15.0844998395
 20
10.8985905139
 30
0.0
  0
SPLINE
  5
2E3
100
AcDbEntity
  8
0
100
AcDbSpline
 62
7
  6
CONTINUOUS
 70
0
 71
3
 72
12
 73
8
 74
0
 42
0.0000001
 43
0.0000001
 44
0.0000000001
 40
0.0
 40
0.0
 40
0.0
 40
0.0
 40
0.1086520882
 40
0.226248947
 40
0.4801255353
 40
0.7447007984
 40
1.0
 40
1.0
 40
1.0
 40
1.0
 10
15.0392857601
 20
10.9000736917
 30
0.0
 10
15.0395542536
 20
10.8997454182
 30
0.0
 10
15.0401701043
 20
10.8991073238
 30
0.0
 10
15.0416386299
 20
10.8979369667
 30
0.0
 10
15.0438385429
 20
10.8967417392
 30
0.0
 10
15.0467319812
 20
10.8958249912
 30
0.0
 10
15.0487650483
 20
10.8955878949
 30
0.0
 10
15.0497615299
 20
10.8955878949
 30
0.0
  0
SPLINE
  5
2E4
100
AcDbEntity
  8
0
100
AcDbSpline
 62
7
  6
CONTINUOUS
 70
0
 71
3
 72
12
 73
8
 74
0
 42
0.0000001
 43
0.0000001
 44
0.0000000001
 40
0.0
 40
0.0
 40
0.0
 40
0.0
 40
0.3032472013
 40
0.5692000621
 40
0.7966411943
 40
0.9000556902
 40
1.0
 40
1.0
 40
1.0
 40
1.0
 10
14.9937790126
 20
10.8955878949
 30
0.0
 10
14.994498832
 20
10.8955878949
 30
0.0
 10
14.9958553343
 20
10.8957032157
 30
0.0
 10
14.997677176
 20
10.8962725785
 30
0.0
 10
14.9988713377
 20
10.8970971158
 30
0.0
 10
14.9994939494
 20
10.8979179407
 30
0.0
 10
14.9996924349
 20
10.8983637741
 30
0.0
 10
14.999762228
 20
10.8985905139
 30
0.0
  0
SPLINE
  5
2E5
100
AcDbEntity
  8
0
100
AcDbSpline
 62
7
  6
CONTINUOUS
 70
0
 71
3
 72
12
 73
8
 74
0
 42
0.0000001
 43
0.0000001
 44
0.0000000001
 40
0.0
 40
0.0
 40
0.0
 40
0.0
 40
0.1086520882
 40
0.226248947
 40
0.4801255353
 40
0.7447007984
 40
1.0
 40
1.0
 40
1.0
 40
1.0
 10
14.9545481487
 20
10.9000736917
 30
0.0
 10
14.9548166421
 20
10.8997454182
 30
0.0
 10
14.9554324929
 20
10.8991073238
 30
0.0
 10
14.9569010185
 20
10.8979369667
 30
0.0
 10
14.9591009315
 20
10.8967417392
 30
0.0
 10
14.9619943697
 20
10.8958249912
 30
0.0
 10
14.9640274369
 20
10.8955878949
 30
0.0
 10
14.9650239185
 20
10.8955878949
 30
0.0
  0
SPLINE
  5
2E6
100
AcDbEntity
  8
0
100
AcDbSpline
 62
7
  6
CONTINUOUS
 70
0
 71
3
 72
12
 73
8
 74
0
 42
0.0000001
 43
0.0000001
 44
0.0000000001
 40
0.0
 40
0.0
 40
0.0
 40
0.0
 40
0.3032472245
 40
0.5691991646
 40
0.7966395926
 40
0.9000537989
 40
1.0
 40
1.0
 40
1.0
 40
1.0
 10
14.9090414012
 20
10.8955878949
 30
0.0
 10
14.9097612209
 20
10.8955878949
 30
0.0
 10
14.9111177229
 20
10.8957032092
 30
0.0
 10
14.9129395574
 20
10.8962725837
 30
0.0
 10
14.9141337204
 20
10.8970971059
 30
0.0
 10
14.9147563451
 20
10.897917927
 30
0.0
 10
14.9149548161
 20
10.898363772
 30
0.0
 10
14.9150246074
 20
10.8985905171
 30
0.0
  0
SPLINE
  5
2E7
100
AcDbEntity
  8
0
100
AcDbSpline
 62
7
  6
CONTINUOUS
 70
0
 71
3
 72
12
 73
8
 74
0
 42
0.0000001
 43
0.0000001
 44
0.0000000001
 40
0.0
 40
0.0
 40
0.0
 40
0.0
 40
0.1086520882
 40
0.226248947
 40
0.4801255353
 40
0.7447007984
 40
1.0
 40
1.0
 40
1.0
 40
1.0
 10
14.8698105372
 20
10.9000736917
 30
0.0
 10
14.8700790307
 20
10.8997454182
 30
0.0
 10
14.8706948814
 20
10.8991073238
 30
0.0
 10
14.872163407
 20
10.8979369667
 30
0.0
 10
14.87436332
 20
10.8967417392
 30
0.0
 10
14.8772567583
 20
10.8958249912
 30
0.0
 10
14.8792898254
 20
10.8955878949
 30
0.0
 10
14.880286307
 20
10.8955878949
 30
0.0
  0
SPLINE
  5
2E8
100
AcDbEntity
  8
0
100
AcDbSpline
 62
7
  6
CONTINUOUS
 70
0
 71
3
 72
12
 73
8
 74
0
 42
0.0000001
 43
0.0000001
 44
0.0000000001
 40
0.0
 40
0.0
 40
0.0
 40
0.0
 40
0.3032472245
 40
0.5691991646
 40
0.7966395926
 40
0.9000537989
 40
1.0
 40
1.0
 40
1.0
 40
1.0
 10
14.8243037897
 20
10.8955878949
 30
0.0
 10
14.8250236095
 20
10.8955878949
 30
0.0
 10
14.8263801114
 20
10.8957032092
 30
0.0
 10
14.828201946
 20
10.8962725837
 30
0.0
 10
14.8293961089
 20
10.8970971059
 30
0.0
 10
14.8300187337
 20
10.897917927
 30
0.0
 10
14.8302172047
 20
10.898363772
 30
0.0
 10
14.8302869959
 20
10.8985905171
 30
0.0
  0
SPLINE
  5
2E9
100
AcDbEntity
  8
0
100
AcDbSpline
 62
7
  6
CONTINUOUS
 70
0
 71
3
 72
12
 73
8
 74
0
 42
0.0000001
 43
0.0000001
 44
0.0000000001
 40
0.0
 40
0.0
 40
0.0
 40
0.0
 40
0.1086520882
 40
0.226248947
 40
0.4801255353
 40
0.7447007984
 40
1.0
 40
1.0
 40
1.0
 40
1.0
 10
14.7850729258
 20
10.9000736917
 30
0.0
 10
14.7853414192
 20
10.8997454182
 30
0.0
 10
14.78595727
 20
10.8991073238
 30
0.0
 10
14.7874257956
 20
10.8979369667
 30
0.0
 10
14.7896257086
 20
10.8967417392
 30
0.0
 10
14.7925191468
 20
10.8958249912
 30
0.0
 10
14.794552214
 20
10.8955878949
 30
0.0
 10
14.7955486956
 20
10.8955878949
 30
0.0
  0
SPLINE
  5
2EA
100
AcDbEntity
  8
0
100
AcDbSpline
 62
7
  6
CONTINUOUS
 70
0
 71
3
 72
12
 73
8
 74
0
 42
0.0000001
 43
0.0000001
 44
0.0000000001
 40
0.0
 40
0.0
 40
0.0
 40
0.0
 40
0.3032472245
 40
0.5691991646
 40
0.7966395926
 40
0.9000537989
 40
1.0
 40
1.0
 40
1.0
 40
1.0
 10
14.7395661783
 20
10.8955878949
 30
0.0
 10
14.740285998
 20
10.8955878949
 30
0.0
 10
14.7416425
 20
10.8957032092
 30
0.0
 10
14.7434643345
 20
10.8962725837
 30
0.0
 10
14.7446584975
 20
10.8970971059
 30
0.0
 10
14.7452811222
 20
10.897917927
 30
0.0
 10
14.7454795932
 20
10.898363772
 30
0.0
 10
14.7455493845
 20
10.8985905171
 30
0.0
  0
SPLINE
  5
2EB
100
AcDbEntity
  8
0
100
AcDbSpline
 62
7
  6
CONTINUOUS
 70
0
 71
3
 72
12
 73
8
 74
0
 42
0.0000001
 43
0.0000001
 44
0.0000000001
 40
0.0
 40
0.0
 40
0.0
 40
0.0
 40
0.1086520882
 40
0.226248947
 40
0.4801255353
 40
0.7447007984
 40
1.0
 40
1.0
 40
1.0
 40
1.0
 10
14.7003353143
 20
10.9000736917
 30
0.0
 10
14.7006038078
 20
10.8997454182
 30
0.0
 10
14.7012196585
 20
10.8991073238
 30
0.0
 10
14.7026881841
 20
10.8979369667
 30
0.0
 10
14.7048880971
 20
10.8967417392
 30
0.0
 10
14.7077815354
 20
10.8958249912
 30
0.0
 10
14.7098146025
 20
10.8955878949
 30
0.0
 10
14.7108110841
 20
10.8955878949
 30
0.0
  0
SPLINE
  5
2EC
100
AcDbEntity
  8
0
100
AcDbSpline
 62
7
  6
CONTINUOUS
 70
0
 71
3
 72
12
 73
8
 74
0
 42
0.0000001
 43
0.0000001
 44
0.0000000001
 40
0.0
 40
0.0
 40
0.0
 40
0.0
 40
0.3032472245
 40
0.5691991646
 40
0.7966395926
 40
0.9000537989
 40
1.0
 40
1.0
 40
1.0
 40
1.0
 10
14.6548285668
 20
10.8955878949
 30
0.0
 10
14.6555483866
 20
10.8955878949
 30
0.0
 10
14.6569048885
 20
10.8957032092
 30
0.0
 10
14.6587267231
 20
10.8962725837
 30
0.0
 10
14.659920886
 20
10.8970971059
 30
0.0
 10
14.6605435108
 20
10.897917927
 30
0.0
 10
14.6607419818
 20
10.898363772
 30
0.0
 10
14.660811773
 20
10.8985905171
 30
0.0
  0
SPLINE
  5
2ED
100
AcDbEntity
  8
0
100
AcDbSpline
 62
7
  6
CONTINUOUS
 70
0
 71
3
 72
12
 73
8
 74
0
 42
0.0000001
 43
0.0000001
 44
0.0000000001
 40
0.0
 40
0.0
 40
0.0
 40
0.0
 40
0.1086520882
 40
0.226248947
 40
0.4801255353
 40
0.7447007984
 40
1.0
 40
1.0
 40
1.0
 40
1.0
 10
14.6155977029
 20
10.9000736917
 30
0.0
 10
14.6158661963
 20
10.8997454182
 30
0.0
 10
14.6164820471
 20
10.8991073238
 30
0.0
 10
14.6179505727
 20
10.8979369667
 30
0.0
 10
14.6201504857
 20
10.8967417392
 30
0.0
 10
14.6230439239
 20
10.8958249912
 30
0.0
 10
14.6250769911
 20
10.8955878949
 30
0.0
 10
14.6260734727
 20
10.8955878949
 30
0.0
  0
SPLINE
  5
2EE
100
AcDbEntity
  8
0
100
AcDbSpline
 62
7
  6
CONTINUOUS
 70
0
 71
3
 72
12
 73
8
 74
0
 42
0.0000001
 43
0.0000001
 44
0.0000000001
 40
0.0
 40
0.0
 40
0.0
 40
0.0
 40
0.3032472245
 40
0.5691991646
 40
0.7966395926
 40
0.9000537989
 40
1.0
 40
1.0
 40
1.0
 40
1.0
 10
14.5700909554
 20
10.8955878949
 30
0.0
 10
14.5708107751
 20
10.8955878949
 30
0.0
 10
14.5721672771
 20
10.8957032092
 30
0.0
 10
14.5739891116
 20
10.8962725837
 30
0.0
 10
14.5751832746
 20
10.8970971059
 30
0.0
 10
14.5758058993
 20
10.897917927
 30
0.0
 10
14.5760043703
 20
10.898363772
 30
0.0
 10
14.5760741616
 20
10.8985905171
 30
0.0
  0
SPLINE
  5
2EF
100
AcDbEntity
  8
0
100
AcDbSpline
 62
7
  6
CONTINUOUS
 70
0
 71
3
 72
12
 73
8
 74
0
 42
0.0000001
 43
0.0000001
 44
0.0000000001
 40
0.0
 40
0.0
 40
0.0
 40
0.0
 40
0.1086520882
 40
0.226248947
 40
0.4801255353
 40
0.7447007984
 40
1.0
 40
1.0
 40
1.0
 40
1.0
 10
14.5308600914
 20
10.9000736917
 30
0.0
 10
14.5311285849
 20
10.8997454182
 30
0.0
 10
14.5317444356
 20
10.8991073238
 30
0.0
 10
14.5332129612
 20
10.8979369667
 30
0.0
 10
14.5354128742
 20
10.8967417392
 30
0.0
 10
14.5383063125
 20
10.8958249912
 30
0.0
 10
14.5403393796
 20
10.8955878949
 30
0.0
 10
14.5413358612
 20
10.8955878949
 30
0.0
  0
SPLINE
  5
2F0
100
AcDbEntity
  8
0
100
AcDbSpline
 62
7
  6
CONTINUOUS
 70
0
 71
3
 72
12
 73
8
 74
0
 42
0.0000001
 43
0.0000001
 44
0.0000000001
 40
0.0
 40
0.0
 40
0.0
 40
0.0
 40
0.3032472245
 40
0.5691991646
 40
0.7966395926
 40
0.9000537989
 40
1.0
 40
1.0
 40
1.0
 40
1.0
 10
14.4853533439
 20
10.8955878949
 30
0.0
 10
14.4860731637
 20
10.8955878949
 30
0.0
 10
14.4874296657
 20
10.8957032092
 30
0.0
 10
14.4892515002
 20
10.8962725837
 30
0.0
 10
14.4904456631
 20
10.8970971059
 30
0.0
 10
14.4910682879
 20
10.897917927
 30
0.0
 10
14.4912667589
 20
10.898363772
 30
0.0
 10
14.4913365501
 20
10.8985905171
 30
0.0
  0
SPLINE
  5
2F1
100
AcDbEntity
  8
0
100
AcDbSpline
 62
7
  6
CONTINUOUS
 70
0
 71
3
 72
12
 73
8
 74
0
 42
0.0000001
 43
0.0000001
 44
0.0000000001
 40
0.0
 40
0.0
 40
0.0
 40
0.0
 40
0.1086520882
 40
0.226248947
 40
0.4801255353
 40
0.7447007984
 40
1.0
 40
1.0
 40
1.0
 40
1.0
 10
14.44612248
 20
10.9000736917
 30
0.0
 10
14.4463909735
 20
10.8997454182
 30
0.0
 10
14.4470068242
 20
10.8991073238
 30
0.0
 10
14.4484753498
 20
10.8979369667
 30
0.0
 10
14.4506752628
 20
10.8967417392
 30
0.0
 10
14.4535687011
 20
10.8958249912
 30
0.0
 10
14.4556017682
 20
10.8955878949
 30
0.0
 10
14.4565982498
 20
10.8955878949
 30
0.0
  0
SPLINE
  5
2F2
100
AcDbEntity
  8
0
100
AcDbSpline
 62
7
  6
CONTINUOUS
 70
0
 71
3
 72
12
 73
8
 74
0
 42
0.0000001
 43
0.0000001
 44
0.0000000001
 40
0.0
 40
0.0
 40
0.0
 40
0.0
 40
0.3032472245
 40
0.5691991646
 40
0.7966395926
 40
0.9000537989
 40
1.0
 40
1.0
 40
1.0
 40
1.0
 10
14.4006157325
 20
10.8955878949
 30
0.0
 10
14.4013355522
 20
10.8955878949
 30
0.0
 10
14.4026920542
 20
10.8957032092
 30
0.0
 10
14.4045138888
 20
10.8962725837
 30
0.0
 10
14.4057080517
 20
10.8970971059
 30
0.0
 10
14.4063306764
 20
10.897917927
 30
0.0
 10
14.4065291474
 20
10.898363772
 30
0.0
 10
14.4065989387
 20
10.8985905171
 30
0.0
  0
SPLINE
  5
2F3
100
AcDbEntity
  8
0
100
AcDbSpline
 62
7
  6
CONTINUOUS
 70
0
 71
3
 72
12
 73
8
 74
0
 42
0.0000001
 43
0.0000001
 44
0.0000000001
 40
0.0
 40
0.0
 40
0.0
 40
0.0
 40
0.1086520882
 40
0.226248947
 40
0.4801255353
 40
0.7447007984
 40
1.0
 40
1.0
 40
1.0
 40
1.0
 10
14.3613848685
 20
10.9000736917
 30
0.0
 10
14.361653362
 20
10.8997454182
 30
0.0
 10
14.3622692127
 20
10.8991073238
 30
0.0
 10
14.3637377383
 20
10.8979369667
 30
0.0
 10
14.3659376513
 20
10.8967417392
 30
0.0
 10
14.3688310896
 20
10.8958249912
 30
0.0
 10
14.3708641567
 20
10.8955878949
 30
0.0
 10
14.3718606383
 20
10.8955878949
 30
0.0
  0
ENDSEC
  0
SECTION
  2
OBJECTS
  0
DICTIONARY
  5
C
100
AcDbDictionary
280
0
281
1
  3
ACAD_GROUP
350
D
  3
ACAD_MLINESTYLE
350
17
  3
ACAD_LAYOUT
350
1A
  3
ACAD_PLOTSETTINGS
350
19
  3
ACAD_PLOTSTYLENAME
350
E
  0
DICTIONARY
  5
D
102
{ACAD_REACTORS
330
C
102
}
100
AcDbDictionary
280
0
281
1
  0
ACDBDICTIONARYWDFLT
  5
E
102
{ACAD_REACTORS
330
C
102
}
100
AcDbDictionary
281
1
  3
Normal
350
F
100
AcDbDictionaryWithDefault
340
F
  0
DICTIONARY
  5
17
102
{ACAD_REACTORS
330
C
102
}
100
AcDbDictionary
280
0
281
1
  3
Standard
350
18
  0
DICTIONARY
  5
19
102
{ACAD_REACTORS
330
C
102
}
100
AcDbDictionary
281
1
  0
DICTIONARY
  5
1A
102
{ACAD_REACTORS
330
C
102
}
100
AcDbDictionary
281
1
  3
Model
350
2F4
  3
Layout1
350
2F5
  0
ACDBPLACEHOLDER
  5
F
102
{ACAD_REACTORS
330
E
102
}
  0
MLINESTYLE
  5
18
102
{ACAD_REACTORS
330
17
102
}
100
AcDbMlineStyle
  2
STANDARD
 70
0
  3

 62
256
 51
90.0
 52
90.0
 71
2
 49
0.5
 62
256
  6
BYLAYER
 49
-0.5
 62
256
  6
BYLAYER
  0
LAYOUT
  5
2F4
102
{ACAD_REACTORS
330
1A
102
}
100
AcDbPlotSettings
  1

  2
none_device
  4
ANSI_C_(22.00_x_17.00_Inches)
  6

 40
0.0
 41
0.0
 42
0.0
 43
0.0
 44
558.8
 45
431.8
 46
0.0
 47
0.0
 48
0.0
 49
0.0
140
0.0
141
0.0
142
1.0
143
1.0
 70
1024
 72
0
 73
0
 74
0
  7

 75
0
147
1.0
148
0.0
149
0.0
100
AcDbLayout
  1
Model
 70
0
 71
0
 10
0.0
 20
0.0
 11
22.0
 21
17.0
 12
0.0
 22
0.0
 32
0.0
 14
0.0
 24
0.0
 34
0.0
 15
0.0
 25
0.0
 35
0.0
146
0.0
 13
0.0
 23
0.0
 33
0.0
 16
1.0
 26
0.0
 36
0.0
 17
0.0
 27
1.0
 37
0.0
 76
0
330
216
345
0
346
0
  0
LAYOUT
  5
2F5
102
{ACAD_REACTORS
330
1A
102
}
100
AcDbPlotSettings
  1

  2
none_device
  4
ANSI_C_(22.00_x_17.00_Inches)
  6

 40
0.0
 41
0.0
 42
0.0
 43
0.0
 44
558.8
 45
431.8
 46
0.0
 47
0.0
 48
0.0
 49
0.0
140
0.0
141
0.0
142
1.0
143
1.0
 70
0
 72
0
 73
0
 74
0
  7

 75
0
147
1.0
148
0.0
149
0.0
100
AcDbLayout
  1
Layout1
 70
0
 71
1
 10
0.0
 20
0.0
 11
22.0
 21
17.0
 12
0.0
 22
0.0
 32
0.0
 14
0.0
 24
0.0
 34
0.0
 15
0.0
 25
0.0
 35
0.0
146
0.0
 13
0.0
 23
0.0
 33
0.0
 16
1.0
 26
0.0
 36
0.0
 17
0.0
 27
1.0
 37
0.0
 76
0
330
217
345
0
346
0
  0
ENDSEC
  0
EOF