999
DXF file: _cgs_temp_output.dxf
999
Pro/ENGINEER 2016360 by Parametric Technology Corporation
  0
SECTION
  2
HEADER
  9
$ACADVER
  1
AC1021
  9
$DWGCODEPAGE
  3
ANSI_1252
  9
$EXTMAX
 10
22.0
 20
17.0
 30
0.0
  9
$EXTMIN
 10
0.0
 20
0.0
 30
0.0
  9
$LIMMIN
 10
0.0
 20
0.0
  9
$LIMMAX
 10
22.0
 20
17.0
  9
$VIEWCTR
 10
11.0
 20
8.5
  9
$VIEWSIZE
 40
17.0
  9
$CLAYER
  8
0
  9
$LTSCALE
 40
1.21
  9
$CELTYPE
  6
BYLAYER
  9
$DIMSCALE
 40
1.0
  9
$DIMASZ
 40
0.1875
  9
$DIMEXO
 40
0.0625
  9
$DIMDLI
 40
0.836
  9
$DIMEXE
 40
0.125
  9
$DIMCEN
 40
0.198
  9
$DIMLFAC
 40
1.0
  9
$DIMBLK
  1
_CLOSED
  9
$DIMALT
 70
0
  9
$DIMALTF
 40
25.4
  9
$DIMTXT
 40
0.15625
  9
$DIMTOL
 70
0
  9
$DIMLIM
 70
0
  9
$DIMTFAC
 40
1.0
  9
$DIMGAP
 40
0.09
  9
$DIMDSEP
 70
46
  9
$AUNITS
 70
0
  9
$PDMODE
 70
3
  9
$PDSIZE
 40
0.3125
  9
$HANDSEED
  5
302
  9
$TILEMODE
 70
1
  9
$MEASUREMENT
 70
0
  9
$INSUNITS
 70
1
  0
ENDSEC
  0
SECTION
  2
CLASSES
  0
CLASS
  1
ACDBDICTIONARYWDFLT
  2
AcDbDictionaryWithDefault
  3
AutoCAD 2000
 90
0
 91
1
280
0
281
0
  0
CLASS
  1
ACDBPLACEHOLDER
  2
AcDbPlaceHolder
  3
AutoCAD 2000
 90
0
 91
1
280
0
281
0
  0
CLASS
  1
LAYOUT
  2
AcDbLayout
  3
AutoCAD 2000
 90
0
 91
0
280
0
281
0
  0
ENDSEC
  0
SECTION
  2
TABLES
  0
TABLE
  2
VPORT
  5
8
100
AcDbSymbolTable
 70
2
  0
VPORT
  5
1F4
100
AcDbSymbolTableRecord
100
AcDbViewportTableRecord
  2
*ACTIVE
 70
0
 10
0.0
 20
0.0
 11
1.0
 21
1.0
 12
11.0
 22
8.5
 13
0.0
 23
0.0
 14
1.0
 24
1.0
 15
0.0
 25
0.0
 16
0.0
 26
0.0
 36
1.0
 17
0.0
 27
0.0
 37
0.0
 40
17.0
 41
1.2941176471
 42
50.0
 43
0.0
 44
0.0
 50
0.0
 51
0.0
 71
0
 72
100
 73
1
 74
1
 75
0
 76
0
 77
0
 78
0
  0
ENDTAB
  0
TABLE
  2
LTYPE
  5
5
100
AcDbSymbolTable
 70
6
  0
LTYPE
  5
14
100
AcDbSymbolTableRecord
100
AcDbLinetypeTableRecord
  2
BYBLOCK
 70
0
  3

 72
65
 73
0
 40
0.0
  0
LTYPE
  5
15
100
AcDbSymbolTableRecord
100
AcDbLinetypeTableRecord
  2
BYLAYER
 70
0
  3

 72
65
 73
0
 40
0.0
  0
LTYPE
  5
16
100
AcDbSymbolTableRecord
100
AcDbLinetypeTableRecord
  2
CONTINUOUS
 70
64
  3
Solid line
 72
65
 73
0
 40
0.0
  0
LTYPE
  5
1F5
100
AcDbSymbolTableRecord
100
AcDbLinetypeTableRecord
  2
CENTER
 70
64
  3
____ _ ____ _ ____ _ ____ _ ____ _ ____ _ ____
 72
65
 73
4
 40
0.6
 49
0.375
 74
0
 49
-0.075
 74
0
 49
0.075
 74
0
 49
-0.075
 74
0
  0
LTYPE
  5
1F6
100
AcDbSymbolTableRecord
100
AcDbLinetypeTableRecord
  2
HIDDEN
 70
64
  3
- - - - - - - - - - - - - - - - - - - -
 72
65
 73
2
 40
0.2
 49
0.1
 74
0
 49
-0.1
 74
0
  0
LTYPE
  5
1F7
100
AcDbSymbolTableRecord
100
AcDbLinetypeTableRecord
  2
PHANTOM
 70
64
  3
_____ _ _ _____ _ _ _____ _ _ _____
 72
65
 73
6
 40
0.8
 49
0.45
 74
0
 49
-0.05
 74
0
 49
0.1
 74
0
 49
-0.05
 74
0
 49
0.1
 74
0
 49
-0.05
 74
0
  0
LTYPE
  5
1F8
100
AcDbSymbolTableRecord
100
AcDbLinetypeTableRecord
  2
DOT
 70
64
  3
. . . . . . . . . . . . . . . . . . . .
 72
65
 73
2
 40
0.2
 49
0.1
 74
0
 49
-0.1
 74
0
  0
LTYPE
  5
1F9
100
AcDbSymbolTableRecord
100
AcDbLinetypeTableRecord
  2
DASHED
 70
64
  3
- - - - - - - - - - - - - - - - - - - -
 72
65
 73
2
 40
0.2
 49
0.1
 74
0
 49
-0.1
 74
0
  0
ENDTAB
  0
TABLE
  2
LAYER
  5
2
100
AcDbSymbolTable
 70
36
  0
LAYER
  5
10
100
AcDbSymbolTableRecord
100
AcDbLayerTableRecord
  2
0
 70
0
 62
7
  6
CONTINUOUS
370
-3
390
F
  0
LAYER
  5
1FA
100
AcDbSymbolTableRecord
100
AcDbLayerTableRecord
  2
DEFAULT_1
 70
0
 62
7
  6
CENTER
370
-3
390
F
  0
LAYER
  5
1FB
100
AcDbSymbolTableRecord
100
AcDbLayerTableRecord
  2
DEFAULT_2
 70
0
 62
8
  6
HIDDEN
370
-3
390
F
  0
LAYER
  5
1FC
100
AcDbSymbolTableRecord
100
AcDbLayerTableRecord
  2
DEFAULT_3
 70
0
 62
7
  6
PHANTOM
370
-3
390
F
  0
LAYER
  5
1FD
100
AcDbSymbolTableRecord
100
AcDbLayerTableRecord
  2
01_ALL_DTM_PLN
 70
0
 62
7
  6
CONTINUOUS
370
-3
390
F
  0
LAYER
  5
1FE
100
AcDbSymbolTableRecord
100
AcDbLayerTableRecord
  2
01__ASM_ALL_DTM_PLN
 70
0
 62
7
  6
CONTINUOUS
370
-3
390
F
  0
LAYER
  5
1FF
100
AcDbSymbolTableRecord
100
AcDbLayerTableRecord
  2
01__ASM_DEF_DTM_PLN
 70
0
 62
7
  6
CONTINUOUS
370
-3
390
F
  0
LAYER
  5
200
100
AcDbSymbolTableRecord
100
AcDbLayerTableRecord
  2
01___PRT_ALL_DTM_PLN
 70
0
 62
7
  6
CONTINUOUS
370
-3
390
F
  0
LAYER
  5
201
100
AcDbSymbolTableRecord
100
AcDbLayerTableRecord
  2
01___PRT_DEF_DTM_PLN
 70
0
 62
7
  6
CONTINUOUS
370
-3
390
F
  0
LAYER
  5
202
100
AcDbSymbolTableRecord
100
AcDbLayerTableRecord
  2
02_ALL_AXES
 70
0
 62
7
  6
CONTINUOUS
370
-3
390
F
  0
LAYER
  5
203
100
AcDbSymbolTableRecord
100
AcDbLayerTableRecord
  2
02__ASM_ALL_AXES
 70
0
 62
7
  6
CONTINUOUS
370
-3
390
F
  0
LAYER
  5
204
100
AcDbSymbolTableRecord
100
AcDbLayerTableRecord
  2
02___PRT_ALL_AXES
 70
0
 62
7
  6
CONTINUOUS
370
-3
390
F
  0
LAYER
  5
205
100
AcDbSymbolTableRecord
100
AcDbLayerTableRecord
  2
03_ALL_CURVES
 70
0
 62
7
  6
CONTINUOUS
370
-3
390
F
  0
LAYER
  5
206
100
AcDbSymbolTableRecord
100
AcDbLayerTableRecord
  2
03__ASM_ALL_CURVES
 70
0
 62
7
  6
CONTINUOUS
370
-3
390
F
  0
LAYER
  5
207
100
AcDbSymbolTableRecord
100
AcDbLayerTableRecord
  2
03___PRT_ALL_CURVES
 70
0
 62
7
  6
CONTINUOUS
370
-3
390
F
  0
LAYER
  5
208
100
AcDbSymbolTableRecord
100
AcDbLayerTableRecord
  2
04_ALL_DTM_PNT
 70
0
 62
7
  6
CONTINUOUS
370
-3
390
F
  0
LAYER
  5
209
100
AcDbSymbolTableRecord
100
AcDbLayerTableRecord
  2
04__ASM_ALL_DTM_PNT
 70
0
 62
7
  6
CONTINUOUS
370
-3
390
F
  0
LAYER
  5
20A
100
AcDbSymbolTableRecord
100
AcDbLayerTableRecord
  2
04___PRT_ALL_DTM_PNT
 70
0
 62
7
  6
CONTINUOUS
370
-3
390
F
  0
LAYER
  5
20B
100
AcDbSymbolTableRecord
100
AcDbLayerTableRecord
  2
05_ALL_DTM_CSYS
 70
0
 62
7
  6
CONTINUOUS
370
-3
390
F
  0
LAYER
  5
20C
100
AcDbSymbolTableRecord
100
AcDbLayerTableRecord
  2
05__ASM_ALL_DTM_CSYS
 70
0
 62
7
  6
CONTINUOUS
370
-3
390
F
  0
LAYER
  5
20D
100
AcDbSymbolTableRecord
100
AcDbLayerTableRecord
  2
05__ASM_DEF_DTM_CSYS
 70
0
 62
7
  6
CONTINUOUS
370
-3
390
F
  0
LAYER
  5
20E
100
AcDbSymbolTableRecord
100
AcDbLayerTableRecord
  2
05___PRT_ALL_DTM_CSYS
 70
0
 62
7
  6
CONTINUOUS
370
-3
390
F
  0
LAYER
  5
20F
100
AcDbSymbolTableRecord
100
AcDbLayerTableRecord
  2
05___PRT_DEF_DTM_CSYS
 70
0
 62
7
  6
CONTINUOUS
370
-3
390
F
  0
LAYER
  5
210
100
AcDbSymbolTableRecord
100
AcDbLayerTableRecord
  2
06_ALL_SURFS
 70
0
 62
7
  6
CONTINUOUS
370
-3
390
F
  0
LAYER
  5
211
100
AcDbSymbolTableRecord
100
AcDbLayerTableRecord
  2
06__ASM_ALL_SURFS
 70
0
 62
7
  6
CONTINUOUS
370
-3
390
F
  0
LAYER
  5
212
100
AcDbSymbolTableRecord
100
AcDbLayerTableRecord
  2
06___PRT_ALL_SURFS
 70
0
 62
7
  6
CONTINUOUS
370
-3
390
F
  0
LAYER
  5
213
100
AcDbSymbolTableRecord
100
AcDbLayerTableRecord
  2
07__ASM_ALL_SKELETONS
 70
0
 62
7
  6
CONTINUOUS
370
-3
390
F
  0
ENDTAB
  0
TABLE
  2
STYLE
  5
3
100
AcDbSymbolTable
 70
1
  0
STYLE
  5
11
100
AcDbSymbolTableRecord
100
AcDbTextStyleTableRecord
  2
STANDARD
 70
0
 40
0.0
 41
0.8
 50
0.0
 71
0
 42
0.2
  3
txt
  4

  0
STYLE
  5
214
100
AcDbSymbolTableRecord
100
AcDbTextStyleTableRecord
  2
TEXTSTYLE_1
 70
0
 40
0.0
 41
0.8
 50
0.0
 71
0
 42
0.2
  3
gdt
  4

  0
ENDTAB
  0
TABLE
  2
VIEW
  5
6
100
AcDbSymbolTable
 70
0
  0
ENDTAB
  0
TABLE
  2
UCS
  5
7
100
AcDbSymbolTable
 70
0
  0
ENDTAB
  0
TABLE
  2
APPID
  5
9
100
AcDbSymbolTable
 70
1
  0
APPID
  5
215
100
AcDbSymbolTableRecord
100
AcDbRegAppTableRecord
  2
ACAD
 70
0
  0
ENDTAB
  0
TABLE
  2
BLOCK_RECORD
  5
1
100
AcDbSymbolTable
 70
0
  0
BLOCK_RECORD
  5
216
100
AcDbSymbolTableRecord
100
AcDbBlockTableRecord
  2
*Model_Space
  0
BLOCK_RECORD
  5
217
100
AcDbSymbolTableRecord
100
AcDbBlockTableRecord
  2
*Paper_Space
  0
ENDTAB
  0
TABLE
  2
DIMSTYLE
  5
A
100
AcDbSymbolTable
 70
1
100
AcDbDimStyleTable
 71
0
  0
DIMSTYLE
105
218
100
AcDbSymbolTableRecord
100
AcDbDimStyleTableRecord
  2
STANDARD
 70
0
  3

  4

 40
1.0
 41
0.1875
 42
0.0625
 43
0.38
 44
0.125
 45
0.0
 46
0.0
 47
0.0001
 48
0.0001
140
0.15625
141
0.09
142
0.0
143
25.4
144
1.0
145
0.0
146
1.0
147
0.09
 71
0.0
 72
0.0
 73
1
 74
1
 75
0
 76
0
 77
0
 78
4
 79
1
170
0
171
3
172
0
173
0
174
0
175
0
176
0
177
0
178
0
270
2
179
4
271
4
272
4
273
2
274
2
275
0
280
0
281
0
282
0
283
1
284
4
285
0
286
0
287
3
288
0
340
11
278
46
  0
ENDTAB
  0
ENDSEC
  0
SECTION
  2
BLOCKS
  0
BLOCK
  5
20
100
AcDbEntity
  8
0
100
AcDbBlockBegin
  2
*Model_Space
 70
0
 10
0.0
 20
0.0
 30
0.0
  3
*Model_Space
  1

  0
ENDBLK
  5
21
100
AcDbEntity
  8
0
100
AcDbBlockEnd
  0
BLOCK
  5
1C
100
AcDbEntity
  8
0
100
AcDbBlockBegin
  2
*Paper_Space
 70
0
 10
0.0
 20
0.0
 30
0.0
  3
*Paper_Space
  1

  0
ENDBLK
  5
1D
100
AcDbEntity
  8
0
100
AcDbBlockEnd
  0
ENDSEC
  0
SECTION
  2
ENTITIES
  0
MTEXT
  5
219
100
AcDbEntity
  8
0
100
AcDbMText
 62
7
  6
CONTINUOUS
  7
STANDARD
 71
1
 72
1
 10
15.9560215477
 20
0.9479130325
 30
0.0
 11
1.0
 21
0.0
 31
0.0
 44
0.9
  1
SCALE: 1:1.000
 40
0.3
 41
3.36
  0
LINE
  5
21A
100
AcDbEntity
  8
0
100
AcDbLine
 62
7
  6
CONTINUOUS
 10
0.0
 20
0.0
 11
0.0
 21
17.0
  0
LINE
  5
21B
100
AcDbEntity
  8
0
100
AcDbLine
 62
7
  6
CONTINUOUS
 10
0.0
 20
0.0
 11
22.0
 21
0.0
  0
LINE
  5
21C
100
AcDbEntity
  8
0
100
AcDbLine
 62
7
  6
CONTINUOUS
 10
0.0
 20
17.0
 11
22.0
 21
17.0
  0
LINE
  5
21D
100
AcDbEntity
  8
0
100
AcDbLine
 62
7
  6
CONTINUOUS
 10
22.0
 20
0.0
 11
22.0
 21
17.0
  0
LINE
  5
21E
100
AcDbEntity
  8
0
100
AcDbLine
 62
7
  6
CONTINUOUS
 10
4.7866172762
 20
5.8396198968
 11
4.7866172762
 21
5.7055351465
  0
LINE
  5
21F
100
AcDbEntity
  8
0
100
AcDbLine
 62
7
  6
CONTINUOUS
 10
4.9201150504
 20
5.1941494206
 11
4.7900246935
 21
5.679653242
  0
LINE
  5
220
100
AcDbEntity
  8
0
100
AcDbLine
 62
7
  6
CONTINUOUS
 10
4.9442631961
 20
5.1756198968
 11
7.3164713563
 21
5.1756198968
  0
LINE
  5
221
100
AcDbEntity
  8
0
100
AcDbLine
 62
7
  6
CONTINUOUS
 10
4.8827241982
 20
5.4052865634
 11
7.3780103541
 21
5.4052865634
  0
LINE
  5
222
100
AcDbEntity
  8
0
100
AcDbLine
 62
7
  6
CONTINUOUS
 10
7.4491172762
 20
5.8646198968
 11
4.8116172762
 21
5.8646198968
  0
LINE
  5
223
100
AcDbEntity
  8
0
100
AcDbLine
 62
7
  6
CONTINUOUS
 10
7.4741172762
 20
5.7055351465
 11
7.4741172762
 21
5.8396198968
  0
LINE
  5
224
100
AcDbEntity
  8
0
100
AcDbLine
 62
7
  6
CONTINUOUS
 10
7.3406195019
 20
5.1941494206
 11
7.4707098588
 21
5.679653242
  0
LINE
  5
225
100
AcDbEntity
  8
0
100
AcDbLine
 62
7
  6
CONTINUOUS
 10
7.4146220839
 20
10.6000477814
 11
4.7271220839
 21
10.6000477814
  0
LINE
  5
226
100
AcDbEntity
  8
0
100
AcDbLine
 62
7
  6
CONTINUOUS
 10
4.7271220839
 20
10.6000477814
 11
4.7271220839
 21
14.6000477814
  0
LINE
  5
227
100
AcDbEntity
  8
0
100
AcDbLine
 62
7
  6
CONTINUOUS
 10
7.4146220839
 20
10.6000477814
 11
7.4146220839
 21
14.6000477814
  0
LINE
  5
228
100
AcDbEntity
  8
0
100
AcDbLine
 62
7
  6
CONTINUOUS
 10
4.7271220839
 20
14.6000477814
 11
7.4146220839
 21
14.6000477814
  0
LINE
  5
229
100
AcDbEntity
  8
0
100
AcDbLine
 62
7
  6
CONTINUOUS
 10
13.5603552569
 20
5.3457913711
 11
13.5603552569
 21
5.8051247044
  0
LINE
  5
22A
100
AcDbEntity
  8
0
100
AcDbLine
 62
7
  6
CONTINUOUS
 10
13.6691176953
 20
5.3012906441
 11
13.7015928185
 21
5.1606254314
  0
LINE
  5
22B
100
AcDbEntity
  8
0
100
AcDbLine
 62
7
  6
CONTINUOUS
 10
13.9191176953
 20
5.1606254314
 11
13.9515928185
 21
5.3012906441
  0
LINE
  5
22C
100
AcDbEntity
  8
0
100
AcDbLine
 62
7
  6
CONTINUOUS
 10
14.1691176953
 20
5.3012906441
 11
14.2015928185
 21
5.1606254314
  0
LINE
  5
22D
100
AcDbEntity
  8
0
100
AcDbLine
 62
7
  6
CONTINUOUS
 10
14.4191176953
 20
5.1606254314
 11
14.4515928185
 21
5.3012906441
  0
LINE
  5
22E
100
AcDbEntity
  8
0
100
AcDbLine
 62
7
  6
CONTINUOUS
 10
14.6691176953
 20
5.3012906441
 11
14.7015928185
 21
5.1606254314
  0
LINE
  5
22F
100
AcDbEntity
  8
0
100
AcDbLine
 62
7
  6
CONTINUOUS
 10
14.9191176953
 20
5.1606254314
 11
14.9515928185
 21
5.3012906441
  0
LINE
  5
230
100
AcDbEntity
  8
0
100
AcDbLine
 62
7
  6
CONTINUOUS
 10
15.1691176953
 20
5.3012906441
 11
15.2015928185
 21
5.1606254314
  0
LINE
  5
231
100
AcDbEntity
  8
0
100
AcDbLine
 62
7
  6
CONTINUOUS
 10
13.7575378998
 20
5.1161247044
 11
13.8631726141
 21
5.1161247044
  0
LINE
  5
232
100
AcDbEntity
  8
0
100
AcDbLine
 62
7
  6
CONTINUOUS
 10
14.2575378998
 20
5.1161247044
 11
14.3631726141
 21
5.1161247044
  0
LINE
  5
233
100
AcDbEntity
  8
0
100
AcDbLine
 62
7
  6
CONTINUOUS
 10
14.7575378998
 20
5.1161247044
 11
14.8631726141
 21
5.1161247044
  0
LINE
  5
234
100
AcDbEntity
  8
0
100
AcDbLine
 62
7
  6
CONTINUOUS
 10
15.2575378998
 20
5.1161247044
 11
15.3631726141
 21
5.1161247044
  0
LINE
  5
235
100
AcDbEntity
  8
0
100
AcDbLine
 62
7
  6
CONTINUOUS
 10
15.7575378998
 20
5.1161247044
 11
15.8631726141
 21
5.1161247044
  0
LINE
  5
236
100
AcDbEntity
  8
0
100
AcDbLine
 62
7
  6
CONTINUOUS
 10
16.2575378998
 20
5.1161247044
 11
16.3631726141
 21
5.1161247044
  0
LINE
  5
237
100
AcDbEntity
  8
0
100
AcDbLine
 62
7
  6
CONTINUOUS
 10
16.7575378998
 20
5.1161247044
 11
16.8631726141
 21
5.1161247044
  0
LINE
  5
238
100
AcDbEntity
  8
0
100
AcDbLine
 62
7
  6
CONTINUOUS
 10
17.2575378998
 20
5.1161247044
 11
17.3631726141
 21
5.1161247044
  0
LINE
  5
239
100
AcDbEntity
  8
0
100
AcDbLine
 62
7
  6
CONTINUOUS
 10
15.4191176953
 20
5.1606254314
 11
15.4515928185
 21
5.3012906441
  0
LINE
  5
23A
100
AcDbEntity
  8
0
100
AcDbLine
 62
7
  6
CONTINUOUS
 10
13.5603552569
 20
5.3457913711
 11
13.6131726141
 21
5.3457913711
  0
LINE
  5
23B
100
AcDbEntity
  8
0
100
AcDbLine
 62
7
  6
CONTINUOUS
 10
14.0075378998
 20
5.3457913711
 11
14.1131726141
 21
5.3457913711
  0
LINE
  5
23C
100
AcDbEntity
  8
0
100
AcDbLine
 62
7
  6
CONTINUOUS
 10
14.5075378998
 20
5.3457913711
 11
14.6131726141
 21
5.3457913711
  0
LINE
  5
23D
100
AcDbEntity
  8
0
100
AcDbLine
 62
7
  6
CONTINUOUS
 10
15.0075378998
 20
5.3457913711
 11
15.1131726141
 21
5.3457913711
  0
LINE
  5
23E
100
AcDbEntity
  8
0
100
AcDbLine
 62
7
  6
CONTINUOUS
 10
15.5075378998
 20
5.3457913711
 11
15.6131726141
 21
5.3457913711
  0
LINE
  5
23F
100
AcDbEntity
  8
0
100
AcDbLine
 62
7
  6
CONTINUOUS
 10
16.0075378998
 20
5.3457913711
 11
16.1131726141
 21
5.3457913711
  0
LINE
  5
240
100
AcDbEntity
  8
0
100
AcDbLine
 62
7
  6
CONTINUOUS
 10
16.5075378998
 20
5.3457913711
 11
16.6131726141
 21
5.3457913711
  0
LINE
  5
241
100
AcDbEntity
  8
0
100
AcDbLine
 62
7
  6
CONTINUOUS
 10
17.0075378998
 20
5.3457913711
 11
17.1131726141
 21
5.3457913711
  0
LINE
  5
242
100
AcDbEntity
  8
0
100
AcDbLine
 62
7
  6
CONTINUOUS
 10
17.5075378998
 20
5.3457913711
 11
17.5603552569
 21
5.3457913711
  0
LINE
  5
243
100
AcDbEntity
  8
0
100
AcDbLine
 62
7
  6
CONTINUOUS
 10
15.6691176953
 20
5.3012906441
 11
15.7015928185
 21
5.1606254314
  0
LINE
  5
244
100
AcDbEntity
  8
0
100
AcDbLine
 62
7
  6
CONTINUOUS
 10
15.9191176953
 20
5.1606254314
 11
15.9515928185
 21
5.3012906441
  0
LINE
  5
245
100
AcDbEntity
  8
0
100
AcDbLine
 62
7
  6
CONTINUOUS
 10
13.5603552569
 20
5.8051247044
 11
17.5603552569
 21
5.8051247044
  0
LINE
  5
246
100
AcDbEntity
  8
0
100
AcDbLine
 62
7
  6
CONTINUOUS
 10
16.1691176953
 20
5.3012906441
 11
16.2015928185
 21
5.1606254314
  0
LINE
  5
247
100
AcDbEntity
  8
0
100
AcDbLine
 62
7
  6
CONTINUOUS
 10
16.4191176953
 20
5.1606254314
 11
16.4515928185
 21
5.3012906441
  0
LINE
  5
248
100
AcDbEntity
  8
0
100
AcDbLine
 62
7
  6
CONTINUOUS
 10
16.6691176953
 20
5.3012906441
 11
16.7015928185
 21
5.1606254314
  0
LINE
  5
249
100
AcDbEntity
  8
0
100
AcDbLine
 62
7
  6
CONTINUOUS
 10
16.9191176953
 20
5.1606254314
 11
16.9515928185
 21
5.3012906441
  0
LINE
  5
24A
100
AcDbEntity
  8
0
100
AcDbLine
 62
7
  6
CONTINUOUS
 10
17.1691176953
 20
5.3012906441
 11
17.2015928185
 21
5.1606254314
  0
LINE
  5
24B
100
AcDbEntity
  8
0
100
AcDbLine
 62
7
  6
CONTINUOUS
 10
17.5603552569
 20
5.3457913711
 11
17.5603552569
 21
5.8051247044
  0
LINE
  5
24C
100
AcDbEntity
  8
0
100
AcDbLine
 62
7
  6
CONTINUOUS
 10
17.4191176953
 20
5.1606254314
 11
17.4515928185
 21
5.3012906441
  0
LINE
  5
24D
100
AcDbEntity
  8
0
100
AcDbLine
 62
7
  6
CONTINUOUS
 10
13.7715743047
 20
10.976896115
 11
13.9127553308
 21
10.8178651894
  0
LWPOLYLINE
  5
24E
100
AcDbEntity
  8
0
100
AcDbPolyline
 62
7
  6
CONTINUOUS
 90
3
 70
0
 10
14.0713515788
 20
10.8041874012
 10
14.0785526504
 20
10.7999424201
 10
14.0922312716
 20
10.7963928476
  0
LINE
  5
24F
100
AcDbEntity
  8
0
100
AcDbLine
 62
7
  6
CONTINUOUS
 10
14.0713515807
 20
10.804187404
 11
14.0683736447
 21
10.8063470526
  0
LINE
  5
250
100
AcDbEntity
  8
0
100
AcDbLine
 62
7
  6
CONTINUOUS
 10
13.7196393385
 20
11.0763329822
 11
13.760540801
 21
10.9929845648
  0
LWPOLYLINE
  5
251
100
AcDbEntity
  8
0
100
AcDbPolyline
 62
7
  6
CONTINUOUS
 90
5
 70
0
 10
16.2855839661
 20
10.7963166006
 10
16.2936499964
 20
10.7975828532
 10
16.3018082658
 20
10.8018439583
 10
16.3076672132
 20
10.8077422165
 10
16.3116257037
 20
10.8141578679
  0
LINE
  5
252
100
AcDbEntity
  8
0
100
AcDbLine
 62
7
  6
CONTINUOUS
 10
16.2855809226
 20
10.7963165392
 11
16.2855842519
 21
10.7963165404
  0
LINE
  5
253
100
AcDbEntity
  8
0
100
AcDbLine
 62
7
  6
CONTINUOUS
 10
14.0945783187
 20
10.7963165392
 11
16.2855813032
 21
10.7963165392
  0
LINE
  5
254
100
AcDbEntity
  8
0
100
AcDbLine
 62
7
  6
CONTINUOUS
 10
13.9406495264
 20
10.8063470526
 11
16.2389602735
 21
10.8063470526
  0
LINE
  5
255
100
AcDbEntity
  8
0
100
AcDbLine
 62
7
  6
CONTINUOUS
 10
14.0922312716
 20
10.7963928476
 11
14.0946176913
 21
10.7963166606
  0
LWPOLYLINE
  5
256
100
AcDbEntity
  8
0
100
AcDbPolyline
 62
7
  6
CONTINUOUS
 90
5
 70
0
 10
16.4066171278
 20
11.1879800554
 10
16.4146831581
 20
11.189246308
 10
16.4228414275
 20
11.1935074132
 10
16.4287003749
 20
11.1994056713
 10
16.4326588654
 20
11.2058213227
  0
LINE
  5
257
100
AcDbEntity
  8
0
100
AcDbLine
 62
7
  6
CONTINUOUS
 10
16.1643381884
 20
11.0918732314
 11
13.7350398167
 21
11.0918732314
  0
LINE
  5
258
100
AcDbEntity
  8
0
100
AcDbLine
 62
7
  6
CONTINUOUS
 10
16.3706319048
 20
11.187979994
 11
16.4066144649
 21
11.187979994
  0
LINE
  5
259
100
AcDbEntity
  8
0
100
AcDbLine
 62
7
  6
CONTINUOUS
 10
13.7187803422
 20
11.0837141665
 11
14.6870456359
 21
14.217021805
  0
LWPOLYLINE
  5
25A
100
AcDbEntity
  8
0
100
AcDbPolyline
 62
7
  6
CONTINUOUS
 90
5
 70
0
 10
16.5276502895
 20
11.5796435102
 10
16.5357163198
 20
11.5809097628
 10
16.5438745892
 20
11.585170868
 10
16.5497335366
 20
11.5910691262
 10
16.5536920271
 20
11.5974847775
  0
LINE
  5
25B
100
AcDbEntity
  8
0
100
AcDbLine
 62
7
  6
CONTINUOUS
 10
16.4916650665
 20
11.5796434488
 11
16.5276476266
 21
11.5796434488
  0
LWPOLYLINE
  5
25C
100
AcDbEntity
  8
0
100
AcDbPolyline
 62
7
  6
CONTINUOUS
 90
5
 70
0
 10
16.6486834512
 20
11.971306965
 10
16.6567494815
 20
11.9725732177
 10
16.664907751
 20
11.9768343228
 10
16.6707666983
 20
11.982732581
 10
16.6747251888
 20
11.9891482323
  0
LINE
  5
25D
100
AcDbEntity
  8
0
100
AcDbLine
 62
7
  6
CONTINUOUS
 10
16.6126982282
 20
11.9713069036
 11
16.6486807883
 21
11.9713069036
  0
LWPOLYLINE
  5
25E
100
AcDbEntity
  8
0
100
AcDbPolyline
 62
7
  6
CONTINUOUS
 90
5
 70
0
 10
16.7697166129
 20
12.3629704198
 10
16.7777826432
 20
12.3642366725
 10
16.7859409127
 20
12.3684977776
 10
16.79179986
 20
12.3743960358
 10
16.7957583505
 20
12.3808116871
  0
LINE
  5
25F
100
AcDbEntity
  8
0
100
AcDbLine
 62
7
  6
CONTINUOUS
 10
16.7337313899
 20
12.3629703584
 11
16.76971395
 21
12.3629703584
  0
LWPOLYLINE
  5
260
100
AcDbEntity
  8
0
100
AcDbPolyline
 62
7
  6
CONTINUOUS
 90
5
 70
0
 10
16.8907497746
 20
12.7546338746
 10
16.8988158049
 20
12.7559001273
 10
16.9069740744
 20
12.7601612324
 10
16.9128330217
 20
12.7660594906
 10
16.9167915122
 20
12.7724751419
  0
LINE
  5
261
100
AcDbEntity
  8
0
100
AcDbLine
 62
7
  6
CONTINUOUS
 10
16.2358922224
 20
10.9929845648
 11
16.1949907599
 21
11.0763329822
  0
LINE
  5
262
100
AcDbEntity
  8
0
100
AcDbLine
 62
7
  6
CONTINUOUS
 10
16.8547645516
 20
12.7546338132
 11
16.8907471117
 21
12.7546338132
  0
LWPOLYLINE
  5
263
100
AcDbEntity
  8
0
100
AcDbPolyline
 62
7
  6
CONTINUOUS
 90
5
 70
0
 10
17.0117829363
 20
13.1462973295
 10
17.0198489666
 20
13.1475635821
 10
17.0280072361
 20
13.1518246872
 10
17.0338661834
 20
13.1577229454
 10
17.0378246739
 20
13.1641385967
  0
LINE
  5
264
100
AcDbEntity
  8
0
100
AcDbLine
 62
7
  6
CONTINUOUS
 10
16.255549908
 20
10.8178651894
 11
16.2406488476
 21
10.976896115
  0
LINE
  5
265
100
AcDbEntity
  8
0
100
AcDbLine
 62
7
  6
CONTINUOUS
 10
16.9757977133
 20
13.146297268
 11
17.0117802734
 21
13.146297268
  0
LWPOLYLINE
  5
266
100
AcDbEntity
  8
0
100
AcDbPolyline
 62
7
  6
CONTINUOUS
 90
5
 70
0
 10
17.132816098
 20
13.5379607843
 10
17.1408821283
 20
13.5392270369
 10
17.1490403978
 20
13.543488142
 10
17.1548993452
 20
13.5493864002
 10
17.1588578356
 20
13.5558020516
  0
LINE
  5
267
100
AcDbEntity
  8
0
100
AcDbLine
 62
7
  6
CONTINUOUS
 10
16.3491952874
 20
10.9567623589
 11
16.3488634718
 21
11.0696398947
  0
LINE
  5
268
100
AcDbEntity
  8
0
100
AcDbLine
 62
7
  6
CONTINUOUS
 10
16.4702284491
 20
11.3484258137
 11
16.4698966335
 21
11.4613033495
  0
LWPOLYLINE
  5
269
100
AcDbEntity
  8
0
100
AcDbPolyline
 62
7
  6
CONTINUOUS
 90
7
 70
0
 10
16.3488629544
 20
11.0696642157
 10
16.3490321021
 20
11.0784285605
 10
16.3503473315
 20
11.0968532704
 10
16.3529513656
 20
11.1172835879
 10
16.35661039
 20
11.1376234814
 10
16.3609027627
 20
11.1558590782
 10
16.3634624091
 20
11.1647832614
  0
LINE
  5
26A
100
AcDbEntity
  8
0
100
AcDbLine
 62
7
  6
CONTINUOUS
 10
16.3488557028
 20
10.9473627354
 11
16.3491949515
 21
10.9568212363
  0
LINE
  5
26B
100
AcDbEntity
  8
0
100
AcDbLine
 62
7
  6
CONTINUOUS
 10
16.2552158739
 20
10.8145073085
 11
16.255549908
 21
10.8178651894
  0
LINE
  5
26C
100
AcDbEntity
  8
0
100
AcDbLine
 62
7
  6
CONTINUOUS
 10
16.5912616108
 20
11.7400892685
 11
16.5909297952
 21
11.8529668043
  0
LWPOLYLINE
  5
26D
100
AcDbEntity
  8
0
100
AcDbPolyline
 62
7
  6
CONTINUOUS
 90
7
 70
0
 10
16.4698961161
 20
11.4613276705
 10
16.4700652638
 20
11.4700920153
 10
16.4713804932
 20
11.4885167252
 10
16.4739845273
 20
11.5089470427
 10
16.4776435517
 20
11.5292869362
 10
16.4819359244
 20
11.547522533
 10
16.4844955708
 20
11.5564467162
  0
LWPOLYLINE
  5
26E
100
AcDbEntity
  8
0
100
AcDbPolyline
 62
7
  6
CONTINUOUS
 90
7
 70
0
 10
16.5909292778
 20
11.8529911253
 10
16.5910984255
 20
11.8617554701
 10
16.5924136549
 20
11.8801801801
 10
16.595017689
 20
11.9006104975
 10
16.5986767134
 20
11.9209503911
 10
16.6029690861
 20
11.9391859878
 10
16.6055287326
 20
11.948110171
  0
LINE
  5
26F
100
AcDbEntity
  8
0
100
AcDbLine
 62
7
  6
CONTINUOUS
 10
16.4698888645
 20
11.3390261903
 11
16.4702281132
 21
11.3484846911
  0
LINE
  5
270
100
AcDbEntity
  8
0
100
AcDbLine
 62
7
  6
CONTINUOUS
 10
16.5909220262
 20
11.7306896451
 11
16.5912612749
 21
11.7401481459
  0
LINE
  5
271
100
AcDbEntity
  8
0
100
AcDbLine
 62
7
  6
CONTINUOUS
 10
17.1588578356
 20
13.5558020516
 11
17.1620162289
 21
13.5632271496
  0
LWPOLYLINE
  5
272
100
AcDbEntity
  8
0
100
AcDbPolyline
 62
7
  6
CONTINUOUS
 90
3
 70
0
 10
17.1191278362
 20
13.6087136745
 10
17.121616842
 20
13.6143408386
 10
17.1226011978
 20
13.6161610887
  0
LWPOLYLINE
  5
273
100
AcDbEntity
  8
0
100
AcDbPolyline
 62
7
  6
CONTINUOUS
 90
3
 70
0
 10
16.9980946745
 20
13.2170502197
 10
17.0005836803
 20
13.2226773838
 10
17.0015680361
 20
13.2244976338
  0
LWPOLYLINE
  5
274
100
AcDbEntity
  8
0
100
AcDbPolyline
 62
7
  6
CONTINUOUS
 90
3
 70
0
 10
16.8770615128
 20
12.8253867649
 10
16.8795505186
 20
12.8310139289
 10
16.8805348744
 20
12.832834179
  0
LINE
  5
275
100
AcDbEntity
  8
0
100
AcDbLine
 62
7
  6
CONTINUOUS
 10
17.096830875
 20
13.5379607229
 11
17.1328134351
 21
13.5379607229
  0
LINE
  5
276
100
AcDbEntity
  8
0
100
AcDbLine
 62
7
  6
CONTINUOUS
 10
16.7122947725
 20
12.1317527233
 11
16.7119629569
 21
12.2446302591
  0
LWPOLYLINE
  5
277
100
AcDbEntity
  8
0
100
AcDbPolyline
 62
7
  6
CONTINUOUS
 90
7
 70
0
 10
16.7119624395
 20
12.2446545801
 10
16.7121315872
 20
12.2534189249
 10
16.7134468166
 20
12.2718436349
 10
16.7160508507
 20
12.2922739523
 10
16.7197098751
 20
12.3126138459
 10
16.7240022478
 20
12.3308494427
 10
16.7265618943
 20
12.3397736258
  0
LINE
  5
278
100
AcDbEntity
  8
0
100
AcDbLine
 62
7
  6
CONTINUOUS
 10
16.7119551879
 20
12.1223530999
 11
16.7122944367
 21
12.1318116007
  0
LWPOLYLINE
  5
279
100
AcDbEntity
  8
0
100
AcDbPolyline
 62
7
  6
CONTINUOUS
 90
3
 70
0
 10
16.3440713595
 20
10.916852093
 10
16.3470699381
 20
10.9319008188
 10
16.3488557028
 20
10.9473627354
  0
LWPOLYLINE
  5
27A
100
AcDbEntity
  8
0
100
AcDbPolyline
 62
7
  6
CONTINUOUS
 90
3
 70
0
 10
16.4651045212
 20
11.3085155478
 10
16.4681030998
 20
11.3235642737
 10
16.4698888645
 20
11.3390261903
  0
LWPOLYLINE
  5
27B
100
AcDbEntity
  8
0
100
AcDbPolyline
 62
7
  6
CONTINUOUS
 90
3
 70
0
 10
16.5861376829
 20
11.7001790026
 10
16.5891362615
 20
11.7152277285
 10
16.5909220262
 20
11.7306896451
  0
LWPOLYLINE
  5
27C
100
AcDbEntity
  8
0
100
AcDbPolyline
 62
7
  6
CONTINUOUS
 90
3
 70
0
 10
16.7071708446
 20
12.0918424574
 10
16.7101694232
 20
12.1068911833
 10
16.7119551879
 20
12.1223530999
  0
LINE
  5
27D
100
AcDbEntity
  8
0
100
AcDbLine
 62
7
  6
CONTINUOUS
 10
16.3418883366
 20
10.908917015
 11
16.3440713595
 21
10.916852093
  0
LINE
  5
27E
100
AcDbEntity
  8
0
100
AcDbLine
 62
7
  6
CONTINUOUS
 10
16.4629214983
 20
11.3005804698
 11
16.4651045212
 21
11.3085155478
  0
LINE
  5
27F
100
AcDbEntity
  8
0
100
AcDbLine
 62
7
  6
CONTINUOUS
 10
16.58395466
 20
11.6922439246
 11
16.5861376829
 21
11.7001790026
  0
LINE
  5
280
100
AcDbEntity
  8
0
100
AcDbLine
 62
7
  6
CONTINUOUS
 10
16.7049878217
 20
12.0839073794
 11
16.7071708446
 21
12.0918424574
  0
LINE
  5
281
100
AcDbEntity
  8
0
100
AcDbLine
 62
7
  6
CONTINUOUS
 10
16.8260209834
 20
12.4755708342
 11
16.8282040063
 21
12.4835059122
  0
LINE
  5
282
100
AcDbEntity
  8
0
100
AcDbLine
 62
7
  6
CONTINUOUS
 10
16.9470541451
 20
12.8672342891
 11
16.949237168
 21
12.8751693671
  0
LINE
  5
283
100
AcDbEntity
  8
0
100
AcDbLine
 62
7
  6
CONTINUOUS
 10
16.2561960737
 20
10.817665509
 11
16.2680050523
 21
10.8558793778
  0
LINE
  5
284
100
AcDbEntity
  8
0
100
AcDbLine
 62
7
  6
CONTINUOUS
 10
16.3634676062
 20
11.1647963152
 11
16.389038214
 21
11.2475428326
  0
LINE
  5
285
100
AcDbEntity
  8
0
100
AcDbLine
 62
7
  6
CONTINUOUS
 10
16.4845007679
 20
11.55645977
 11
16.5100713757
 21
11.6392062874
  0
LINE
  5
286
100
AcDbEntity
  8
0
100
AcDbLine
 62
7
  6
CONTINUOUS
 10
16.6055339296
 20
11.9481232248
 11
16.6311045374
 21
12.0308697422
  0
LINE
  5
287
100
AcDbEntity
  8
0
100
AcDbLine
 62
7
  6
CONTINUOUS
 10
16.7265670913
 20
12.3397866796
 11
16.7521376991
 21
12.422533197
  0
LINE
  5
288
100
AcDbEntity
  8
0
100
AcDbLine
 62
7
  6
CONTINUOUS
 10
16.847600253
 20
12.7314501344
 11
16.8731708609
 21
12.8141966518
  0
LINE
  5
289
100
AcDbEntity
  8
0
100
AcDbLine
 62
7
  6
CONTINUOUS
 10
16.9686334147
 20
13.1231135893
 11
16.9942040226
 21
13.2058601066
  0
LINE
  5
28A
100
AcDbEntity
  8
0
100
AcDbLine
 62
7
  6
CONTINUOUS
 10
17.0896665764
 20
13.5147770441
 11
17.1152371843
 21
13.5975235615
  0
LINE
  5
28B
100
AcDbEntity
  8
0
100
AcDbLine
 62
7
  6
CONTINUOUS
 10
17.2106997381
 20
13.9064404989
 11
17.2234850416
 21
13.9478137561
  0
LINE
  5
28C
100
AcDbEntity
  8
0
100
AcDbLine
 62
7
  6
CONTINUOUS
 10
16.3163278035
 20
10.8262014984
 11
16.3418984114
 21
10.9089480159
  0
LINE
  5
28D
100
AcDbEntity
  8
0
100
AcDbLine
 62
7
  6
CONTINUOUS
 10
16.4373609652
 20
11.2178649532
 11
16.4629315731
 21
11.3006114707
  0
LINE
  5
28E
100
AcDbEntity
  8
0
100
AcDbLine
 62
7
  6
CONTINUOUS
 10
16.5583941269
 20
11.609528408
 11
16.5839647348
 21
11.6922749255
  0
LINE
  5
28F
100
AcDbEntity
  8
0
100
AcDbLine
 62
7
  6
CONTINUOUS
 10
16.6794272886
 20
12.0011918628
 11
16.7049978965
 21
12.0839383803
  0
LINE
  5
290
100
AcDbEntity
  8
0
100
AcDbLine
 62
7
  6
CONTINUOUS
 10
16.8004604503
 20
12.3928553176
 11
16.8260310582
 21
12.4756018351
  0
LINE
  5
291
100
AcDbEntity
  8
0
100
AcDbLine
 62
7
  6
CONTINUOUS
 10
16.921493612
 20
12.7845187725
 11
16.9470642199
 21
12.8672652899
  0
LINE
  5
292
100
AcDbEntity
  8
0
100
AcDbLine
 62
7
  6
CONTINUOUS
 10
17.0425267737
 20
13.1761822273
 11
17.0680973816
 21
13.2589287447
  0
LINE
  5
293
100
AcDbEntity
  8
0
100
AcDbLine
 62
7
  6
CONTINUOUS
 10
17.1635599354
 20
13.5678456821
 11
17.1891305433
 21
13.6505921996
  0
LINE
  5
294
100
AcDbEntity
  8
0
100
AcDbLine
 62
7
  6
CONTINUOUS
 10
17.1152369171
 20
13.5975258458
 11
17.1161942649
 21
13.6005361699
  0
LINE
  5
295
100
AcDbEntity
  8
0
100
AcDbLine
 62
7
  6
CONTINUOUS
 10
16.9942037554
 20
13.205862391
 11
16.9951611032
 21
13.2088727151
  0
LINE
  5
296
100
AcDbEntity
  8
0
100
AcDbLine
 62
7
  6
CONTINUOUS
 10
16.8731705937
 20
12.8141989362
 11
16.8741279415
 21
12.8172092603
  0
LINE
  5
297
100
AcDbEntity
  8
0
100
AcDbLine
 62
7
  6
CONTINUOUS
 10
16.752137432
 20
12.4225354814
 11
16.7530947798
 21
12.4255458055
  0
LINE
  5
298
100
AcDbEntity
  8
0
100
AcDbLine
 62
7
  6
CONTINUOUS
 10
16.6311042703
 20
12.0308720266
 11
16.6320616181
 21
12.0338823507
  0
LINE
  5
299
100
AcDbEntity
  8
0
100
AcDbLine
 62
7
  6
CONTINUOUS
 10
16.5100711086
 20
11.6392085718
 11
16.5110284564
 21
11.6422188959
  0
LINE
  5
29A
100
AcDbEntity
  8
0
100
AcDbLine
 62
7
  6
CONTINUOUS
 10
16.3890379469
 20
11.247545117
 11
16.3899952947
 21
11.2505554411
  0
LINE
  5
29B
100
AcDbEntity
  8
0
100
AcDbLine
 62
7
  6
CONTINUOUS
 10
16.2680047852
 20
10.8558816621
 11
16.2689621329
 21
10.8588919863
  0
LINE
  5
29C
100
AcDbEntity
  8
0
100
AcDbLine
 62
7
  6
CONTINUOUS
 10
17.1620162289
 20
13.5632271496
 11
17.1635646883
 21
13.5678623608
  0
LINE
  5
29D
100
AcDbEntity
  8
0
100
AcDbLine
 62
7
  6
CONTINUOUS
 10
17.0409830672
 20
13.1715636947
 11
17.0425315266
 21
13.176198906
  0
LINE
  5
29E
100
AcDbEntity
  8
0
100
AcDbLine
 62
7
  6
CONTINUOUS
 10
16.9199499055
 20
12.7799002399
 11
16.9214983649
 21
12.7845354512
  0
LINE
  5
29F
100
AcDbEntity
  8
0
100
AcDbLine
 62
7
  6
CONTINUOUS
 10
16.7989167438
 20
12.3882367851
 11
16.8004652032
 21
12.3928719964
  0
LINE
  5
2A0
100
AcDbEntity
  8
0
100
AcDbLine
 62
7
  6
CONTINUOUS
 10
16.6778835821
 20
11.9965733303
 11
16.6794320415
 21
12.0012085416
  0
LINE
  5
2A1
100
AcDbEntity
  8
0
100
AcDbLine
 62
7
  6
CONTINUOUS
 10
16.5568504204
 20
11.6049098755
 11
16.5583988798
 21
11.6095450868
  0
LINE
  5
2A2
100
AcDbEntity
  8
0
100
AcDbLine
 62
7
  6
CONTINUOUS
 10
16.4358172587
 20
11.2132464207
 11
16.4373657181
 21
11.2178816319
  0
LINE
  5
2A3
100
AcDbEntity
  8
0
100
AcDbLine
 62
7
  6
CONTINUOUS
 10
17.1161942649
 20
13.6005361699
 11
17.1191278362
 21
13.6087136745
  0
LINE
  5
2A4
100
AcDbEntity
  8
0
100
AcDbLine
 62
7
  6
CONTINUOUS
 10
16.9951611032
 20
13.2088727151
 11
16.9980946745
 21
13.2170502197
  0
LINE
  5
2A5
100
AcDbEntity
  8
0
100
AcDbLine
 62
7
  6
CONTINUOUS
 10
16.8741279415
 20
12.8172092603
 11
16.8770615128
 21
12.8253867649
  0
LINE
  5
2A6
100
AcDbEntity
  8
0
100
AcDbLine
 62
7
  6
CONTINUOUS
 10
16.7530947798
 20
12.4255458055
 11
16.7560283511
 21
12.4337233101
  0
LINE
  5
2A7
100
AcDbEntity
  8
0
100
AcDbLine
 62
7
  6
CONTINUOUS
 10
16.6320616181
 20
12.0338823507
 11
16.6349951894
 21
12.0420598553
  0
LINE
  5
2A8
100
AcDbEntity
  8
0
100
AcDbLine
 62
7
  6
CONTINUOUS
 10
16.5110284564
 20
11.6422188959
 11
16.5139620277
 21
11.6503964004
  0
LINE
  5
2A9
100
AcDbEntity
  8
0
100
AcDbLine
 62
7
  6
CONTINUOUS
 10
16.3899952947
 20
11.2505554411
 11
16.392928866
 21
11.2587329456
  0
LINE
  5
2AA
100
AcDbEntity
  8
0
100
AcDbLine
 62
7
  6
CONTINUOUS
 10
16.2689621329
 20
10.8588919863
 11
16.2718957043
 21
10.8670694908
  0
LINE
  5
2AB
100
AcDbEntity
  8
0
100
AcDbLine
 62
7
  6
CONTINUOUS
 10
17.0378246739
 20
13.1641385967
 11
17.0409830672
 21
13.1715636947
  0
LINE
  5
2AC
100
AcDbEntity
  8
0
100
AcDbLine
 62
7
  6
CONTINUOUS
 10
16.9167915122
 20
12.7724751419
 11
16.9199499055
 21
12.7799002399
  0
LINE
  5
2AD
100
AcDbEntity
  8
0
100
AcDbLine
 62
7
  6
CONTINUOUS
 10
16.7957583505
 20
12.3808116871
 11
16.7989167438
 21
12.3882367851
  0
LINE
  5
2AE
100
AcDbEntity
  8
0
100
AcDbLine
 62
7
  6
CONTINUOUS
 10
16.6747251888
 20
11.9891482323
 11
16.6778835821
 21
11.9965733303
  0
LWPOLYLINE
  5
2AF
100
AcDbEntity
  8
0
100
AcDbPolyline
 62
7
  6
CONTINUOUS
 90
3
 70
0
 10
16.7560283511
 20
12.4337233101
 10
16.7585173569
 20
12.4393504741
 10
16.7595017127
 20
12.4411707242
  0
LWPOLYLINE
  5
2B0
100
AcDbEntity
  8
0
100
AcDbPolyline
 62
7
  6
CONTINUOUS
 90
3
 70
0
 10
16.6349951894
 20
12.0420598553
 10
16.6374841952
 20
12.0476870193
 10
16.638468551
 20
12.0495072694
  0
LWPOLYLINE
  5
2B1
100
AcDbEntity
  8
0
100
AcDbPolyline
 62
7
  6
CONTINUOUS
 90
3
 70
0
 10
16.5139620277
 20
11.6503964004
 10
16.5164510335
 20
11.6560235645
 10
16.5174353893
 20
11.6578438146
  0
LINE
  5
2B2
100
AcDbEntity
  8
0
100
AcDbLine
 62
7
  6
CONTINUOUS
 10
16.8333279342
 20
12.5234161781
 11
16.8329961186
 21
12.636293714
  0
LINE
  5
2B3
100
AcDbEntity
  8
0
100
AcDbLine
 62
7
  6
CONTINUOUS
 10
16.9543610959
 20
12.9150796329
 11
16.9540292803
 21
13.0279571688
  0
LWPOLYLINE
  5
2B4
100
AcDbEntity
  8
0
100
AcDbPolyline
 62
7
  6
CONTINUOUS
 90
7
 70
0
 10
16.8329956012
 20
12.636318035
 10
16.8331647489
 20
12.6450823797
 10
16.8344799783
 20
12.6635070897
 10
16.8370840124
 20
12.6839374071
 10
16.8407430369
 20
12.7042773007
 10
16.8450354095
 20
12.7225128975
 10
16.847595056
 20
12.7314370807
  0
LWPOLYLINE
  5
2B5
100
AcDbEntity
  8
0
100
AcDbPolyline
 62
7
  6
CONTINUOUS
 90
7
 70
0
 10
16.9540287629
 20
13.0279814898
 10
16.9541979106
 20
13.0367458346
 10
16.95551314
 20
13.0551705445
 10
16.9581171741
 20
13.075600862
 10
16.9617761986
 20
13.0959407555
 10
16.9660685712
 20
13.1141763523
 10
16.9686282177
 20
13.1231005355
  0
LINE
  5
2B6
100
AcDbEntity
  8
0
100
AcDbLine
 62
7
  6
CONTINUOUS
 10
16.8329883496
 20
12.5140165547
 11
16.8333275984
 21
12.5234750555
  0
LINE
  5
2B7
100
AcDbEntity
  8
0
100
AcDbLine
 62
7
  6
CONTINUOUS
 10
16.9540215113
 20
12.9056800095
 11
16.9543607601
 21
12.9151385104
  0
LWPOLYLINE
  5
2B8
100
AcDbEntity
  8
0
100
AcDbPolyline
 62
7
  6
CONTINUOUS
 90
3
 70
0
 10
16.8282040063
 20
12.4835059122
 10
16.8312025849
 20
12.4985546381
 10
16.8329883496
 20
12.5140165547
  0
LWPOLYLINE
  5
2B9
100
AcDbEntity
  8
0
100
AcDbPolyline
 62
7
  6
CONTINUOUS
 90
3
 70
0
 10
16.949237168
 20
12.8751693671
 10
16.9522357466
 20
12.8902180929
 10
16.9540215113
 20
12.9056800095
  0
LWPOLYLINE
  5
2BA
100
AcDbEntity
  8
0
100
AcDbPolyline
 62
7
  6
CONTINUOUS
 90
3
 70
0
 10
17.0702703297
 20
13.2668328219
 10
17.0732689083
 20
13.2818815477
 10
17.075054673
 20
13.2973434643
  0
LWPOLYLINE
  5
2BB
100
AcDbEntity
  8
0
100
AcDbPolyline
 62
7
  6
CONTINUOUS
 90
3
 70
0
 10
17.1913034914
 20
13.6584962767
 10
17.19430207
 20
13.6735450025
 10
17.1960878347
 20
13.6890069191
  0
LINE
  5
2BC
100
AcDbEntity
  8
0
100
AcDbLine
 62
7
  6
CONTINUOUS
 10
17.0680873068
 20
13.2588977439
 11
17.0702703297
 21
13.2668328219
  0
LINE
  5
2BD
100
AcDbEntity
  8
0
100
AcDbLine
 62
7
  6
CONTINUOUS
 10
17.1891204685
 20
13.6505611987
 11
17.1913034914
 21
13.6584962767
  0
LINE
  5
2BE
100
AcDbEntity
  8
0
100
AcDbLine
 62
7
  6
CONTINUOUS
 10
16.314784097
 20
10.8215829659
 11
16.3163325564
 21
10.8262181771
  0
LINE
  5
2BF
100
AcDbEntity
  8
0
100
AcDbLine
 62
7
  6
CONTINUOUS
 10
16.5536920271
 20
11.5974847775
 11
16.5568504204
 21
11.6049098755
  0
LINE
  5
2C0
100
AcDbEntity
  8
0
100
AcDbLine
 62
7
  6
CONTINUOUS
 10
16.4326588654
 20
11.2058213227
 11
16.4358172587
 21
11.2132464207
  0
LINE
  5
2C1
100
AcDbEntity
  8
0
100
AcDbLine
 62
7
  6
CONTINUOUS
 10
16.3116257037
 20
10.8141578679
 11
16.314784097
 21
10.8215829659
  0
LWPOLYLINE
  5
2C2
100
AcDbEntity
  8
0
100
AcDbPolyline
 62
7
  6
CONTINUOUS
 90
3
 70
0
 10
16.392928866
 20
11.2587329456
 10
16.3954178718
 20
11.2643601097
 10
16.3964022276
 20
11.2661803598
  0
LWPOLYLINE
  5
2C3
100
AcDbEntity
  8
0
100
AcDbPolyline
 62
7
  6
CONTINUOUS
 90
3
 70
0
 10
16.2718957043
 20
10.8670694908
 10
16.2743847101
 20
10.8726966549
 10
16.2753690659
 20
10.874516905
  0
LINE
  5
2C4
100
AcDbEntity
  8
0
100
AcDbLine
 62
7
  6
CONTINUOUS
 10
17.0753942576
 20
13.3067430878
 11
17.075062442
 21
13.4196206236
  0
LWPOLYLINE
  5
2C5
100
AcDbEntity
  8
0
100
AcDbPolyline
 62
7
  6
CONTINUOUS
 90
7
 70
0
 10
17.0750619246
 20
13.4196449446
 10
17.0752310723
 20
13.4284092894
 10
17.0765463017
 20
13.4468339993
 10
17.0791503358
 20
13.4672643168
 10
17.0828093603
 20
13.4876042103
 10
17.0871017329
 20
13.5058398071
 10
17.0896613794
 20
13.5147639903
  0
LINE
  5
2C6
100
AcDbEntity
  8
0
100
AcDbLine
 62
7
  6
CONTINUOUS
 10
17.075054673
 20
13.2973434643
 11
17.0753939218
 21
13.3068019652
  0
LINE
  5
2C7
100
AcDbEntity
  8
0
100
AcDbLine
 62
7
  6
CONTINUOUS
 10
17.2238152016
 20
13.9511728279
 11
17.2234811676
 21
13.947814947
  0
LINE
  5
2C8
100
AcDbEntity
  8
0
100
AcDbLine
 62
7
  6
CONTINUOUS
 10
17.1964274193
 20
13.6984065426
 11
17.1960956037
 21
13.8112840784
  0
LWPOLYLINE
  5
2C9
100
AcDbEntity
  8
0
100
AcDbPolyline
 62
7
  6
CONTINUOUS
 90
7
 70
0
 10
17.1960950863
 20
13.8113083994
 10
17.196264234
 20
13.8200727442
 10
17.1975794634
 20
13.8384974541
 10
17.2001834975
 20
13.8589277716
 10
17.203842522
 20
13.8792676651
 10
17.2081348946
 20
13.8975032619
 10
17.2106945411
 20
13.9064274451
  0
LINE
  5
2CA
100
AcDbEntity
  8
0
100
AcDbLine
 62
7
  6
CONTINUOUS
 10
17.1960878347
 20
13.6890069191
 11
17.1964270835
 21
13.69846542
  0
LINE
  5
2CB
100
AcDbEntity
  8
0
100
AcDbLine
 62
7
  6
CONTINUOUS
 10
17.132603482
 20
14.2251808699
 11
14.7033051103
 21
14.2251808699
  0
LINE
  5
2CC
100
AcDbEntity
  8
0
100
AcDbLine
 62
7
  6
CONTINUOUS
 10
17.2238152016
 20
13.9511728279
 11
17.2089141412
 21
14.1102037535
  0
LINE
  5
2CD
100
AcDbEntity
  8
0
100
AcDbLine
 62
7
  6
CONTINUOUS
 10
17.204157516
 20
14.1262922033
 11
17.1632560535
 21
14.2096406207
  0
ARC
  5
2CE
100
AcDbEntity
  8
0
100
AcDbCircle
 62
7
  6
CONTINUOUS
 10
4.8827241982
 20
5.4302865634
 40
0.025
100
AcDbArc
 50
195.0
 51
270.0
  0
ARC
  5
2CF
100
AcDbEntity
  8
0
100
AcDbCircle
 62
7
  6
CONTINUOUS
 10
4.944262855
 20
5.2006211696
 40
0.025
100
AcDbArc
 50
195.0030201643
 51
270.0007814401
  0
ARC
  5
2D0
100
AcDbEntity
  8
0
100
AcDbCircle
 62
7
  6
CONTINUOUS
 10
4.8866172762
 20
5.7055351465
 40
0.1
100
AcDbArc
 50
180.0
 51
195.0
  0
ARC
  5
2D1
100
AcDbEntity
  8
0
100
AcDbCircle
 62
7
  6
CONTINUOUS
 10
4.8116172762
 20
5.8396198968
 40
0.025
100
AcDbArc
 50
90.0
 51
180.0
  0
ARC
  5
2D2
100
AcDbEntity
  8
0
100
AcDbCircle
 62
7
  6
CONTINUOUS
 10
7.3164713563
 20
5.2006198968
 40
0.025
100
AcDbArc
 50
270.0
 51
345.0
  0
ARC
  5
2D3
100
AcDbEntity
  8
0
100
AcDbCircle
 62
7
  6
CONTINUOUS
 10
7.3780103541
 20
5.4302865634
 40
0.025
100
AcDbArc
 50
270.0
 51
345.0
  0
ARC
  5
2D4
100
AcDbEntity
  8
0
100
AcDbCircle
 62
7
  6
CONTINUOUS
 10
7.3741172762
 20
5.7055351465
 40
0.1
100
AcDbArc
 50
345.0
 51
360.0
  0
ARC
  5
2D5
100
AcDbEntity
  8
0
100
AcDbCircle
 62
7
  6
CONTINUOUS
 10
7.4491172762
 20
5.8396198968
 40
0.025
100
AcDbArc
 50
0.0
 51
90.0
  0
ARC
  5
2D6
100
AcDbEntity
  8
0
100
AcDbCircle
 62
7
  6
CONTINUOUS
 10
13.7575378998
 20
5.1735413711
 40
0.0574166667
100
AcDbArc
 50
193.0
 51
270.0
  0
ARC
  5
2D7
100
AcDbEntity
  8
0
100
AcDbCircle
 62
7
  6
CONTINUOUS
 10
13.8631726141
 20
5.1735413711
 40
0.0574166667
100
AcDbArc
 50
270.0
 51
347.0
  0
ARC
  5
2D8
100
AcDbEntity
  8
0
100
AcDbCircle
 62
7
  6
CONTINUOUS
 10
14.2575378998
 20
5.1735413711
 40
0.0574166667
100
AcDbArc
 50
193.0
 51
270.0
  0
ARC
  5
2D9
100
AcDbEntity
  8
0
100
AcDbCircle
 62
7
  6
CONTINUOUS
 10
14.3631726141
 20
5.1735413711
 40
0.0574166667
100
AcDbArc
 50
270.0
 51
347.0
  0
ARC
  5
2DA
100
AcDbEntity
  8
0
100
AcDbCircle
 62
7
  6
CONTINUOUS
 10
14.7575378998
 20
5.1735413711
 40
0.0574166667
100
AcDbArc
 50
193.0
 51
270.0
  0
ARC
  5
2DB
100
AcDbEntity
  8
0
100
AcDbCircle
 62
7
  6
CONTINUOUS
 10
14.8631726141
 20
5.1735413711
 40
0.0574166667
100
AcDbArc
 50
270.0
 51
347.0
  0
ARC
  5
2DC
100
AcDbEntity
  8
0
100
AcDbCircle
 62
7
  6
CONTINUOUS
 10
15.2575378998
 20
5.1735413711
 40
0.0574166667
100
AcDbArc
 50
193.0
 51
270.0
  0
ARC
  5
2DD
100
AcDbEntity
  8
0
100
AcDbCircle
 62
7
  6
CONTINUOUS
 10
15.3631726141
 20
5.1735413711
 40
0.0574166667
100
AcDbArc
 50
270.0
 51
347.0
  0
ARC
  5
2DE
100
AcDbEntity
  8
0
100
AcDbCircle
 62
7
  6
CONTINUOUS
 10
13.6131726141
 20
5.2883747044
 40
0.0574166667
100
AcDbArc
 50
13.0
 51
90.0
  0
ARC
  5
2DF
100
AcDbEntity
  8
0
100
AcDbCircle
 62
7
  6
CONTINUOUS
 10
14.0075378998
 20
5.2883747044
 40
0.0574166667
100
AcDbArc
 50
90.0
 51
167.0
  0
ARC
  5
2E0
100
AcDbEntity
  8
0
100
AcDbCircle
 62
7
  6
CONTINUOUS
 10
14.1131726141
 20
5.2883747044
 40
0.0574166667
100
AcDbArc
 50
13.0
 51
90.0
  0
ARC
  5
2E1
100
AcDbEntity
  8
0
100
AcDbCircle
 62
7
  6
CONTINUOUS
 10
14.5075378998
 20
5.2883747044
 40
0.0574166667
100
AcDbArc
 50
90.0
 51
167.0
  0
ARC
  5
2E2
100
AcDbEntity
  8
0
100
AcDbCircle
 62
7
  6
CONTINUOUS
 10
14.6131726141
 20
5.2883747044
 40
0.0574166667
100
AcDbArc
 50
13.0
 51
90.0
  0
ARC
  5
2E3
100
AcDbEntity
  8
0
100
AcDbCircle
 62
7
  6
CONTINUOUS
 10
15.0075378998
 20
5.2883747044
 40
0.0574166667
100
AcDbArc
 50
90.0
 51
167.0
  0
ARC
  5
2E4
100
AcDbEntity
  8
0
100
AcDbCircle
 62
7
  6
CONTINUOUS
 10
15.1131726141
 20
5.2883747044
 40
0.0574166667
100
AcDbArc
 50
13.0
 51
90.0
  0
ARC
  5
2E5
100
AcDbEntity
  8
0
100
AcDbCircle
 62
7
  6
CONTINUOUS
 10
15.5075378998
 20
5.2883747044
 40
0.0574166667
100
AcDbArc
 50
90.0
 51
167.0
  0
ARC
  5
2E6
100
AcDbEntity
  8
0
100
AcDbCircle
 62
7
  6
CONTINUOUS
 10
17.3631726141
 20
5.1735413711
 40
0.0574166667
100
AcDbArc
 50
270.0
 51
347.0
  0
ARC
  5
2E7
100
AcDbEntity
  8
0
100
AcDbCircle
 62
7
  6
CONTINUOUS
 10
17.2575378998
 20
5.1735413711
 40
0.0574166667
100
AcDbArc
 50
193.0
 51
270.0
  0
ARC
  5
2E8
100
AcDbEntity
  8
0
100
AcDbCircle
 62
7
  6
CONTINUOUS
 10
16.8631726141
 20
5.1735413711
 40
0.0574166667
100
AcDbArc
 50
270.0
 51
347.0
  0
ARC
  5
2E9
100
AcDbEntity
  8
0
100
AcDbCircle
 62
7
  6
CONTINUOUS
 10
16.7575378998
 20
5.1735413711
 40
0.0574166667
100
AcDbArc
 50
193.0
 51
270.0
  0
ARC
  5
2EA
100
AcDbEntity
  8
0
100
AcDbCircle
 62
7
  6
CONTINUOUS
 10
16.3631726141
 20
5.1735413711
 40
0.0574166667
100
AcDbArc
 50
270.0
 51
347.0
  0
ARC
  5
2EB
100
AcDbEntity
  8
0
100
AcDbCircle
 62
7
  6
CONTINUOUS
 10
16.2575378998
 20
5.1735413711
 40
0.0574166667
100
AcDbArc
 50
193.0
 51
270.0
  0
ARC
  5
2EC
100
AcDbEntity
  8
0
100
AcDbCircle
 62
7
  6
CONTINUOUS
 10
15.8631726141
 20
5.1735413711
 40
0.0574166667
100
AcDbArc
 50
270.0
 51
347.0
  0
ARC
  5
2ED
100
AcDbEntity
  8
0
100
AcDbCircle
 62
7
  6
CONTINUOUS
 10
15.7575378998
 20
5.1735413711
 40
0.0574166667
100
AcDbArc
 50
193.0
 51
270.0
  0
ARC
  5
2EE
100
AcDbEntity
  8
0
100
AcDbCircle
 62
7
  6
CONTINUOUS
 10
17.5075378998
 20
5.2883747044
 40
0.0574166667
100
AcDbArc
 50
90.0
 51
167.0
  0
ARC
  5
2EF
100
AcDbEntity
  8
0
100
AcDbCircle
 62
7
  6
CONTINUOUS
 10
17.1131726141
 20
5.2883747044
 40
0.0574166667
100
AcDbArc
 50
13.0
 51
90.0
  0
ARC
  5
2F0
100
AcDbEntity
  8
0
100
AcDbCircle
 62
7
  6
CONTINUOUS
 10
17.0075378998
 20
5.2883747044
 40
0.0574166667
100
AcDbArc
 50
90.0
 51
167.0
  0
ARC
  5
2F1
100
AcDbEntity
  8
0
100
AcDbCircle
 62
7
  6
CONTINUOUS
 10
16.6131726141
 20
5.2883747044
 40
0.0574166667
100
AcDbArc
 50
13.0
 51
90.0
  0
ARC
  5
2F2
100
AcDbEntity
  8
0
100
AcDbCircle
 62
7
  6
CONTINUOUS
 10
16.5075378998
 20
5.2883747044
 40
0.0574166667
100
AcDbArc
 50
90.0
 51
167.0
  0
ARC
  5
2F3
100
AcDbEntity
  8
0
100
AcDbCircle
 62
7
  6
CONTINUOUS
 10
16.1131726141
 20
5.2883747044
 40
0.0574166667
100
AcDbArc
 50
13.0
 51
90.0
  0
ARC
  5
2F4
100
AcDbEntity
  8
0
100
AcDbCircle
 62
7
  6
CONTINUOUS
 10
16.0075378998
 20
5.2883747044
 40
0.0574166667
100
AcDbArc
 50
90.0
 51
167.0
  0
ARC
  5
2F5
100
AcDbEntity
  8
0
100
AcDbCircle
 62
7
  6
CONTINUOUS
 10
15.6131726141
 20
5.2883747044
 40
0.0574166667
100
AcDbArc
 50
13.0
 51
90.0
  0
SPLINE
  5
2F6
100
AcDbEntity
  8
0
100
AcDbSpline
 62
7
  6
CONTINUOUS
 70
0
 71
3
 72
15
 73
11
 74
0
 42
0.0000001
 43
0.0000001
 44
0.0000000001
 40
0.0
 40
0.0
 40
0.0
 40
0.0
 40
0.1295697417
 40
0.2645775874
 40
0.4012662441
 40
0.5362714944
 40
0.666215195
 40
0.788099056
 40
0.8998130296
 40
1.0
 40
1.0
 40
1.0
 40
1.0
 10
17.132603482
 20
14.2251808699
 30
0.0
 10
17.134151755
 20
14.2251808699
 30
0.0
 10
17.1373157277
 20
14.2249656186
 30
0.0
 10
17.14203825
 20
14.2240817533
 30
0.0
 10
17.1466945387
 20
14.2226542932
 30
0.0
 10
17.1511063703
 20
14.2207389688
 30
0.0
 10
17.1551125432
 20
14.2184103147
 30
0.0
 10
17.158564632
 20
14.215749007
 30
0.0
 10
17.1613304583
 20
14.2128529304
 30
0.0
 10
17.1627286497
 20
14.2107153566
 30
0.0
 10
17.1632560535
 20
14.2096406207
 30
0.0
  0
SPLINE
  5
2F7
100
AcDbEntity
  8
0
100
AcDbSpline
 62
7
  6
CONTINUOUS
 70
0
 71
3
 72
15
 73
11
 74
0
 42
0.0000001
 43
0.0000001
 44
0.0000000001
 40
0.0
 40
0.0
 40
0.0
 40
0.0
 40
0.0996450743
 40
0.2028711022
 40
0.312593336
 40
0.4308546813
 40
0.5588109358
 40
0.6968279092
 40
0.8443971993
 40
1.0
 40
1.0
 40
1.0
 40
1.0
 10
14.6870456052
 20
14.217021817
 30
0.0
 10
14.6872357204
 20
14.2176370516
 30
0.0
 10
14.6877743698
 20
14.2188479842
 30
0.0
 10
14.6890053614
 20
14.2204689172
 30
0.0
 10
14.6906287315
 20
14.2218840869
 30
0.0
 10
14.6926128635
 20
14.2230681565
 30
0.0
 10
14.694920388
 20
14.2240067934
 30
0.0
 10
14.6975120172
 20
14.2246854975
 30
0.0
 10
14.7003389181
 20
14.2250931754
 30
0.0
 10
14.7022995543
 20
14.2251808699
 30
0.0
 10
14.7033051103
 20
14.2251808699
 30
0.0
  0
SPLINE
  5
2F8
100
AcDbEntity
  8
0
100
AcDbSpline
 62
7
  6
CONTINUOUS
 70
0
 71
3
 72
11
 73
7
 74
0
 42
0.0000001
 43
0.0000001
 44
0.0000000001
 40
0.0
 40
0.0
 40
0.0
 40
0.0
 40
0.2336913513
 40
0.4747257594
 40
0.7289541378
 40
1.0
 40
1.0
 40
1.0
 40
1.0
 10
13.7187803116
 20
11.0837141785
 30
0.0
 10
13.7186054575
 20
11.0831483309
 30
0.0
 10
13.7183751501
 20
11.0819561869
 30
0.0
 10
13.7184174696
 20
11.0800969113
 30
0.0
 10
13.7188352645
 20
11.0781897279
 30
0.0
 10
13.7193367227
 20
11.0769496484
 30
0.0
 10
13.7196393385
 20
11.0763329822
 30
0.0
  0
SPLINE
  5
2F9
100
AcDbEntity
  8
0
100
AcDbSpline
 62
7
  6
CONTINUOUS
 70
0
 71
3
 72
9
 73
5
 74
0
 42
0.0000001
 43
0.0000001
 44
0.0000000001
 40
0.0
 40
0.0
 40
0.0
 40
0.0
 40
0.5176005366
 40
1.0
 40
1.0
 40
1.0
 40
1.0
 10
17.204157516
 20
14.1262922033
 30
0.0
 10
17.2054379588
 20
14.1236829353
 30
0.0
 10
17.2075397047
 20
14.1184450005
 30
0.0
 10
17.2086614317
 20
14.1129007857
 30
0.0
 10
17.2089141412
 20
14.1102037535
 30
0.0
  0
SPLINE
  5
2FA
100
AcDbEntity
  8
0
100
AcDbSpline
 62
7
  6
CONTINUOUS
 70
0
 71
3
 72
14
 73
10
 74
0
 42
0.0000001
 43
0.0000001
 44
0.0000000001
 40
0.0
 40
0.0
 40
0.0
 40
0.0
 40
0.1556306028
 40
0.3032679424
 40
0.5688263989
 40
0.687132339
 40
0.7968667349
 40
0.9001614856
 40
1.0
 40
1.0
 40
1.0
 40
1.0
 10
16.2389602735
 20
10.8063470526
 30
0.0
 10
16.2399654323
 20
10.8063470526
 30
0.0
 10
16.2419264399
 20
10.8064348769
 30
0.0
 10
16.2455643046
 20
10.8069595756
 30
0.0
 10
16.2488849082
 20
10.8080036467
 30
0.0
 10
16.251635109
 20
10.8096422879
 30
0.0
 10
16.2532589434
 20
10.8110566098
 30
0.0
 10
16.254490376
 20
10.8126780281
 30
0.0
 10
16.255028667
 20
10.8138902552
 30
0.0
 10
16.2552185361
 20
10.8145064866
 30
0.0
  0
SPLINE
  5
2FB
100
AcDbEntity
  8
0
100
AcDbSpline
 62
7
  6
CONTINUOUS
 70
0
 71
3
 72
15
 73
11
 74
0
 42
0.0000001
 43
0.0000001
 44
0.0000000001
 40
0.0
 40
0.0
 40
0.0
 40
0.0
 40
0.1102081915
 40
0.2287249851
 40
0.3536339023
 40
0.4829520598
 40
0.6145637777
 40
0.7462221749
 40
0.8755857532
 40
1.0
 40
1.0
 40
1.0
 40
1.0
 10
13.9127553308
 20
10.8178651894
 30
0.0
 10
13.9135106719
 20
10.8170143484
 30
0.0
 10
13.9152133261
 20
10.8153662202
 30
0.0
 10
13.9181307043
 20
10.813159252
 30
0.0
 10
13.9214417682
 20
10.8111844713
 30
0.0
 10
13.9250534976
 20
10.8094901983
 30
0.0
 10
13.9288748831
 20
10.8081223957
 30
0.0
 10
13.932806961
 20
10.8071133604
 30
0.0
 10
13.9367437583
 20
10.8064960802
 30
0.0
 10
13.9393651203
 20
10.8063470526
 30
0.0
 10
13.9406495264
 20
10.8063470526
 30
0.0
  0
SPLINE
  5
2FC
100
AcDbEntity
  8
0
100
AcDbSpline
 62
7
  6
CONTINUOUS
 70
0
 71
3
 72
9
 73
5
 74
0
 42
0.0000001
 43
0.0000001
 44
0.0000000001
 40
0.0
 40
0.0
 40
0.0
 40
0.0
 40
0.4813568004
 40
1.0
 40
1.0
 40
1.0
 40
1.0
 10
13.760540801
 20
10.9929845648
 30
0.0
 10
13.7619228851
 20
10.9901681735
 30
0.0
 10
13.7652699104
 20
10.9845448267
 30
0.0
 10
13.7693301898
 20
10.9794239594
 30
0.0
 10
13.7715743047
 20
10.976896115
 30
0.0
  0
SPLINE
  5
2FD
100
AcDbEntity
  8
0
100
AcDbSpline
 62
7
  6
CONTINUOUS
 70
0
 71
3
 72
15
 73
11
 74
0
 42
0.0000001
 43
0.0000001
 44
0.0000000001
 40
0.0
 40
0.0
 40
0.0
 40
0.0
 40
0.1001869704
 40
0.211900944
 40
0.333784805
 40
0.4637285056
 40
0.5987337559
 40
0.7354224126
 40
0.8704302583
 40
1.0
 40
1.0
 40
1.0
 40
1.0
 10
16.1949907599
 20
11.0763329822
 30
0.0
 10
16.1944633561
 20
11.077407718
 30
0.0
 10
16.1930651647
 20
11.0795452919
 30
0.0
 10
16.1902993384
 20
11.0824413685
 30
0.0
 10
16.1868472495
 20
11.0851026762
 30
0.0
 10
16.1828410767
 20
11.0874313303
 30
0.0
 10
16.1784292451
 20
11.0893466547
 30
0.0
 10
16.1737729564
 20
11.0907741147
 30
0.0
 10
16.1690504341
 20
11.0916579801
 30
0.0
 10
16.1658864614
 20
11.0918732314
 30
0.0
 10
16.1643381884
 20
11.0918732314
 30
0.0
  0
SPLINE
  5
2FE
100
AcDbEntity
  8
0
100
AcDbSpline
 62
7
  6
CONTINUOUS
 70
0
 71
3
 72
15
 73
11
 74
0
 42
0.0000001
 43
0.0000001
 44
0.0000000001
 40
0.0
 40
0.0
 40
0.0
 40
0.0
 40
0.1556028007
 40
0.3031720908
 40
0.4411890642
 40
0.5691453187
 40
0.687406664
 40
0.7971288978
 40
0.9003549257
 40
1.0
 40
1.0
 40
1.0
 40
1.0
 10
13.7350398167
 20
11.0918732314
 30
0.0
 10
13.7340342606
 20
11.0918732314
 30
0.0
 10
13.7320736245
 20
11.0917855368
 30
0.0
 10
13.7292467235
 20
11.091377859
 30
0.0
 10
13.7266550944
 20
11.0906991549
 30
0.0
 10
13.7243475699
 20
11.089760518
 30
0.0
 10
13.7223634378
 20
11.0885764484
 30
0.0
 10
13.7207400677
 20
11.0871612787
 30
0.0
 10
13.7195090762
 20
11.0855403457
 30
0.0
 10
13.7189704268
 20
11.0843294131
 30
0.0
 10
13.7187803116
 20
11.0837141785
 30
0.0
  0
SPLINE
  5
2FF
100
AcDbEntity
  8
0
100
AcDbSpline
 62
7
  6
CONTINUOUS
 70
0
 71
3
 72
9
 73
5
 74
0
 42
0.0000001
 43
0.0000001
 44
0.0000000001
 40
0.0
 40
0.0
 40
0.0
 40
0.0
 40
0.4823994634
 40
1.0
 40
1.0
 40
1.0
 40
1.0
 10
16.2406488476
 20
10.976896115
 30
0.0
 10
16.240396138
 20
10.9795931472
 30
0.0
 10
16.2392744111
 20
10.985137362
 30
0.0
 10
16.2371726652
 20
10.9903752968
 30
0.0
 10
16.2358922224
 20
10.9929845648
 30
0.0
  0
ENDSEC
  0
SECTION
  2
OBJECTS
  0
DICTIONARY
  5
C
100
AcDbDictionary
280
0
281
1
  3
ACAD_GROUP
350
D
  3
ACAD_MLINESTYLE
350
17
  3
ACAD_LAYOUT
350
1A
  3
ACAD_PLOTSETTINGS
350
19
  3
ACAD_PLOTSTYLENAME
350
E
  0
DICTIONARY
  5
D
102
{ACAD_REACTORS
330
C
102
}
100
AcDbDictionary
280
0
281
1
  0
ACDBDICTIONARYWDFLT
  5
E
102
{ACAD_REACTORS
330
C
102
}
100
AcDbDictionary
281
1
  3
Normal
350
F
100
AcDbDictionaryWithDefault
340
F
  0
DICTIONARY
  5
17
102
{ACAD_REACTORS
330
C
102
}
100
AcDbDictionary
280
0
281
1
  3
Standard
350
18
  0
DICTIONARY
  5
19
102
{ACAD_REACTORS
330
C
102
}
100
AcDbDictionary
281
1
  0
DICTIONARY
  5
1A
102
{ACAD_REACTORS
330
C
102
}
100
AcDbDictionary
281
1
  3
Model
350
300
  3
Layout1
350
301
  0
ACDBPLACEHOLDER
  5
F
102
{ACAD_REACTORS
330
E
102
}
  0
MLINESTYLE
  5
18
102
{ACAD_REACTORS
330
17
102
}
100
AcDbMlineStyle
  2
STANDARD
 70
0
  3

 62
256
 51
90.0
 52
90.0
 71
2
 49
0.5
 62
256
  6
BYLAYER
 49
-0.5
 62
256
  6
BYLAYER
  0
LAYOUT
  5
300
102
{ACAD_REACTORS
330
1A
102
}
100
AcDbPlotSettings
  1

  2
none_device
  4
ANSI_C_(22.00_x_17.00_Inches)
  6

 40
0.0
 41
0.0
 42
0.0
 43
0.0
 44
558.8
 45
431.8
 46
0.0
 47
0.0
 48
0.0
 49
0.0
140
0.0
141
0.0
142
1.0
143
1.0
 70
1024
 72
0
 73
0
 74
0
  7

 75
0
147
1.0
148
0.0
149
0.0
100
AcDbLayout
  1
Model
 70
0
 71
0
 10
0.0
 20
0.0
 11
22.0
 21
17.0
 12
0.0
 22
0.0
 32
0.0
 14
0.0
 24
0.0
 34
0.0
 15
0.0
 25
0.0
 35
0.0
146
0.0
 13
0.0
 23
0.0
 33
0.0
 16
1.0
 26
0.0
 36
0.0
 17
0.0
 27
1.0
 37
0.0
 76
0
330
216
345
0
346
0
  0
LAYOUT
  5
301
102
{ACAD_REACTORS
330
1A
102
}
100
AcDbPlotSettings
  1

  2
none_device
  4
ANSI_C_(22.00_x_17.00_Inches)
  6

 40
0.0
 41
0.0
 42
0.0
 43
0.0
 44
558.8
 45
431.8
 46
0.0
 47
0.0
 48
0.0
 49
0.0
140
0.0
141
0.0
142
1.0
143
1.0
 70
0
 72
0
 73
0
 74
0
  7

 75
0
147
1.0
148
0.0
149
0.0
100
AcDbLayout
  1
Layout1
 70
0
 71
1
 10
0.0
 20
0.0
 11
22.0
 21
17.0
 12
0.0
 22
0.0
 32
0.0
 14
0.0
 24
0.0
 34
0.0
 15
0.0
 25
0.0
 35
0.0
146
0.0
 13
0.0
 23
0.0
 33
0.0
 16
1.0
 26
0.0
 36
0.0
 17
0.0
 27
1.0
 37
0.0
 76
0
330
217
345
0
346
0
  0
ENDSEC
  0
EOF