999
DXF file: _cgs_temp_output.dxf
999
Pro/ENGINEER 2015110 by Parametric Technology Corporation
  0
SECTION
  2
HEADER
  9
$ACADVER
  1
AC1021
  9
$DWGCODEPAGE
  3
ANSI_1252
  9
$EXTMAX
 10
22.0
 20
17.0
 30
0.0
  9
$EXTMIN
 10
0.0
 20
0.0
 30
0.0
  9
$LIMMIN
 10
0.0
 20
0.0
  9
$LIMMAX
 10
22.0
 20
17.0
  9
$VIEWCTR
 10
11.0
 20
8.5
  9
$VIEWSIZE
 40
17.0
  9
$CLAYER
  8
0
  9
$LTSCALE
 40
1.21
  9
$CELTYPE
  6
BYLAYER
  9
$DIMSCALE
 40
1.0
  9
$DIMASZ
 40
0.1875
  9
$DIMEXO
 40
0.0625
  9
$DIMDLI
 40
0.836
  9
$DIMEXE
 40
0.125
  9
$DIMCEN
 40
0.198
  9
$DIMLFAC
 40
1.0
  9
$DIMBLK
  1
_CLOSED
  9
$DIMALT
 70
0
  9
$DIMALTF
 40
25.4
  9
$DIMTXT
 40
0.15625
  9
$DIMTOL
 70
0
  9
$DIMLIM
 70
0
  9
$DIMTFAC
 40
1.0
  9
$DIMGAP
 40
0.09
  9
$DIMDSEP
 70
46
  9
$AUNITS
 70
0
  9
$PDMODE
 70
3
  9
$PDSIZE
 40
0.3125
  9
$HANDSEED
  5
2A3
  9
$TILEMODE
 70
1
  9
$MEASUREMENT
 70
0
  9
$INSUNITS
 70
1
  0
ENDSEC
  0
SECTION
  2
CLASSES
  0
CLASS
  1
ACDBDICTIONARYWDFLT
  2
AcDbDictionaryWithDefault
  3
AutoCAD 2000
 90
0
 91
1
280
0
281
0
  0
CLASS
  1
ACDBPLACEHOLDER
  2
AcDbPlaceHolder
  3
AutoCAD 2000
 90
0
 91
1
280
0
281
0
  0
CLASS
  1
LAYOUT
  2
AcDbLayout
  3
AutoCAD 2000
 90
0
 91
0
280
0
281
0
  0
ENDSEC
  0
SECTION
  2
TABLES
  0
TABLE
  2
VPORT
  5
8
100
AcDbSymbolTable
 70
2
  0
VPORT
  5
1F4
100
AcDbSymbolTableRecord
100
AcDbViewportTableRecord
  2
*ACTIVE
 70
0
 10
0.0
 20
0.0
 11
1.0
 21
1.0
 12
11.0
 22
8.5
 13
0.0
 23
0.0
 14
1.0
 24
1.0
 15
0.0
 25
0.0
 16
0.0
 26
0.0
 36
1.0
 17
0.0
 27
0.0
 37
0.0
 40
17.0
 41
1.2941176471
 42
50.0
 43
0.0
 44
0.0
 50
0.0
 51
0.0
 71
0
 72
100
 73
1
 74
1
 75
0
 76
0
 77
0
 78
0
  0
ENDTAB
  0
TABLE
  2
LTYPE
  5
5
100
AcDbSymbolTable
 70
6
  0
LTYPE
  5
14
100
AcDbSymbolTableRecord
100
AcDbLinetypeTableRecord
  2
BYBLOCK
 70
0
  3

 72
65
 73
0
 40
0.0
  0
LTYPE
  5
15
100
AcDbSymbolTableRecord
100
AcDbLinetypeTableRecord
  2
BYLAYER
 70
0
  3

 72
65
 73
0
 40
0.0
  0
LTYPE
  5
16
100
AcDbSymbolTableRecord
100
AcDbLinetypeTableRecord
  2
CONTINUOUS
 70
64
  3
Solid line
 72
65
 73
0
 40
0.0
  0
LTYPE
  5
1F5
100
AcDbSymbolTableRecord
100
AcDbLinetypeTableRecord
  2
CENTER
 70
64
  3
____ _ ____ _ ____ _ ____ _ ____ _ ____ _ ____
 72
65
 73
4
 40
0.6
 49
0.375
 74
0
 49
-0.075
 74
0
 49
0.075
 74
0
 49
-0.075
 74
0
  0
LTYPE
  5
1F6
100
AcDbSymbolTableRecord
100
AcDbLinetypeTableRecord
  2
HIDDEN
 70
64
  3
- - - - - - - - - - - - - - - - - - - -
 72
65
 73
2
 40
0.2
 49
0.1
 74
0
 49
-0.1
 74
0
  0
LTYPE
  5
1F7
100
AcDbSymbolTableRecord
100
AcDbLinetypeTableRecord
  2
PHANTOM
 70
64
  3
_____ _ _ _____ _ _ _____ _ _ _____
 72
65
 73
6
 40
0.8
 49
0.45
 74
0
 49
-0.05
 74
0
 49
0.1
 74
0
 49
-0.05
 74
0
 49
0.1
 74
0
 49
-0.05
 74
0
  0
LTYPE
  5
1F8
100
AcDbSymbolTableRecord
100
AcDbLinetypeTableRecord
  2
DOT
 70
64
  3
. . . . . . . . . . . . . . . . . . . .
 72
65
 73
2
 40
0.2
 49
0.1
 74
0
 49
-0.1
 74
0
  0
LTYPE
  5
1F9
100
AcDbSymbolTableRecord
100
AcDbLinetypeTableRecord
  2
DASHED
 70
64
  3
- - - - - - - - - - - - - - - - - - - -
 72
65
 73
2
 40
0.2
 49
0.1
 74
0
 49
-0.1
 74
0
  0
ENDTAB
  0
TABLE
  2
LAYER
  5
2
100
AcDbSymbolTable
 70
36
  0
LAYER
  5
10
100
AcDbSymbolTableRecord
100
AcDbLayerTableRecord
  2
0
 70
0
 62
7
  6
CONTINUOUS
370
-3
390
F
  0
LAYER
  5
1FA
100
AcDbSymbolTableRecord
100
AcDbLayerTableRecord
  2
DEFAULT_1
 70
0
 62
7
  6
CENTER
370
-3
390
F
  0
LAYER
  5
1FB
100
AcDbSymbolTableRecord
100
AcDbLayerTableRecord
  2
DEFAULT_2
 70
0
 62
8
  6
HIDDEN
370
-3
390
F
  0
LAYER
  5
1FC
100
AcDbSymbolTableRecord
100
AcDbLayerTableRecord
  2
DEFAULT_3
 70
0
 62
7
  6
PHANTOM
370
-3
390
F
  0
LAYER
  5
1FD
100
AcDbSymbolTableRecord
100
AcDbLayerTableRecord
  2
01_ALL_DTM_PLN
 70
0
 62
7
  6
CONTINUOUS
370
-3
390
F
  0
LAYER
  5
1FE
100
AcDbSymbolTableRecord
100
AcDbLayerTableRecord
  2
01__ASM_ALL_DTM_PLN
 70
0
 62
7
  6
CONTINUOUS
370
-3
390
F
  0
LAYER
  5
1FF
100
AcDbSymbolTableRecord
100
AcDbLayerTableRecord
  2
01__ASM_DEF_DTM_PLN
 70
0
 62
7
  6
CONTINUOUS
370
-3
390
F
  0
LAYER
  5
200
100
AcDbSymbolTableRecord
100
AcDbLayerTableRecord
  2
01___PRT_ALL_DTM_PLN
 70
0
 62
7
  6
CONTINUOUS
370
-3
390
F
  0
LAYER
  5
201
100
AcDbSymbolTableRecord
100
AcDbLayerTableRecord
  2
01___PRT_DEF_DTM_PLN
 70
0
 62
7
  6
CONTINUOUS
370
-3
390
F
  0
LAYER
  5
202
100
AcDbSymbolTableRecord
100
AcDbLayerTableRecord
  2
02_ALL_AXES
 70
0
 62
7
  6
CONTINUOUS
370
-3
390
F
  0
LAYER
  5
203
100
AcDbSymbolTableRecord
100
AcDbLayerTableRecord
  2
02__ASM_ALL_AXES
 70
0
 62
7
  6
CONTINUOUS
370
-3
390
F
  0
LAYER
  5
204
100
AcDbSymbolTableRecord
100
AcDbLayerTableRecord
  2
02___PRT_ALL_AXES
 70
0
 62
7
  6
CONTINUOUS
370
-3
390
F
  0
LAYER
  5
205
100
AcDbSymbolTableRecord
100
AcDbLayerTableRecord
  2
03_ALL_CURVES
 70
0
 62
7
  6
CONTINUOUS
370
-3
390
F
  0
LAYER
  5
206
100
AcDbSymbolTableRecord
100
AcDbLayerTableRecord
  2
03__ASM_ALL_CURVES
 70
0
 62
7
  6
CONTINUOUS
370
-3
390
F
  0
LAYER
  5
207
100
AcDbSymbolTableRecord
100
AcDbLayerTableRecord
  2
03___PRT_ALL_CURVES
 70
0
 62
7
  6
CONTINUOUS
370
-3
390
F
  0
LAYER
  5
208
100
AcDbSymbolTableRecord
100
AcDbLayerTableRecord
  2
04_ALL_DTM_PNT
 70
0
 62
7
  6
CONTINUOUS
370
-3
390
F
  0
LAYER
  5
209
100
AcDbSymbolTableRecord
100
AcDbLayerTableRecord
  2
04__ASM_ALL_DTM_PNT
 70
0
 62
7
  6
CONTINUOUS
370
-3
390
F
  0
LAYER
  5
20A
100
AcDbSymbolTableRecord
100
AcDbLayerTableRecord
  2
04___PRT_ALL_DTM_PNT
 70
0
 62
7
  6
CONTINUOUS
370
-3
390
F
  0
LAYER
  5
20B
100
AcDbSymbolTableRecord
100
AcDbLayerTableRecord
  2
05_ALL_DTM_CSYS
 70
0
 62
7
  6
CONTINUOUS
370
-3
390
F
  0
LAYER
  5
20C
100
AcDbSymbolTableRecord
100
AcDbLayerTableRecord
  2
05__ASM_ALL_DTM_CSYS
 70
0
 62
7
  6
CONTINUOUS
370
-3
390
F
  0
LAYER
  5
20D
100
AcDbSymbolTableRecord
100
AcDbLayerTableRecord
  2
05__ASM_DEF_DTM_CSYS
 70
0
 62
7
  6
CONTINUOUS
370
-3
390
F
  0
LAYER
  5
20E
100
AcDbSymbolTableRecord
100
AcDbLayerTableRecord
  2
05___PRT_ALL_DTM_CSYS
 70
0
 62
7
  6
CONTINUOUS
370
-3
390
F
  0
LAYER
  5
20F
100
AcDbSymbolTableRecord
100
AcDbLayerTableRecord
  2
05___PRT_DEF_DTM_CSYS
 70
0
 62
7
  6
CONTINUOUS
370
-3
390
F
  0
LAYER
  5
210
100
AcDbSymbolTableRecord
100
AcDbLayerTableRecord
  2
06_ALL_SURFS
 70
0
 62
7
  6
CONTINUOUS
370
-3
390
F
  0
LAYER
  5
211
100
AcDbSymbolTableRecord
100
AcDbLayerTableRecord
  2
06__ASM_ALL_SURFS
 70
0
 62
7
  6
CONTINUOUS
370
-3
390
F
  0
LAYER
  5
212
100
AcDbSymbolTableRecord
100
AcDbLayerTableRecord
  2
06___PRT_ALL_SURFS
 70
0
 62
7
  6
CONTINUOUS
370
-3
390
F
  0
LAYER
  5
213
100
AcDbSymbolTableRecord
100
AcDbLayerTableRecord
  2
07__ASM_ALL_SKELETONS
 70
0
 62
7
  6
CONTINUOUS
370
-3
390
F
  0
ENDTAB
  0
TABLE
  2
STYLE
  5
3
100
AcDbSymbolTable
 70
1
  0
STYLE
  5
11
100
AcDbSymbolTableRecord
100
AcDbTextStyleTableRecord
  2
STANDARD
 70
0
 40
0.0
 41
0.8
 50
0.0
 71
0
 42
0.2
  3
txt
  4

  0
STYLE
  5
214
100
AcDbSymbolTableRecord
100
AcDbTextStyleTableRecord
  2
TEXTSTYLE_1
 70
0
 40
0.0
 41
0.8
 50
0.0
 71
0
 42
0.2
  3
gdt
  4

  0
ENDTAB
  0
TABLE
  2
VIEW
  5
6
100
AcDbSymbolTable
 70
0
  0
ENDTAB
  0
TABLE
  2
UCS
  5
7
100
AcDbSymbolTable
 70
0
  0
ENDTAB
  0
TABLE
  2
APPID
  5
9
100
AcDbSymbolTable
 70
1
  0
APPID
  5
215
100
AcDbSymbolTableRecord
100
AcDbRegAppTableRecord
  2
ACAD
 70
0
  0
ENDTAB
  0
TABLE
  2
BLOCK_RECORD
  5
1
100
AcDbSymbolTable
 70
0
  0
BLOCK_RECORD
  5
216
100
AcDbSymbolTableRecord
100
AcDbBlockTableRecord
  2
*Model_Space
  0
BLOCK_RECORD
  5
217
100
AcDbSymbolTableRecord
100
AcDbBlockTableRecord
  2
*Paper_Space
  0
ENDTAB
  0
TABLE
  2
DIMSTYLE
  5
A
100
AcDbSymbolTable
 70
1
100
AcDbDimStyleTable
 71
0
  0
DIMSTYLE
105
218
100
AcDbSymbolTableRecord
100
AcDbDimStyleTableRecord
  2
STANDARD
 70
0
  3

  4

 40
1.0
 41
0.1875
 42
0.0625
 43
0.38
 44
0.125
 45
0.0
 46
0.0
 47
0.0001
 48
0.0001
140
0.15625
141
0.09
142
0.0
143
25.4
144
1.0
145
0.0
146
1.0
147
0.09
 71
0.0
 72
0.0
 73
1
 74
1
 75
0
 76
0
 77
0
 78
4
170
0
171
2
172
0
173
0
174
0
175
0
176
0
177
0
178
0
270
2
271
4
272
4
273
2
274
2
275
0
280
0
281
0
282
0
283
1
284
4
285
0
286
0
287
3
288
0
340
11
278
46
  0
ENDTAB
  0
ENDSEC
  0
SECTION
  2
BLOCKS
  0
BLOCK
  5
20
100
AcDbEntity
  8
0
100
AcDbBlockBegin
  2
*Model_Space
 70
0
 10
0.0
 20
0.0
 30
0.0
  3
*Model_Space
  1

  0
ENDBLK
  5
21
100
AcDbEntity
  8
0
100
AcDbBlockEnd
  0
BLOCK
  5
1C
100
AcDbEntity
  8
0
100
AcDbBlockBegin
  2
*Paper_Space
 70
0
 10
0.0
 20
0.0
 30
0.0
  3
*Paper_Space
  1

  0
ENDBLK
  5
1D
100
AcDbEntity
  8
0
100
AcDbBlockEnd
  0
ENDSEC
  0
SECTION
  2
ENTITIES
  0
MTEXT
  5
219
100
AcDbEntity
  8
0
100
AcDbMText
 62
7
  6
CONTINUOUS
  7
STANDARD
 71
1
 72
1
 10
15.9560215477
 20
0.9479130325
 30
0.0
 11
1.0
 21
0.0
 31
0.0
 44
0.9
  1
SCALE: 1:1.000
 40
0.3
 41
3.36
  0
LINE
  5
21A
100
AcDbEntity
  8
0
100
AcDbLine
 62
7
  6
CONTINUOUS
 10
0.0
 20
0.0
 11
0.0
 21
17.0
  0
LINE
  5
21B
100
AcDbEntity
  8
0
100
AcDbLine
 62
7
  6
CONTINUOUS
 10
0.0
 20
0.0
 11
22.0
 21
0.0
  0
LINE
  5
21C
100
AcDbEntity
  8
0
100
AcDbLine
 62
7
  6
CONTINUOUS
 10
0.0
 20
17.0
 11
22.0
 21
17.0
  0
LINE
  5
21D
100
AcDbEntity
  8
0
100
AcDbLine
 62
7
  6
CONTINUOUS
 10
22.0
 20
0.0
 11
22.0
 21
17.0
  0
LINE
  5
21E
100
AcDbEntity
  8
0
100
AcDbLine
 62
7
  6
CONTINUOUS
 10
5.1854853864
 20
5.6301592668
 11
5.1854853864
 21
5.5392143849
  0
LINE
  5
21F
100
AcDbEntity
  8
0
100
AcDbLine
 62
7
  6
CONTINUOUS
 10
5.3068623424
 20
5.4100805267
 11
5.3790690603
 21
5.4100805267
  0
LINE
  5
220
100
AcDbEntity
  8
0
100
AcDbLine
 62
7
  6
CONTINUOUS
 10
5.6218229723
 20
5.4100805267
 11
5.6940296903
 21
5.4100805267
  0
LINE
  5
221
100
AcDbEntity
  8
0
100
AcDbLine
 62
7
  6
CONTINUOUS
 10
5.9367836022
 20
5.4100805267
 11
6.0089903202
 21
5.4100805267
  0
LINE
  5
222
100
AcDbEntity
  8
0
100
AcDbLine
 62
7
  6
CONTINUOUS
 10
6.2517442322
 20
5.4100805267
 11
6.3239509501
 21
5.4100805267
  0
LINE
  5
223
100
AcDbEntity
  8
0
100
AcDbLine
 62
7
  6
CONTINUOUS
 10
6.5667048621
 20
5.4100805267
 11
6.63891158
 21
5.4100805267
  0
LINE
  5
224
100
AcDbEntity
  8
0
100
AcDbLine
 62
7
  6
CONTINUOUS
 10
6.881665492
 20
5.4100805267
 11
6.9538722099
 21
5.4100805267
  0
LINE
  5
225
100
AcDbEntity
  8
0
100
AcDbLine
 62
7
  6
CONTINUOUS
 10
5.1854853864
 20
5.5392143849
 11
5.2196609507
 21
5.5392143849
  0
LINE
  5
226
100
AcDbEntity
  8
0
100
AcDbLine
 62
7
  6
CONTINUOUS
 10
5.466270452
 20
5.5392143849
 11
5.5346215806
 21
5.5392143849
  0
LINE
  5
227
100
AcDbEntity
  8
0
100
AcDbLine
 62
7
  6
CONTINUOUS
 10
5.7812310819
 20
5.5392143849
 11
5.8495822106
 21
5.5392143849
  0
LINE
  5
228
100
AcDbEntity
  8
0
100
AcDbLine
 62
7
  6
CONTINUOUS
 10
6.0961917118
 20
5.5392143849
 11
6.1645428405
 21
5.5392143849
  0
LINE
  5
229
100
AcDbEntity
  8
0
100
AcDbLine
 62
7
  6
CONTINUOUS
 10
6.4111523418
 20
5.5392143849
 11
6.4795034704
 21
5.5392143849
  0
LINE
  5
22A
100
AcDbEntity
  8
0
100
AcDbLine
 62
7
  6
CONTINUOUS
 10
6.7261129717
 20
5.5392143849
 11
6.7944641003
 21
5.5392143849
  0
LINE
  5
22B
100
AcDbEntity
  8
0
100
AcDbLine
 62
7
  6
CONTINUOUS
 10
7.0410736016
 20
5.5392143849
 11
7.0752491659
 21
5.5392143849
  0
LINE
  5
22C
100
AcDbEntity
  8
0
100
AcDbLine
 62
7
  6
CONTINUOUS
 10
7.0752491659
 20
5.6301592668
 11
5.1854853864
 21
5.6301592668
  0
LINE
  5
22D
100
AcDbEntity
  8
0
100
AcDbLine
 62
7
  6
CONTINUOUS
 10
7.0752491659
 20
5.5392143849
 11
7.0752491659
 21
5.6301592668
  0
LINE
  5
22E
100
AcDbEntity
  8
0
100
AcDbLine
 62
7
  6
CONTINUOUS
 10
7.0157539736
 20
10.9268194349
 11
5.1259901941
 21
10.9268194349
  0
LINE
  5
22F
100
AcDbEntity
  8
0
100
AcDbLine
 62
7
  6
CONTINUOUS
 10
5.1259901941
 20
14.2732761278
 11
5.1259901941
 21
10.9268194349
  0
LINE
  5
230
100
AcDbEntity
  8
0
100
AcDbLine
 62
7
  6
CONTINUOUS
 10
7.0157539736
 20
14.2732761278
 11
7.0157539736
 21
10.9268194349
  0
LINE
  5
231
100
AcDbEntity
  8
0
100
AcDbLine
 62
7
  6
CONTINUOUS
 10
5.1259901941
 20
14.2732761278
 11
7.0157539736
 21
14.2732761278
  0
LINE
  5
232
100
AcDbEntity
  8
0
100
AcDbLine
 62
7
  6
CONTINUOUS
 10
13.8871269105
 20
5.3505853344
 11
13.8871269105
 21
5.5706640745
  0
LINE
  5
233
100
AcDbEntity
  8
0
100
AcDbLine
 62
7
  6
CONTINUOUS
 10
13.8871269105
 20
5.3505853344
 11
17.2335836034
 21
5.3505853344
  0
LINE
  5
234
100
AcDbEntity
  8
0
100
AcDbLine
 62
7
  6
CONTINUOUS
 10
17.2335836034
 20
5.4797191926
 11
13.8871269105
 21
5.4797191926
  0
LINE
  5
235
100
AcDbEntity
  8
0
100
AcDbLine
 62
7
  6
CONTINUOUS
 10
17.2335836034
 20
5.5706640745
 11
13.8871269105
 21
5.5706640745
  0
LINE
  5
236
100
AcDbEntity
  8
0
100
AcDbLine
 62
7
  6
CONTINUOUS
 10
17.2335836034
 20
5.3505853344
 11
17.2335836034
 21
5.5706640745
  0
LINE
  5
237
100
AcDbEntity
  8
0
100
AcDbLine
 62
7
  6
CONTINUOUS
 10
14.1819153836
 20
11.2685217725
 11
14.2096573801
 21
11.2119895274
  0
LINE
  5
238
100
AcDbEntity
  8
0
100
AcDbLine
 62
7
  6
CONTINUOUS
 10
14.360844193
 20
11.1317186338
 11
14.4273509844
 21
11.1317186338
  0
LINE
  5
239
100
AcDbEntity
  8
0
100
AcDbLine
 62
7
  6
CONTINUOUS
 10
14.6509421439
 20
11.1317186338
 11
14.7174489353
 21
11.1317186338
  0
LINE
  5
23A
100
AcDbEntity
  8
0
100
AcDbLine
 62
7
  6
CONTINUOUS
 10
14.9410400947
 20
11.1317186338
 11
15.0075468861
 21
11.1317186338
  0
LINE
  5
23B
100
AcDbEntity
  8
0
100
AcDbLine
 62
7
  6
CONTINUOUS
 10
15.2311380456
 20
11.1317186338
 11
15.297644837
 21
11.1317186338
  0
LINE
  5
23C
100
AcDbEntity
  8
0
100
AcDbLine
 62
7
  6
CONTINUOUS
 10
15.5212359965
 20
11.1317186338
 11
15.5877427879
 21
11.1317186338
  0
LINE
  5
23D
100
AcDbEntity
  8
0
100
AcDbLine
 62
7
  6
CONTINUOUS
 10
15.8113339473
 20
11.1317186338
 11
15.8778407387
 21
11.1317186338
  0
LINE
  5
23E
100
AcDbEntity
  8
0
100
AcDbLine
 62
7
  6
CONTINUOUS
 10
14.2096573801
 20
11.2119895274
 11
14.2411351593
 21
11.2119895274
  0
LINE
  5
23F
100
AcDbEntity
  8
0
100
AcDbLine
 62
7
  6
CONTINUOUS
 10
14.4682775517
 20
11.2119895274
 11
14.5312331102
 21
11.2119895274
  0
LINE
  5
240
100
AcDbEntity
  8
0
100
AcDbLine
 62
7
  6
CONTINUOUS
 10
14.7583755026
 20
11.2119895274
 11
14.8213310611
 21
11.2119895274
  0
LINE
  5
241
100
AcDbEntity
  8
0
100
AcDbLine
 62
7
  6
CONTINUOUS
 10
15.0484734534
 20
11.2119895274
 11
15.1114290119
 21
11.2119895274
  0
LINE
  5
242
100
AcDbEntity
  8
0
100
AcDbLine
 62
7
  6
CONTINUOUS
 10
15.3385714043
 20
11.2119895274
 11
15.4015269628
 21
11.2119895274
  0
LINE
  5
243
100
AcDbEntity
  8
0
100
AcDbLine
 62
7
  6
CONTINUOUS
 10
15.6286693552
 20
11.2119895274
 11
15.6916249137
 21
11.2119895274
  0
LINE
  5
244
100
AcDbEntity
  8
0
100
AcDbLine
 62
7
  6
CONTINUOUS
 10
15.918767306
 20
11.2119895274
 11
15.9502450853
 21
11.2119895274
  0
LINE
  5
245
100
AcDbEntity
  8
0
100
AcDbLine
 62
7
  6
CONTINUOUS
 10
15.9225030888
 20
11.2685217725
 11
14.1819153836
 21
11.2685217725
  0
LINE
  5
246
100
AcDbEntity
  8
0
100
AcDbLine
 62
7
  6
CONTINUOUS
 10
14.9919798517
 20
13.889891352
 11
14.1819153836
 21
11.2685217725
  0
LINE
  5
247
100
AcDbEntity
  8
0
100
AcDbLine
 62
7
  6
CONTINUOUS
 10
14.4529177566
 20
11.1444445072
 11
14.4737907466
 21
11.2119895274
  0
LINE
  5
248
100
AcDbEntity
  8
0
100
AcDbLine
 62
7
  6
CONTINUOUS
 10
14.7430157075
 20
11.1444445072
 11
14.7638886974
 21
11.2119895274
  0
LINE
  5
249
100
AcDbEntity
  8
0
100
AcDbLine
 62
7
  6
CONTINUOUS
 10
15.9502450853
 20
11.2119895274
 11
15.9225030888
 21
11.2685217725
  0
LINE
  5
24A
100
AcDbEntity
  8
0
100
AcDbLine
 62
7
  6
CONTINUOUS
 10
15.0331136584
 20
11.1444445072
 11
15.0539866483
 21
11.2119895274
  0
LINE
  5
24B
100
AcDbEntity
  8
0
100
AcDbLine
 62
7
  6
CONTINUOUS
 10
15.3232116092
 20
11.1444445072
 11
15.3440845992
 21
11.2119895274
  0
LINE
  5
24C
100
AcDbEntity
  8
0
100
AcDbLine
 62
7
  6
CONTINUOUS
 10
15.6133095601
 20
11.1444445072
 11
15.63418255
 21
11.2119895274
  0
LINE
  5
24D
100
AcDbEntity
  8
0
100
AcDbLine
 62
7
  6
CONTINUOUS
 10
16.7325675569
 20
13.889891352
 11
15.9225030888
 21
11.2685217725
  0
LINE
  5
24E
100
AcDbEntity
  8
0
100
AcDbLine
 62
7
  6
CONTINUOUS
 10
15.903407511
 20
11.1444445072
 11
15.9242805009
 21
11.2119895274
  0
LINE
  5
24F
100
AcDbEntity
  8
0
100
AcDbLine
 62
7
  6
CONTINUOUS
 10
16.7603095534
 20
13.8333591068
 11
15.9502450853
 21
11.2119895274
  0
LINE
  5
250
100
AcDbEntity
  8
0
100
AcDbLine
 62
7
  6
CONTINUOUS
 10
15.903407511
 20
11.1444445072
 11
15.9036297617
 21
11.1451521154
  0
LINE
  5
251
100
AcDbEntity
  8
0
100
AcDbLine
 62
7
  6
CONTINUOUS
 10
14.9919798517
 20
13.889891352
 11
16.7325675569
 21
13.889891352
  0
LINE
  5
252
100
AcDbEntity
  8
0
100
AcDbLine
 62
7
  6
CONTINUOUS
 10
16.7603095534
 20
13.8333591068
 11
16.7325675569
 21
13.889891352
  0
ARC
  5
253
100
AcDbEntity
  8
0
100
AcDbCircle
 62
7
  6
CONTINUOUS
 10
5.2150129455
 20
5.5392143849
 40
0.2263779528
100
AcDbArc
 50
331.3145979859
 51
354.0364298817
  0
ARC
  5
254
100
AcDbEntity
  8
0
100
AcDbCircle
 62
7
  6
CONTINUOUS
 10
5.7858790872
 20
5.5392143849
 40
0.2263779528
100
AcDbArc
 50
185.9635701183
 51
208.6854020141
  0
ARC
  5
255
100
AcDbEntity
  8
0
100
AcDbCircle
 62
7
  6
CONTINUOUS
 10
5.5299735754
 20
5.5392143849
 40
0.2263779528
100
AcDbArc
 50
331.3145979859
 51
354.0364298817
  0
ARC
  5
256
100
AcDbEntity
  8
0
100
AcDbCircle
 62
7
  6
CONTINUOUS
 10
6.1008397171
 20
5.5392143849
 40
0.2263779528
100
AcDbArc
 50
185.9635701183
 51
208.6854020141
  0
ARC
  5
257
100
AcDbEntity
  8
0
100
AcDbCircle
 62
7
  6
CONTINUOUS
 10
5.8449342053
 20
5.5392143849
 40
0.2263779528
100
AcDbArc
 50
331.3145979859
 51
354.0364298817
  0
ARC
  5
258
100
AcDbEntity
  8
0
100
AcDbCircle
 62
7
  6
CONTINUOUS
 10
6.415800347
 20
5.5392143849
 40
0.2263779528
100
AcDbArc
 50
185.9635701183
 51
208.6854020141
  0
ARC
  5
259
100
AcDbEntity
  8
0
100
AcDbCircle
 62
7
  6
CONTINUOUS
 10
5.4709184573
 20
5.5392143849
 40
0.2263779528
100
AcDbArc
 50
185.9635701183
 51
208.6854020141
  0
ARC
  5
25A
100
AcDbEntity
  8
0
100
AcDbCircle
 62
7
  6
CONTINUOUS
 10
6.7898160951
 20
5.5392143849
 40
0.2263779528
100
AcDbArc
 50
331.3145979859
 51
354.0364298817
  0
ARC
  5
25B
100
AcDbEntity
  8
0
100
AcDbCircle
 62
7
  6
CONTINUOUS
 10
7.0457216069
 20
5.5392143849
 40
0.2263779528
100
AcDbArc
 50
185.9635701183
 51
208.6854020141
  0
ARC
  5
25C
100
AcDbEntity
  8
0
100
AcDbCircle
 62
7
  6
CONTINUOUS
 10
6.4748554651
 20
5.5392143849
 40
0.2263779528
100
AcDbArc
 50
331.3145979859
 51
354.0364298817
  0
ARC
  5
25D
100
AcDbEntity
  8
0
100
AcDbCircle
 62
7
  6
CONTINUOUS
 10
6.730760977
 20
5.5392143849
 40
0.2263779528
100
AcDbArc
 50
185.9635701183
 51
208.6854020141
  0
ARC
  5
25E
100
AcDbEntity
  8
0
100
AcDbCircle
 62
7
  6
CONTINUOUS
 10
6.1598948352
 20
5.5392143849
 40
0.2263779528
100
AcDbArc
 50
331.3145979859
 51
354.0364298817
  0
ARC
  5
25F
100
AcDbEntity
  8
0
100
AcDbCircle
 62
7
  6
CONTINUOUS
 10
5.3068623424
 20
5.4494506054
 40
0.0393700787
100
AcDbArc
 50
208.6854020141
 51
270.0
  0
ARC
  5
260
100
AcDbEntity
  8
0
100
AcDbCircle
 62
7
  6
CONTINUOUS
 10
5.3790690603
 20
5.4494506054
 40
0.0393700787
100
AcDbArc
 50
270.0
 51
331.3145979859
  0
ARC
  5
261
100
AcDbEntity
  8
0
100
AcDbCircle
 62
7
  6
CONTINUOUS
 10
5.6218229723
 20
5.4494506054
 40
0.0393700787
100
AcDbArc
 50
208.6854020141
 51
270.0
  0
ARC
  5
262
100
AcDbEntity
  8
0
100
AcDbCircle
 62
7
  6
CONTINUOUS
 10
5.6940296903
 20
5.4494506054
 40
0.0393700787
100
AcDbArc
 50
270.0
 51
331.3145979859
  0
ARC
  5
263
100
AcDbEntity
  8
0
100
AcDbCircle
 62
7
  6
CONTINUOUS
 10
5.9367836022
 20
5.4494506054
 40
0.0393700787
100
AcDbArc
 50
208.6854020141
 51
270.0
  0
ARC
  5
264
100
AcDbEntity
  8
0
100
AcDbCircle
 62
7
  6
CONTINUOUS
 10
6.0089903202
 20
5.4494506054
 40
0.0393700787
100
AcDbArc
 50
270.0
 51
331.3145979859
  0
ARC
  5
265
100
AcDbEntity
  8
0
100
AcDbCircle
 62
7
  6
CONTINUOUS
 10
6.2517442322
 20
5.4494506054
 40
0.0393700787
100
AcDbArc
 50
208.6854020141
 51
270.0
  0
ARC
  5
266
100
AcDbEntity
  8
0
100
AcDbCircle
 62
7
  6
CONTINUOUS
 10
6.9538722099
 20
5.4494506054
 40
0.0393700787
100
AcDbArc
 50
270.0
 51
331.3145979859
  0
ARC
  5
267
100
AcDbEntity
  8
0
100
AcDbCircle
 62
7
  6
CONTINUOUS
 10
6.881665492
 20
5.4494506054
 40
0.0393700787
100
AcDbArc
 50
208.6854020141
 51
270.0
  0
ARC
  5
268
100
AcDbEntity
  8
0
100
AcDbCircle
 62
7
  6
CONTINUOUS
 10
6.63891158
 20
5.4494506054
 40
0.0393700787
100
AcDbArc
 50
270.0
 51
331.3145979859
  0
ARC
  5
269
100
AcDbEntity
  8
0
100
AcDbCircle
 62
7
  6
CONTINUOUS
 10
6.5667048621
 20
5.4494506054
 40
0.0393700787
100
AcDbArc
 50
208.6854020141
 51
270.0
  0
ARC
  5
26A
100
AcDbEntity
  8
0
100
AcDbCircle
 62
7
  6
CONTINUOUS
 10
6.3239509501
 20
5.4494506054
 40
0.0393700787
100
AcDbArc
 50
270.0
 51
331.3145979859
  0
ARC
  5
26B
100
AcDbEntity
  8
0
100
AcDbCircle
 62
7
  6
CONTINUOUS
 10
5.2196609507
 20
5.5129676658
 40
0.0262467192
100
AcDbArc
 50
5.9635701183
 51
90.0
  0
ARC
  5
26C
100
AcDbEntity
  8
0
100
AcDbCircle
 62
7
  6
CONTINUOUS
 10
5.466270452
 20
5.5129676658
 40
0.0262467192
100
AcDbArc
 50
90.0
 51
174.0364298817
  0
ARC
  5
26D
100
AcDbEntity
  8
0
100
AcDbCircle
 62
7
  6
CONTINUOUS
 10
5.5346215806
 20
5.5129676658
 40
0.0262467192
100
AcDbArc
 50
5.9635701183
 51
90.0
  0
ARC
  5
26E
100
AcDbEntity
  8
0
100
AcDbCircle
 62
7
  6
CONTINUOUS
 10
5.7812310819
 20
5.5129676658
 40
0.0262467192
100
AcDbArc
 50
90.0
 51
174.0364298817
  0
ARC
  5
26F
100
AcDbEntity
  8
0
100
AcDbCircle
 62
7
  6
CONTINUOUS
 10
5.8495822106
 20
5.5129676658
 40
0.0262467192
100
AcDbArc
 50
5.9635701183
 51
90.0
  0
ARC
  5
270
100
AcDbEntity
  8
0
100
AcDbCircle
 62
7
  6
CONTINUOUS
 10
6.0961917118
 20
5.5129676658
 40
0.0262467192
100
AcDbArc
 50
90.0
 51
174.0364298817
  0
ARC
  5
271
100
AcDbEntity
  8
0
100
AcDbCircle
 62
7
  6
CONTINUOUS
 10
6.1645428405
 20
5.5129676658
 40
0.0262467192
100
AcDbArc
 50
5.9635701183
 51
90.0
  0
ARC
  5
272
100
AcDbEntity
  8
0
100
AcDbCircle
 62
7
  6
CONTINUOUS
 10
6.4111523418
 20
5.5129676658
 40
0.0262467192
100
AcDbArc
 50
90.0
 51
174.0364298817
  0
ARC
  5
273
100
AcDbEntity
  8
0
100
AcDbCircle
 62
7
  6
CONTINUOUS
 10
6.4795034704
 20
5.5129676658
 40
0.0262467192
100
AcDbArc
 50
5.9635701183
 51
90.0
  0
ARC
  5
274
100
AcDbEntity
  8
0
100
AcDbCircle
 62
7
  6
CONTINUOUS
 10
6.7261129717
 20
5.5129676658
 40
0.0262467192
100
AcDbArc
 50
90.0
 51
174.0364298817
  0
ARC
  5
275
100
AcDbEntity
  8
0
100
AcDbCircle
 62
7
  6
CONTINUOUS
 10
6.7944641003
 20
5.5129676658
 40
0.0262467192
100
AcDbArc
 50
5.9635701183
 51
90.0
  0
ARC
  5
276
100
AcDbEntity
  8
0
100
AcDbCircle
 62
7
  6
CONTINUOUS
 10
7.0410736016
 20
5.5129676658
 40
0.0262467192
100
AcDbArc
 50
90.0
 51
174.0364298817
  0
SPLINE
  5
277
100
AcDbEntity
  8
0
100
AcDbSpline
 62
7
  6
CONTINUOUS
 70
0
 71
3
 72
11
 73
7
 74
0
 42
0.0000001
 43
0.0000001
 44
0.0000000001
 40
0.0
 40
0.0
 40
0.0
 40
0.0
 40
0.2022112411
 40
0.4300319358
 40
0.6962155313
 40
1.0
 40
1.0
 40
1.0
 40
1.0
 10
14.4512071595
 20
11.2034235975
 30
0.0
 10
14.4516111095
 20
11.2047301892
 30
0.0
 10
14.4531897736
 20
11.2073139146
 30
0.0
 10
14.4571531138
 20
11.2100292956
 30
0.0
 10
14.4623531277
 20
11.2116633739
 30
0.0
 10
14.466222974
 20
11.2119895274
 30
0.0
 10
14.4682775517
 20
11.2119895274
 30
0.0
  0
SPLINE
  5
278
100
AcDbEntity
  8
0
100
AcDbSpline
 62
7
  6
CONTINUOUS
 70
0
 71
3
 72
11
 73
7
 74
0
 42
0.0000001
 43
0.0000001
 44
0.0000000001
 40
0.0
 40
0.0
 40
0.0
 40
0.0
 40
0.2022112411
 40
0.4300319358
 40
0.6962155313
 40
1.0
 40
1.0
 40
1.0
 40
1.0
 10
14.7413051104
 20
11.2034235975
 30
0.0
 10
14.7417090603
 20
11.2047301892
 30
0.0
 10
14.7432877245
 20
11.2073139146
 30
0.0
 10
14.7472510647
 20
11.2100292956
 30
0.0
 10
14.7524510786
 20
11.2116633739
 30
0.0
 10
14.7563209249
 20
11.2119895274
 30
0.0
 10
14.7583755026
 20
11.2119895274
 30
0.0
  0
SPLINE
  5
279
100
AcDbEntity
  8
0
100
AcDbSpline
 62
7
  6
CONTINUOUS
 70
0
 71
3
 72
11
 73
7
 74
0
 42
0.0000001
 43
0.0000001
 44
0.0000000001
 40
0.0
 40
0.0
 40
0.0
 40
0.0
 40
0.2022112411
 40
0.4300319358
 40
0.6962155313
 40
1.0
 40
1.0
 40
1.0
 40
1.0
 10
15.0314030612
 20
11.2034235975
 30
0.0
 10
15.0318070112
 20
11.2047301892
 30
0.0
 10
15.0333856754
 20
11.2073139146
 30
0.0
 10
15.0373490156
 20
11.2100292956
 30
0.0
 10
15.0425490295
 20
11.2116633739
 30
0.0
 10
15.0464188758
 20
11.2119895274
 30
0.0
 10
15.0484734534
 20
11.2119895274
 30
0.0
  0
SPLINE
  5
27A
100
AcDbEntity
  8
0
100
AcDbSpline
 62
7
  6
CONTINUOUS
 70
0
 71
3
 72
11
 73
7
 74
0
 42
0.0000001
 43
0.0000001
 44
0.0000000001
 40
0.0
 40
0.0
 40
0.0
 40
0.0
 40
0.2022112411
 40
0.4300319358
 40
0.6962155313
 40
1.0
 40
1.0
 40
1.0
 40
1.0
 10
15.3215010121
 20
11.2034235975
 30
0.0
 10
15.3219049621
 20
11.2047301892
 30
0.0
 10
15.3234836262
 20
11.2073139146
 30
0.0
 10
15.3274469664
 20
11.2100292956
 30
0.0
 10
15.3326469803
 20
11.2116633739
 30
0.0
 10
15.3365168266
 20
11.2119895274
 30
0.0
 10
15.3385714043
 20
11.2119895274
 30
0.0
  0
SPLINE
  5
27B
100
AcDbEntity
  8
0
100
AcDbSpline
 62
7
  6
CONTINUOUS
 70
0
 71
3
 72
11
 73
7
 74
0
 42
0.0000001
 43
0.0000001
 44
0.0000000001
 40
0.0
 40
0.0
 40
0.0
 40
0.0
 40
0.2022112411
 40
0.4300319358
 40
0.6962155313
 40
1.0
 40
1.0
 40
1.0
 40
1.0
 10
15.611598963
 20
11.2034235975
 30
0.0
 10
15.6120029129
 20
11.2047301892
 30
0.0
 10
15.6135815771
 20
11.2073139146
 30
0.0
 10
15.6175449173
 20
11.2100292956
 30
0.0
 10
15.6227449312
 20
11.2116633739
 30
0.0
 10
15.6266147775
 20
11.2119895274
 30
0.0
 10
15.6286693552
 20
11.2119895274
 30
0.0
  0
SPLINE
  5
27C
100
AcDbEntity
  8
0
100
AcDbSpline
 62
7
  6
CONTINUOUS
 70
0
 71
3
 72
11
 73
7
 74
0
 42
0.0000001
 43
0.0000001
 44
0.0000000001
 40
0.0
 40
0.0
 40
0.0
 40
0.0
 40
0.2022112411
 40
0.4300319358
 40
0.6962155313
 40
1.0
 40
1.0
 40
1.0
 40
1.0
 10
15.9016969138
 20
11.2034235975
 30
0.0
 10
15.9021008638
 20
11.2047301892
 30
0.0
 10
15.903679528
 20
11.2073139146
 30
0.0
 10
15.9076428682
 20
11.2100292956
 30
0.0
 10
15.9128428821
 20
11.2116633739
 30
0.0
 10
15.9167127284
 20
11.2119895274
 30
0.0
 10
15.918767306
 20
11.2119895274
 30
0.0
  0
SPLINE
  5
27D
100
AcDbEntity
  8
0
100
AcDbSpline
 62
7
  6
CONTINUOUS
 70
0
 71
3
 72
10
 73
6
 74
0
 42
0.0000001
 43
0.0000001
 44
0.0000000001
 40
0.0
 40
0.0
 40
0.0
 40
0.0
 40
0.5269557461
 40
0.7807625436
 40
1.0
 40
1.0
 40
1.0
 40
1.0
 10
14.2411351593
 20
11.2119895274
 30
0.0
 10
14.2473737577
 20
11.2119895274
 30
0.0
 10
14.2567361887
 20
11.2097215398
 30
0.0
 10
14.2669371826
 20
11.2036307085
 30
0.0
 10
14.270946025
 20
11.199550067
 30
0.0
 10
14.272353678
 20
11.1973693931
 30
0.0
  0
SPLINE
  5
27E
100
AcDbEntity
  8
0
100
AcDbSpline
 62
7
  6
CONTINUOUS
 70
0
 71
3
 72
10
 73
6
 74
0
 42
0.0000001
 43
0.0000001
 44
0.0000000001
 40
0.0
 40
0.0
 40
0.0
 40
0.0
 40
0.5269557461
 40
0.7807625436
 40
1.0
 40
1.0
 40
1.0
 40
1.0
 10
14.5312331102
 20
11.2119895274
 30
0.0
 10
14.5374717086
 20
11.2119895274
 30
0.0
 10
14.5468341396
 20
11.2097215398
 30
0.0
 10
14.5570351335
 20
11.2036307085
 30
0.0
 10
14.5610439759
 20
11.199550067
 30
0.0
 10
14.5624516289
 20
11.1973693931
 30
0.0
  0
SPLINE
  5
27F
100
AcDbEntity
  8
0
100
AcDbSpline
 62
7
  6
CONTINUOUS
 70
0
 71
3
 72
9
 73
5
 74
0
 42
0.0000001
 43
0.0000001
 44
0.0000000001
 40
0.0
 40
0.0
 40
0.0
 40
0.0
 40
0.4753060626
 40
1.0
 40
1.0
 40
1.0
 40
1.0
 10
14.272353678
 20
11.1973693931
 30
0.0
 10
14.2786579752
 20
11.1876030543
 30
0.0
 10
14.2941847074
 20
11.1684897912
 30
0.0
 10
14.3126121473
 20
11.1522629097
 30
0.0
 10
14.3227875176
 20
11.1444445072
 30
0.0
  0
SPLINE
  5
280
100
AcDbEntity
  8
0
100
AcDbSpline
 62
7
  6
CONTINUOUS
 70
0
 71
3
 72
11
 73
7
 74
0
 42
0.0000001
 43
0.0000001
 44
0.0000000001
 40
0.0
 40
0.0
 40
0.0
 40
0.0
 40
0.3035462555
 40
0.5696925955
 40
0.79773098
 40
1.0
 40
1.0
 40
1.0
 40
1.0
 10
15.8778407387
 20
11.1317186338
 30
0.0
 10
15.880907426
 20
11.1317186338
 30
0.0
 10
15.8866852497
 20
11.1322026494
 30
0.0
 10
15.8944550282
 20
11.134630366
 30
0.0
 10
15.9003939423
 20
11.1386584974
 30
0.0
 10
15.902784691
 20
11.1424982352
 30
0.0
 10
15.903407511
 20
11.1444445072
 30
0.0
  0
SPLINE
  5
281
100
AcDbEntity
  8
0
100
AcDbSpline
 62
7
  6
CONTINUOUS
 70
0
 71
3
 72
9
 73
5
 74
0
 42
0.0000001
 43
0.0000001
 44
0.0000000001
 40
0.0
 40
0.0
 40
0.0
 40
0.0
 40
0.4963918082
 40
1.0
 40
1.0
 40
1.0
 40
1.0
 10
15.7732772719
 20
11.1444445072
 30
0.0
 10
15.7786068757
 20
11.140349424
 30
0.0
 10
15.7909564522
 20
11.1341818559
 30
0.0
 10
15.8045150478
 20
11.1317186338
 30
0.0
 10
15.8113339473
 20
11.1317186338
 30
0.0
  0
SPLINE
  5
282
100
AcDbEntity
  8
0
100
AcDbSpline
 62
7
  6
CONTINUOUS
 70
0
 71
3
 72
9
 73
5
 74
0
 42
0.0000001
 43
0.0000001
 44
0.0000000001
 40
0.0
 40
0.0
 40
0.0
 40
0.0
 40
0.475306739
 40
1.0
 40
1.0
 40
1.0
 40
1.0
 10
15.7228434323
 20
11.1973693931
 30
0.0
 10
15.7291477367
 20
11.1876030431
 30
0.0
 10
15.7446746537
 20
11.1684899476
 30
0.0
 10
15.7631019177
 20
11.1522628974
 30
0.0
 10
15.7732772719
 20
11.1444445072
 30
0.0
  0
SPLINE
  5
283
100
AcDbEntity
  8
0
100
AcDbSpline
 62
7
  6
CONTINUOUS
 70
0
 71
3
 72
11
 73
7
 74
0
 42
0.0000001
 43
0.0000001
 44
0.0000000001
 40
0.0
 40
0.0
 40
0.0
 40
0.0
 40
0.3035462555
 40
0.5696925955
 40
0.79773098
 40
1.0
 40
1.0
 40
1.0
 40
1.0
 10
15.5877427879
 20
11.1317186338
 30
0.0
 10
15.5908094751
 20
11.1317186338
 30
0.0
 10
15.5965872989
 20
11.1322026494
 30
0.0
 10
15.6043570773
 20
11.134630366
 30
0.0
 10
15.6102959914
 20
11.1386584974
 30
0.0
 10
15.6126867401
 20
11.1424982352
 30
0.0
 10
15.6133095601
 20
11.1444445072
 30
0.0
  0
SPLINE
  5
284
100
AcDbEntity
  8
0
100
AcDbSpline
 62
7
  6
CONTINUOUS
 70
0
 71
3
 72
9
 73
5
 74
0
 42
0.0000001
 43
0.0000001
 44
0.0000000001
 40
0.0
 40
0.0
 40
0.0
 40
0.0
 40
0.4963918082
 40
1.0
 40
1.0
 40
1.0
 40
1.0
 10
15.483179321
 20
11.1444445072
 30
0.0
 10
15.4885089248
 20
11.140349424
 30
0.0
 10
15.5008585013
 20
11.1341818559
 30
0.0
 10
15.5144170969
 20
11.1317186338
 30
0.0
 10
15.5212359965
 20
11.1317186338
 30
0.0
  0
SPLINE
  5
285
100
AcDbEntity
  8
0
100
AcDbSpline
 62
7
  6
CONTINUOUS
 70
0
 71
3
 72
9
 73
5
 74
0
 42
0.0000001
 43
0.0000001
 44
0.0000000001
 40
0.0
 40
0.0
 40
0.0
 40
0.0
 40
0.4753060626
 40
1.0
 40
1.0
 40
1.0
 40
1.0
 10
15.4327454815
 20
11.1973693931
 30
0.0
 10
15.4390497786
 20
11.1876030543
 30
0.0
 10
15.4545765108
 20
11.1684897912
 30
0.0
 10
15.4730039508
 20
11.1522629097
 30
0.0
 10
15.483179321
 20
11.1444445072
 30
0.0
  0
SPLINE
  5
286
100
AcDbEntity
  8
0
100
AcDbSpline
 62
7
  6
CONTINUOUS
 70
0
 71
3
 72
11
 73
7
 74
0
 42
0.0000001
 43
0.0000001
 44
0.0000000001
 40
0.0
 40
0.0
 40
0.0
 40
0.0
 40
0.3035462555
 40
0.5696925955
 40
0.79773098
 40
1.0
 40
1.0
 40
1.0
 40
1.0
 10
15.297644837
 20
11.1317186338
 30
0.0
 10
15.3007115242
 20
11.1317186338
 30
0.0
 10
15.306489348
 20
11.1322026494
 30
0.0
 10
15.3142591265
 20
11.134630366
 30
0.0
 10
15.3201980406
 20
11.1386584974
 30
0.0
 10
15.3225887892
 20
11.1424982352
 30
0.0
 10
15.3232116092
 20
11.1444445072
 30
0.0
  0
SPLINE
  5
287
100
AcDbEntity
  8
0
100
AcDbSpline
 62
7
  6
CONTINUOUS
 70
0
 71
3
 72
9
 73
5
 74
0
 42
0.0000001
 43
0.0000001
 44
0.0000000001
 40
0.0
 40
0.0
 40
0.0
 40
0.0
 40
0.4963918082
 40
1.0
 40
1.0
 40
1.0
 40
1.0
 10
15.1930813702
 20
11.1444445072
 30
0.0
 10
15.1984109739
 20
11.140349424
 30
0.0
 10
15.2107605505
 20
11.1341818559
 30
0.0
 10
15.224319146
 20
11.1317186338
 30
0.0
 10
15.2311380456
 20
11.1317186338
 30
0.0
  0
SPLINE
  5
288
100
AcDbEntity
  8
0
100
AcDbSpline
 62
7
  6
CONTINUOUS
 70
0
 71
3
 72
9
 73
5
 74
0
 42
0.0000001
 43
0.0000001
 44
0.0000000001
 40
0.0
 40
0.0
 40
0.0
 40
0.0
 40
0.4753060626
 40
1.0
 40
1.0
 40
1.0
 40
1.0
 10
15.1426475306
 20
11.1973693931
 30
0.0
 10
15.1489518278
 20
11.1876030543
 30
0.0
 10
15.16447856
 20
11.1684897912
 30
0.0
 10
15.1829059999
 20
11.1522629097
 30
0.0
 10
15.1930813702
 20
11.1444445072
 30
0.0
  0
SPLINE
  5
289
100
AcDbEntity
  8
0
100
AcDbSpline
 62
7
  6
CONTINUOUS
 70
0
 71
3
 72
11
 73
7
 74
0
 42
0.0000001
 43
0.0000001
 44
0.0000000001
 40
0.0
 40
0.0
 40
0.0
 40
0.0
 40
0.3035462555
 40
0.5696925955
 40
0.79773098
 40
1.0
 40
1.0
 40
1.0
 40
1.0
 10
15.0075468861
 20
11.1317186338
 30
0.0
 10
15.0106135733
 20
11.1317186338
 30
0.0
 10
15.0163913971
 20
11.1322026494
 30
0.0
 10
15.0241611756
 20
11.134630366
 30
0.0
 10
15.0301000897
 20
11.1386584974
 30
0.0
 10
15.0324908384
 20
11.1424982352
 30
0.0
 10
15.0331136584
 20
11.1444445072
 30
0.0
  0
SPLINE
  5
28A
100
AcDbEntity
  8
0
100
AcDbSpline
 62
7
  6
CONTINUOUS
 70
0
 71
3
 72
9
 73
5
 74
0
 42
0.0000001
 43
0.0000001
 44
0.0000000001
 40
0.0
 40
0.0
 40
0.0
 40
0.0
 40
0.4963918082
 40
1.0
 40
1.0
 40
1.0
 40
1.0
 10
14.9029834193
 20
11.1444445072
 30
0.0
 10
14.9083130231
 20
11.140349424
 30
0.0
 10
14.9206625996
 20
11.1341818559
 30
0.0
 10
14.9342211952
 20
11.1317186338
 30
0.0
 10
14.9410400947
 20
11.1317186338
 30
0.0
  0
SPLINE
  5
28B
100
AcDbEntity
  8
0
100
AcDbSpline
 62
7
  6
CONTINUOUS
 70
0
 71
3
 72
9
 73
5
 74
0
 42
0.0000001
 43
0.0000001
 44
0.0000000001
 40
0.0
 40
0.0
 40
0.0
 40
0.0
 40
0.4753060626
 40
1.0
 40
1.0
 40
1.0
 40
1.0
 10
14.8525495797
 20
11.1973693931
 30
0.0
 10
14.8588538769
 20
11.1876030543
 30
0.0
 10
14.8743806091
 20
11.1684897912
 30
0.0
 10
14.8928080491
 20
11.1522629097
 30
0.0
 10
14.9029834193
 20
11.1444445072
 30
0.0
  0
SPLINE
  5
28C
100
AcDbEntity
  8
0
100
AcDbSpline
 62
7
  6
CONTINUOUS
 70
0
 71
3
 72
11
 73
7
 74
0
 42
0.0000001
 43
0.0000001
 44
0.0000000001
 40
0.0
 40
0.0
 40
0.0
 40
0.0
 40
0.3035462555
 40
0.5696925955
 40
0.79773098
 40
1.0
 40
1.0
 40
1.0
 40
1.0
 10
14.7174489353
 20
11.1317186338
 30
0.0
 10
14.7205156225
 20
11.1317186338
 30
0.0
 10
14.7262934463
 20
11.1322026494
 30
0.0
 10
14.7340632247
 20
11.134630366
 30
0.0
 10
14.7400021388
 20
11.1386584974
 30
0.0
 10
14.7423928875
 20
11.1424982352
 30
0.0
 10
14.7430157075
 20
11.1444445072
 30
0.0
  0
SPLINE
  5
28D
100
AcDbEntity
  8
0
100
AcDbSpline
 62
7
  6
CONTINUOUS
 70
0
 71
3
 72
9
 73
5
 74
0
 42
0.0000001
 43
0.0000001
 44
0.0000000001
 40
0.0
 40
0.0
 40
0.0
 40
0.0
 40
0.4963918082
 40
1.0
 40
1.0
 40
1.0
 40
1.0
 10
14.6128854684
 20
11.1444445072
 30
0.0
 10
14.6182150722
 20
11.140349424
 30
0.0
 10
14.6305646487
 20
11.1341818559
 30
0.0
 10
14.6441232443
 20
11.1317186338
 30
0.0
 10
14.6509421439
 20
11.1317186338
 30
0.0
  0
SPLINE
  5
28E
100
AcDbEntity
  8
0
100
AcDbSpline
 62
7
  6
CONTINUOUS
 70
0
 71
3
 72
9
 73
5
 74
0
 42
0.0000001
 43
0.0000001
 44
0.0000000001
 40
0.0
 40
0.0
 40
0.0
 40
0.0
 40
0.4753060626
 40
1.0
 40
1.0
 40
1.0
 40
1.0
 10
14.5624516289
 20
11.1973693931
 30
0.0
 10
14.568755926
 20
11.1876030543
 30
0.0
 10
14.5842826582
 20
11.1684897912
 30
0.0
 10
14.6027100982
 20
11.1522629097
 30
0.0
 10
14.6128854684
 20
11.1444445072
 30
0.0
  0
SPLINE
  5
28F
100
AcDbEntity
  8
0
100
AcDbSpline
 62
7
  6
CONTINUOUS
 70
0
 71
3
 72
11
 73
7
 74
0
 42
0.0000001
 43
0.0000001
 44
0.0000000001
 40
0.0
 40
0.0
 40
0.0
 40
0.0
 40
0.3035462555
 40
0.5696925955
 40
0.79773098
 40
1.0
 40
1.0
 40
1.0
 40
1.0
 10
14.4273509844
 20
11.1317186338
 30
0.0
 10
14.4304176716
 20
11.1317186338
 30
0.0
 10
14.4361954954
 20
11.1322026494
 30
0.0
 10
14.4439652739
 20
11.134630366
 30
0.0
 10
14.449904188
 20
11.1386584974
 30
0.0
 10
14.4522949366
 20
11.1424982352
 30
0.0
 10
14.4529177566
 20
11.1444445072
 30
0.0
  0
SPLINE
  5
290
100
AcDbEntity
  8
0
100
AcDbSpline
 62
7
  6
CONTINUOUS
 70
0
 71
3
 72
9
 73
5
 74
0
 42
0.0000001
 43
0.0000001
 44
0.0000000001
 40
0.0
 40
0.0
 40
0.0
 40
0.0
 40
0.4963918082
 40
1.0
 40
1.0
 40
1.0
 40
1.0
 10
14.3227875176
 20
11.1444445072
 30
0.0
 10
14.3281171213
 20
11.140349424
 30
0.0
 10
14.3404666979
 20
11.1341818559
 30
0.0
 10
14.3540252934
 20
11.1317186338
 30
0.0
 10
14.360844193
 20
11.1317186338
 30
0.0
  0
SPLINE
  5
291
100
AcDbEntity
  8
0
100
AcDbSpline
 62
7
  6
CONTINUOUS
 70
0
 71
3
 72
10
 73
6
 74
0
 42
0.0000001
 43
0.0000001
 44
0.0000000001
 40
0.0
 40
0.0
 40
0.0
 40
0.0
 40
0.5269557461
 40
0.7807625436
 40
1.0
 40
1.0
 40
1.0
 40
1.0
 10
14.8213310611
 20
11.2119895274
 30
0.0
 10
14.8275696595
 20
11.2119895274
 30
0.0
 10
14.8369320904
 20
11.2097215398
 30
0.0
 10
14.8471330844
 20
11.2036307085
 30
0.0
 10
14.8511419268
 20
11.199550067
 30
0.0
 10
14.8525495797
 20
11.1973693931
 30
0.0
  0
SPLINE
  5
292
100
AcDbEntity
  8
0
100
AcDbSpline
 62
7
  6
CONTINUOUS
 70
0
 71
3
 72
10
 73
6
 74
0
 42
0.0000001
 43
0.0000001
 44
0.0000000001
 40
0.0
 40
0.0
 40
0.0
 40
0.0
 40
0.5269557461
 40
0.7807625436
 40
1.0
 40
1.0
 40
1.0
 40
1.0
 10
15.1114290119
 20
11.2119895274
 30
0.0
 10
15.1176676103
 20
11.2119895274
 30
0.0
 10
15.1270300413
 20
11.2097215398
 30
0.0
 10
15.1372310352
 20
11.2036307085
 30
0.0
 10
15.1412398776
 20
11.199550067
 30
0.0
 10
15.1426475306
 20
11.1973693931
 30
0.0
  0
SPLINE
  5
293
100
AcDbEntity
  8
0
100
AcDbSpline
 62
7
  6
CONTINUOUS
 70
0
 71
3
 72
10
 73
6
 74
0
 42
0.0000001
 43
0.0000001
 44
0.0000000001
 40
0.0
 40
0.0
 40
0.0
 40
0.0
 40
0.5269557461
 40
0.7807625436
 40
1.0
 40
1.0
 40
1.0
 40
1.0
 10
15.4015269628
 20
11.2119895274
 30
0.0
 10
15.4077655612
 20
11.2119895274
 30
0.0
 10
15.4171279922
 20
11.2097215398
 30
0.0
 10
15.4273289861
 20
11.2036307085
 30
0.0
 10
15.4313378285
 20
11.199550067
 30
0.0
 10
15.4327454815
 20
11.1973693931
 30
0.0
  0
SPLINE
  5
294
100
AcDbEntity
  8
0
100
AcDbSpline
 62
7
  6
CONTINUOUS
 70
0
 71
3
 72
10
 73
6
 74
0
 42
0.0000001
 43
0.0000001
 44
0.0000000001
 40
0.0
 40
0.0
 40
0.0
 40
0.0
 40
0.5269557461
 40
0.7807625436
 40
1.0
 40
1.0
 40
1.0
 40
1.0
 10
15.6916249137
 20
11.2119895274
 30
0.0
 10
15.6978635121
 20
11.2119895274
 30
0.0
 10
15.707225943
 20
11.2097215398
 30
0.0
 10
15.717426937
 20
11.2036307085
 30
0.0
 10
15.7214357794
 20
11.199550067
 30
0.0
 10
15.7228434323
 20
11.1973693931
 30
0.0
  0
SPLINE
  5
295
100
AcDbEntity
  8
0
100
AcDbSpline
 62
7
  6
CONTINUOUS
 70
0
 71
3
 72
9
 73
5
 74
0
 42
0.0000001
 43
0.0000001
 44
0.0000000001
 40
0.0
 40
0.0
 40
0.0
 40
0.0
 40
0.4826708941
 40
1.0
 40
1.0
 40
1.0
 40
1.0
 10
15.3234341198
 20
11.1451520349
 30
0.0
 10
15.3259468917
 20
11.153284183
 30
0.0
 10
15.3281764469
 20
11.1711666716
 30
0.0
 10
15.3246070864
 20
11.1887216548
 30
0.0
 10
15.3217019253
 20
11.1973693931
 30
0.0
  0
SPLINE
  5
296
100
AcDbEntity
  8
0
100
AcDbSpline
 62
7
  6
CONTINUOUS
 70
0
 71
3
 72
9
 73
5
 74
0
 42
0.0000001
 43
0.0000001
 44
0.0000000001
 40
0.0
 40
0.0
 40
0.0
 40
0.0
 40
0.4826697913
 40
1.0
 40
1.0
 40
1.0
 40
1.0
 10
15.903630027
 20
11.1451520334
 30
0.0
 10
15.9061429123
 20
11.1532841171
 30
0.0
 10
15.908371944
 20
11.171166663
 30
0.0
 10
15.9048029914
 20
11.1887216449
 30
0.0
 10
15.901897827
 20
11.1973693931
 30
0.0
  0
SPLINE
  5
297
100
AcDbEntity
  8
0
100
AcDbSpline
 62
7
  6
CONTINUOUS
 70
0
 71
3
 72
9
 73
5
 74
0
 42
0.0000001
 43
0.0000001
 44
0.0000000001
 40
0.0
 40
0.0
 40
0.0
 40
0.0
 40
0.4826708941
 40
1.0
 40
1.0
 40
1.0
 40
1.0
 10
15.033336169
 20
11.1451520349
 30
0.0
 10
15.0358489408
 20
11.153284183
 30
0.0
 10
15.038078496
 20
11.1711666716
 30
0.0
 10
15.0345091355
 20
11.1887216548
 30
0.0
 10
15.0316039744
 20
11.1973693931
 30
0.0
  0
SPLINE
  5
298
100
AcDbEntity
  8
0
100
AcDbSpline
 62
7
  6
CONTINUOUS
 70
0
 71
3
 72
9
 73
5
 74
0
 42
0.0000001
 43
0.0000001
 44
0.0000000001
 40
0.0
 40
0.0
 40
0.0
 40
0.0
 40
0.2658495863
 40
1.0
 40
1.0
 40
1.0
 40
1.0
 10
15.901897827
 20
11.1973693931
 30
0.0
 10
15.9017253385
 20
11.1978828365
 30
0.0
 10
15.9011974499
 20
11.1998499072
 30
0.0
 10
15.9012551126
 20
11.2019945747
 30
0.0
 10
15.9016969138
 20
11.2034235975
 30
0.0
  0
SPLINE
  5
299
100
AcDbEntity
  8
0
100
AcDbSpline
 62
7
  6
CONTINUOUS
 70
0
 71
3
 72
9
 73
5
 74
0
 42
0.0000001
 43
0.0000001
 44
0.0000000001
 40
0.0
 40
0.0
 40
0.0
 40
0.0
 40
0.2658495863
 40
1.0
 40
1.0
 40
1.0
 40
1.0
 10
14.7415060236
 20
11.1973693931
 30
0.0
 10
14.7413335351
 20
11.1978828365
 30
0.0
 10
14.7408056465
 20
11.1998499072
 30
0.0
 10
14.7408633092
 20
11.2019945747
 30
0.0
 10
14.7413051104
 20
11.2034235975
 30
0.0
  0
SPLINE
  5
29A
100
AcDbEntity
  8
0
100
AcDbSpline
 62
7
  6
CONTINUOUS
 70
0
 71
3
 72
9
 73
5
 74
0
 42
0.0000001
 43
0.0000001
 44
0.0000000001
 40
0.0
 40
0.0
 40
0.0
 40
0.0
 40
0.4826708941
 40
1.0
 40
1.0
 40
1.0
 40
1.0
 10
14.4531402672
 20
11.1451520349
 30
0.0
 10
14.4556530391
 20
11.153284183
 30
0.0
 10
14.4578825943
 20
11.1711666716
 30
0.0
 10
14.4543132338
 20
11.1887216548
 30
0.0
 10
14.4514080727
 20
11.1973693931
 30
0.0
  0
SPLINE
  5
29B
100
AcDbEntity
  8
0
100
AcDbSpline
 62
7
  6
CONTINUOUS
 70
0
 71
3
 72
9
 73
5
 74
0
 42
0.0000001
 43
0.0000001
 44
0.0000000001
 40
0.0
 40
0.0
 40
0.0
 40
0.0
 40
0.2658495863
 40
1.0
 40
1.0
 40
1.0
 40
1.0
 10
15.0316039744
 20
11.1973693931
 30
0.0
 10
15.0314314859
 20
11.1978828365
 30
0.0
 10
15.0309035973
 20
11.1998499072
 30
0.0
 10
15.03096126
 20
11.2019945747
 30
0.0
 10
15.0314030612
 20
11.2034235975
 30
0.0
  0
SPLINE
  5
29C
100
AcDbEntity
  8
0
100
AcDbSpline
 62
7
  6
CONTINUOUS
 70
0
 71
3
 72
9
 73
5
 74
0
 42
0.0000001
 43
0.0000001
 44
0.0000000001
 40
0.0
 40
0.0
 40
0.0
 40
0.0
 40
0.4826708941
 40
1.0
 40
1.0
 40
1.0
 40
1.0
 10
15.6135320707
 20
11.1451520349
 30
0.0
 10
15.6160448425
 20
11.153284183
 30
0.0
 10
15.6182743977
 20
11.1711666716
 30
0.0
 10
15.6147050372
 20
11.1887216548
 30
0.0
 10
15.6117998762
 20
11.1973693931
 30
0.0
  0
SPLINE
  5
29D
100
AcDbEntity
  8
0
100
AcDbSpline
 62
7
  6
CONTINUOUS
 70
0
 71
3
 72
9
 73
5
 74
0
 42
0.0000001
 43
0.0000001
 44
0.0000000001
 40
0.0
 40
0.0
 40
0.0
 40
0.0
 40
0.2658495863
 40
1.0
 40
1.0
 40
1.0
 40
1.0
 10
15.3217019253
 20
11.1973693931
 30
0.0
 10
15.3215294368
 20
11.1978828365
 30
0.0
 10
15.3210015482
 20
11.1998499072
 30
0.0
 10
15.3210592109
 20
11.2019945747
 30
0.0
 10
15.3215010121
 20
11.2034235975
 30
0.0
  0
SPLINE
  5
29E
100
AcDbEntity
  8
0
100
AcDbSpline
 62
7
  6
CONTINUOUS
 70
0
 71
3
 72
9
 73
5
 74
0
 42
0.0000001
 43
0.0000001
 44
0.0000000001
 40
0.0
 40
0.0
 40
0.0
 40
0.0
 40
0.2658495863
 40
1.0
 40
1.0
 40
1.0
 40
1.0
 10
14.4514080727
 20
11.1973693931
 30
0.0
 10
14.4512355842
 20
11.1978828365
 30
0.0
 10
14.4507076956
 20
11.1998499072
 30
0.0
 10
14.4507653583
 20
11.2019945747
 30
0.0
 10
14.4512071595
 20
11.2034235975
 30
0.0
  0
SPLINE
  5
29F
100
AcDbEntity
  8
0
100
AcDbSpline
 62
7
  6
CONTINUOUS
 70
0
 71
3
 72
9
 73
5
 74
0
 42
0.0000001
 43
0.0000001
 44
0.0000000001
 40
0.0
 40
0.0
 40
0.0
 40
0.0
 40
0.2658495863
 40
1.0
 40
1.0
 40
1.0
 40
1.0
 10
15.6117998762
 20
11.1973693931
 30
0.0
 10
15.6116273877
 20
11.1978828365
 30
0.0
 10
15.6110994991
 20
11.1998499072
 30
0.0
 10
15.6111571618
 20
11.2019945747
 30
0.0
 10
15.611598963
 20
11.2034235975
 30
0.0
  0
SPLINE
  5
2A0
100
AcDbEntity
  8
0
100
AcDbSpline
 62
7
  6
CONTINUOUS
 70
0
 71
3
 72
9
 73
5
 74
0
 42
0.0000001
 43
0.0000001
 44
0.0000000001
 40
0.0
 40
0.0
 40
0.0
 40
0.0
 40
0.4826708941
 40
1.0
 40
1.0
 40
1.0
 40
1.0
 10
14.7432382181
 20
11.1451520349
 30
0.0
 10
14.7457509899
 20
11.153284183
 30
0.0
 10
14.7479805451
 20
11.1711666716
 30
0.0
 10
14.7444111846
 20
11.1887216548
 30
0.0
 10
14.7415060236
 20
11.1973693931
 30
0.0
  0
ENDSEC
  0
SECTION
  2
OBJECTS
  0
DICTIONARY
  5
C
100
AcDbDictionary
280
0
281
1
  3
ACAD_GROUP
350
D
  3
ACAD_MLINESTYLE
350
17
  3
ACAD_LAYOUT
350
1A
  3
ACAD_PLOTSETTINGS
350
19
  3
ACAD_PLOTSTYLENAME
350
E
  0
DICTIONARY
  5
D
102
{ACAD_REACTORS
330
C
102
}
100
AcDbDictionary
280
0
281
1
  0
ACDBDICTIONARYWDFLT
  5
E
102
{ACAD_REACTORS
330
C
102
}
100
AcDbDictionary
281
1
  3
Normal
350
F
100
AcDbDictionaryWithDefault
340
F
  0
DICTIONARY
  5
17
102
{ACAD_REACTORS
330
C
102
}
100
AcDbDictionary
280
0
281
1
  3
Standard
350
18
  0
DICTIONARY
  5
19
102
{ACAD_REACTORS
330
C
102
}
100
AcDbDictionary
281
1
  0
DICTIONARY
  5
1A
102
{ACAD_REACTORS
330
C
102
}
100
AcDbDictionary
281
1
  3
Model
350
2A1
  3
Layout1
350
2A2
  0
ACDBPLACEHOLDER
  5
F
102
{ACAD_REACTORS
330
E
102
}
  0
MLINESTYLE
  5
18
102
{ACAD_REACTORS
330
17
102
}
100
AcDbMlineStyle
  2
STANDARD
 70
0
  3

 62
256
 51
90.0
 52
90.0
 71
2
 49
0.5
 62
256
  6
BYLAYER
 49
-0.5
 62
256
  6
BYLAYER
  0
LAYOUT
  5
2A1
102
{ACAD_REACTORS
330
1A
102
}
100
AcDbPlotSettings
  1

  2
none_device
  4
ANSI_C_(22.00_x_17.00_Inches)
  6

 40
0.0
 41
0.0
 42
0.0
 43
0.0
 44
558.8
 45
431.8
 46
0.0
 47
0.0
 48
0.0
 49
0.0
140
0.0
141
0.0
142
1.0
143
1.0
 70
1024
 72
0
 73
0
 74
0
  7

 75
0
147
1.0
148
0.0
149
0.0
100
AcDbLayout
  1
Model
 70
0
 71
0
 10
0.0
 20
0.0
 11
22.0
 21
17.0
 12
0.0
 22
0.0
 32
0.0
 14
0.0
 24
0.0
 34
0.0
 15
0.0
 25
0.0
 35
0.0
146
0.0
 13
0.0
 23
0.0
 33
0.0
 16
1.0
 26
0.0
 36
0.0
 17
0.0
 27
1.0
 37
0.0
 76
0
330
216
345
0
346
0
  0
LAYOUT
  5
2A2
102
{ACAD_REACTORS
330
1A
102
}
100
AcDbPlotSettings
  1

  2
none_device
  4
ANSI_C_(22.00_x_17.00_Inches)
  6

 40
0.0
 41
0.0
 42
0.0
 43
0.0
 44
558.8
 45
431.8
 46
0.0
 47
0.0
 48
0.0
 49
0.0
140
0.0
141
0.0
142
1.0
143
1.0
 70
0
 72
0
 73
0
 74
0
  7

 75
0
147
1.0
148
0.0
149
0.0
100
AcDbLayout
  1
Layout1
 70
0
 71
1
 10
0.0
 20
0.0
 11
22.0
 21
17.0
 12
0.0
 22
0.0
 32
0.0
 14
0.0
 24
0.0
 34
0.0
 15
0.0
 25
0.0
 35
0.0
146
0.0
 13
0.0
 23
0.0
 33
0.0
 16
1.0
 26
0.0
 36
0.0
 17
0.0
 27
1.0
 37
0.0
 76
0
330
217
345
0
346
0
  0
ENDSEC
  0
EOF