999
DXF file: _cgs_temp_output.dxf
999
Pro/ENGINEER 2016360 by Parametric Technology Corporation
  0
SECTION
  2
HEADER
  9
$ACADVER
  1
AC1021
  9
$DWGCODEPAGE
  3
ANSI_1252
  9
$EXTMAX
 10
22.0
 20
17.0
 30
0.0
  9
$EXTMIN
 10
0.0
 20
0.0
 30
0.0
  9
$LIMMIN
 10
0.0
 20
0.0
  9
$LIMMAX
 10
22.0
 20
17.0
  9
$VIEWCTR
 10
11.0
 20
8.5
  9
$VIEWSIZE
 40
17.0
  9
$CLAYER
  8
0
  9
$LTSCALE
 40
1.21
  9
$CELTYPE
  6
BYLAYER
  9
$DIMSCALE
 40
1.0
  9
$DIMASZ
 40
0.1875
  9
$DIMEXO
 40
0.0625
  9
$DIMDLI
 40
0.836
  9
$DIMEXE
 40
0.125
  9
$DIMCEN
 40
0.198
  9
$DIMLFAC
 40
1.0
  9
$DIMBLK
  1
_CLOSED
  9
$DIMALT
 70
0
  9
$DIMALTF
 40
25.4
  9
$DIMTXT
 40
0.15625
  9
$DIMTOL
 70
0
  9
$DIMLIM
 70
0
  9
$DIMTFAC
 40
1.0
  9
$DIMGAP
 40
0.09
  9
$DIMDSEP
 70
46
  9
$AUNITS
 70
0
  9
$PDMODE
 70
3
  9
$PDSIZE
 40
0.3125
  9
$HANDSEED
  5
308
  9
$TILEMODE
 70
1
  9
$MEASUREMENT
 70
0
  9
$INSUNITS
 70
1
  0
ENDSEC
  0
SECTION
  2
CLASSES
  0
CLASS
  1
ACDBDICTIONARYWDFLT
  2
AcDbDictionaryWithDefault
  3
AutoCAD 2000
 90
0
 91
1
280
0
281
0
  0
CLASS
  1
ACDBPLACEHOLDER
  2
AcDbPlaceHolder
  3
AutoCAD 2000
 90
0
 91
1
280
0
281
0
  0
CLASS
  1
LAYOUT
  2
AcDbLayout
  3
AutoCAD 2000
 90
0
 91
0
280
0
281
0
  0
ENDSEC
  0
SECTION
  2
TABLES
  0
TABLE
  2
VPORT
  5
8
100
AcDbSymbolTable
 70
2
  0
VPORT
  5
1F4
100
AcDbSymbolTableRecord
100
AcDbViewportTableRecord
  2
*ACTIVE
 70
0
 10
0.0
 20
0.0
 11
1.0
 21
1.0
 12
11.0
 22
8.5
 13
0.0
 23
0.0
 14
1.0
 24
1.0
 15
0.0
 25
0.0
 16
0.0
 26
0.0
 36
1.0
 17
0.0
 27
0.0
 37
0.0
 40
17.0
 41
1.2941176471
 42
50.0
 43
0.0
 44
0.0
 50
0.0
 51
0.0
 71
0
 72
100
 73
1
 74
1
 75
0
 76
0
 77
0
 78
0
  0
ENDTAB
  0
TABLE
  2
LTYPE
  5
5
100
AcDbSymbolTable
 70
6
  0
LTYPE
  5
14
100
AcDbSymbolTableRecord
100
AcDbLinetypeTableRecord
  2
BYBLOCK
 70
0
  3

 72
65
 73
0
 40
0.0
  0
LTYPE
  5
15
100
AcDbSymbolTableRecord
100
AcDbLinetypeTableRecord
  2
BYLAYER
 70
0
  3

 72
65
 73
0
 40
0.0
  0
LTYPE
  5
16
100
AcDbSymbolTableRecord
100
AcDbLinetypeTableRecord
  2
CONTINUOUS
 70
64
  3
Solid line
 72
65
 73
0
 40
0.0
  0
LTYPE
  5
1F5
100
AcDbSymbolTableRecord
100
AcDbLinetypeTableRecord
  2
CENTER
 70
64
  3
____ _ ____ _ ____ _ ____ _ ____ _ ____ _ ____
 72
65
 73
4
 40
0.6
 49
0.375
 74
0
 49
-0.075
 74
0
 49
0.075
 74
0
 49
-0.075
 74
0
  0
LTYPE
  5
1F6
100
AcDbSymbolTableRecord
100
AcDbLinetypeTableRecord
  2
HIDDEN
 70
64
  3
- - - - - - - - - - - - - - - - - - - -
 72
65
 73
2
 40
0.2
 49
0.1
 74
0
 49
-0.1
 74
0
  0
LTYPE
  5
1F7
100
AcDbSymbolTableRecord
100
AcDbLinetypeTableRecord
  2
PHANTOM
 70
64
  3
_____ _ _ _____ _ _ _____ _ _ _____
 72
65
 73
6
 40
0.8
 49
0.45
 74
0
 49
-0.05
 74
0
 49
0.1
 74
0
 49
-0.05
 74
0
 49
0.1
 74
0
 49
-0.05
 74
0
  0
LTYPE
  5
1F8
100
AcDbSymbolTableRecord
100
AcDbLinetypeTableRecord
  2
DOT
 70
64
  3
. . . . . . . . . . . . . . . . . . . .
 72
65
 73
2
 40
0.2
 49
0.1
 74
0
 49
-0.1
 74
0
  0
LTYPE
  5
1F9
100
AcDbSymbolTableRecord
100
AcDbLinetypeTableRecord
  2
DASHED
 70
64
  3
- - - - - - - - - - - - - - - - - - - -
 72
65
 73
2
 40
0.2
 49
0.1
 74
0
 49
-0.1
 74
0
  0
ENDTAB
  0
TABLE
  2
LAYER
  5
2
100
AcDbSymbolTable
 70
36
  0
LAYER
  5
10
100
AcDbSymbolTableRecord
100
AcDbLayerTableRecord
  2
0
 70
0
 62
7
  6
CONTINUOUS
370
-3
390
F
  0
LAYER
  5
1FA
100
AcDbSymbolTableRecord
100
AcDbLayerTableRecord
  2
DEFAULT_1
 70
0
 62
7
  6
CENTER
370
-3
390
F
  0
LAYER
  5
1FB
100
AcDbSymbolTableRecord
100
AcDbLayerTableRecord
  2
DEFAULT_2
 70
0
 62
8
  6
HIDDEN
370
-3
390
F
  0
LAYER
  5
1FC
100
AcDbSymbolTableRecord
100
AcDbLayerTableRecord
  2
DEFAULT_3
 70
0
 62
7
  6
PHANTOM
370
-3
390
F
  0
LAYER
  5
1FD
100
AcDbSymbolTableRecord
100
AcDbLayerTableRecord
  2
01_ALL_DTM_PLN
 70
0
 62
7
  6
CONTINUOUS
370
-3
390
F
  0
LAYER
  5
1FE
100
AcDbSymbolTableRecord
100
AcDbLayerTableRecord
  2
01__ASM_ALL_DTM_PLN
 70
0
 62
7
  6
CONTINUOUS
370
-3
390
F
  0
LAYER
  5
1FF
100
AcDbSymbolTableRecord
100
AcDbLayerTableRecord
  2
01__ASM_DEF_DTM_PLN
 70
0
 62
7
  6
CONTINUOUS
370
-3
390
F
  0
LAYER
  5
200
100
AcDbSymbolTableRecord
100
AcDbLayerTableRecord
  2
01___PRT_ALL_DTM_PLN
 70
0
 62
7
  6
CONTINUOUS
370
-3
390
F
  0
LAYER
  5
201
100
AcDbSymbolTableRecord
100
AcDbLayerTableRecord
  2
01___PRT_DEF_DTM_PLN
 70
0
 62
7
  6
CONTINUOUS
370
-3
390
F
  0
LAYER
  5
202
100
AcDbSymbolTableRecord
100
AcDbLayerTableRecord
  2
02_ALL_AXES
 70
0
 62
7
  6
CONTINUOUS
370
-3
390
F
  0
LAYER
  5
203
100
AcDbSymbolTableRecord
100
AcDbLayerTableRecord
  2
02__ASM_ALL_AXES
 70
0
 62
7
  6
CONTINUOUS
370
-3
390
F
  0
LAYER
  5
204
100
AcDbSymbolTableRecord
100
AcDbLayerTableRecord
  2
02___PRT_ALL_AXES
 70
0
 62
7
  6
CONTINUOUS
370
-3
390
F
  0
LAYER
  5
205
100
AcDbSymbolTableRecord
100
AcDbLayerTableRecord
  2
03_ALL_CURVES
 70
0
 62
7
  6
CONTINUOUS
370
-3
390
F
  0
LAYER
  5
206
100
AcDbSymbolTableRecord
100
AcDbLayerTableRecord
  2
03__ASM_ALL_CURVES
 70
0
 62
7
  6
CONTINUOUS
370
-3
390
F
  0
LAYER
  5
207
100
AcDbSymbolTableRecord
100
AcDbLayerTableRecord
  2
03___PRT_ALL_CURVES
 70
0
 62
7
  6
CONTINUOUS
370
-3
390
F
  0
LAYER
  5
208
100
AcDbSymbolTableRecord
100
AcDbLayerTableRecord
  2
04_ALL_DTM_PNT
 70
0
 62
7
  6
CONTINUOUS
370
-3
390
F
  0
LAYER
  5
209
100
AcDbSymbolTableRecord
100
AcDbLayerTableRecord
  2
04__ASM_ALL_DTM_PNT
 70
0
 62
7
  6
CONTINUOUS
370
-3
390
F
  0
LAYER
  5
20A
100
AcDbSymbolTableRecord
100
AcDbLayerTableRecord
  2
04___PRT_ALL_DTM_PNT
 70
0
 62
7
  6
CONTINUOUS
370
-3
390
F
  0
LAYER
  5
20B
100
AcDbSymbolTableRecord
100
AcDbLayerTableRecord
  2
05_ALL_DTM_CSYS
 70
0
 62
7
  6
CONTINUOUS
370
-3
390
F
  0
LAYER
  5
20C
100
AcDbSymbolTableRecord
100
AcDbLayerTableRecord
  2
05__ASM_ALL_DTM_CSYS
 70
0
 62
7
  6
CONTINUOUS
370
-3
390
F
  0
LAYER
  5
20D
100
AcDbSymbolTableRecord
100
AcDbLayerTableRecord
  2
05__ASM_DEF_DTM_CSYS
 70
0
 62
7
  6
CONTINUOUS
370
-3
390
F
  0
LAYER
  5
20E
100
AcDbSymbolTableRecord
100
AcDbLayerTableRecord
  2
05___PRT_ALL_DTM_CSYS
 70
0
 62
7
  6
CONTINUOUS
370
-3
390
F
  0
LAYER
  5
20F
100
AcDbSymbolTableRecord
100
AcDbLayerTableRecord
  2
05___PRT_DEF_DTM_CSYS
 70
0
 62
7
  6
CONTINUOUS
370
-3
390
F
  0
LAYER
  5
210
100
AcDbSymbolTableRecord
100
AcDbLayerTableRecord
  2
06_ALL_SURFS
 70
0
 62
7
  6
CONTINUOUS
370
-3
390
F
  0
LAYER
  5
211
100
AcDbSymbolTableRecord
100
AcDbLayerTableRecord
  2
06__ASM_ALL_SURFS
 70
0
 62
7
  6
CONTINUOUS
370
-3
390
F
  0
LAYER
  5
212
100
AcDbSymbolTableRecord
100
AcDbLayerTableRecord
  2
06___PRT_ALL_SURFS
 70
0
 62
7
  6
CONTINUOUS
370
-3
390
F
  0
LAYER
  5
213
100
AcDbSymbolTableRecord
100
AcDbLayerTableRecord
  2
07__ASM_ALL_SKELETONS
 70
0
 62
7
  6
CONTINUOUS
370
-3
390
F
  0
ENDTAB
  0
TABLE
  2
STYLE
  5
3
100
AcDbSymbolTable
 70
1
  0
STYLE
  5
11
100
AcDbSymbolTableRecord
100
AcDbTextStyleTableRecord
  2
STANDARD
 70
0
 40
0.0
 41
0.8
 50
0.0
 71
0
 42
0.2
  3
txt
  4

  0
STYLE
  5
214
100
AcDbSymbolTableRecord
100
AcDbTextStyleTableRecord
  2
TEXTSTYLE_1
 70
0
 40
0.0
 41
0.8
 50
0.0
 71
0
 42
0.2
  3
gdt
  4

  0
ENDTAB
  0
TABLE
  2
VIEW
  5
6
100
AcDbSymbolTable
 70
0
  0
ENDTAB
  0
TABLE
  2
UCS
  5
7
100
AcDbSymbolTable
 70
0
  0
ENDTAB
  0
TABLE
  2
APPID
  5
9
100
AcDbSymbolTable
 70
1
  0
APPID
  5
215
100
AcDbSymbolTableRecord
100
AcDbRegAppTableRecord
  2
ACAD
 70
0
  0
ENDTAB
  0
TABLE
  2
BLOCK_RECORD
  5
1
100
AcDbSymbolTable
 70
0
  0
BLOCK_RECORD
  5
216
100
AcDbSymbolTableRecord
100
AcDbBlockTableRecord
  2
*Model_Space
  0
BLOCK_RECORD
  5
217
100
AcDbSymbolTableRecord
100
AcDbBlockTableRecord
  2
*Paper_Space
  0
ENDTAB
  0
TABLE
  2
DIMSTYLE
  5
A
100
AcDbSymbolTable
 70
1
100
AcDbDimStyleTable
 71
0
  0
DIMSTYLE
105
218
100
AcDbSymbolTableRecord
100
AcDbDimStyleTableRecord
  2
STANDARD
 70
0
  3

  4

 40
1.0
 41
0.1875
 42
0.0625
 43
0.38
 44
0.125
 45
0.0
 46
0.0
 47
0.0001
 48
0.0001
140
0.15625
141
0.09
142
0.0
143
25.4
144
1.0
145
0.0
146
1.0
147
0.09
 71
0.0
 72
0.0
 73
1
 74
1
 75
0
 76
0
 77
0
 78
4
 79
1
170
0
171
3
172
0
173
0
174
0
175
0
176
0
177
0
178
0
270
2
179
4
271
4
272
4
273
2
274
2
275
0
280
0
281
0
282
0
283
1
284
4
285
0
286
0
287
3
288
0
340
11
278
46
  0
ENDTAB
  0
ENDSEC
  0
SECTION
  2
BLOCKS
  0
BLOCK
  5
20
100
AcDbEntity
  8
0
100
AcDbBlockBegin
  2
*Model_Space
 70
0
 10
0.0
 20
0.0
 30
0.0
  3
*Model_Space
  1

  0
ENDBLK
  5
21
100
AcDbEntity
  8
0
100
AcDbBlockEnd
  0
BLOCK
  5
1C
100
AcDbEntity
  8
0
100
AcDbBlockBegin
  2
*Paper_Space
 70
0
 10
0.0
 20
0.0
 30
0.0
  3
*Paper_Space
  1

  0
ENDBLK
  5
1D
100
AcDbEntity
  8
0
100
AcDbBlockEnd
  0
ENDSEC
  0
SECTION
  2
ENTITIES
  0
MTEXT
  5
219
100
AcDbEntity
  8
0
100
AcDbMText
 62
7
  6
CONTINUOUS
  7
STANDARD
 71
1
 72
1
 10
15.9560215477
 20
0.9479130325
 30
0.0
 11
1.0
 21
0.0
 31
0.0
 44
0.9
  1
SCALE: 1:1.000
 40
0.3
 41
3.36
  0
LINE
  5
21A
100
AcDbEntity
  8
0
100
AcDbLine
 62
7
  6
CONTINUOUS
 10
0.0
 20
0.0
 11
0.0
 21
17.0
  0
LINE
  5
21B
100
AcDbEntity
  8
0
100
AcDbLine
 62
7
  6
CONTINUOUS
 10
0.0
 20
0.0
 11
22.0
 21
0.0
  0
LINE
  5
21C
100
AcDbEntity
  8
0
100
AcDbLine
 62
7
  6
CONTINUOUS
 10
0.0
 20
17.0
 11
22.0
 21
17.0
  0
LINE
  5
21D
100
AcDbEntity
  8
0
100
AcDbLine
 62
7
  6
CONTINUOUS
 10
22.0
 20
0.0
 11
22.0
 21
17.0
  0
LINE
  5
21E
100
AcDbEntity
  8
0
100
AcDbLine
 62
7
  6
CONTINUOUS
 10
4.7553672762
 20
5.8181198968
 11
4.7553672762
 21
5.6947851465
  0
LINE
  5
21F
100
AcDbEntity
  8
0
100
AcDbLine
 62
7
  6
CONTINUOUS
 10
4.8802236889
 20
5.2156494206
 11
4.7587746935
 21
5.668903242
  0
LINE
  5
220
100
AcDbEntity
  8
0
100
AcDbLine
 62
7
  6
CONTINUOUS
 10
4.9043718346
 20
5.1971198968
 11
7.3563627177
 21
5.1971198968
  0
LINE
  5
221
100
AcDbEntity
  8
0
100
AcDbLine
 62
7
  6
CONTINUOUS
 10
4.8466734418
 20
5.4124532301
 11
7.4140611105
 21
5.4124532301
  0
LINE
  5
222
100
AcDbEntity
  8
0
100
AcDbLine
 62
7
  6
CONTINUOUS
 10
7.4803672762
 20
5.8431198968
 11
4.7803672762
 21
5.8431198968
  0
LINE
  5
223
100
AcDbEntity
  8
0
100
AcDbLine
 62
7
  6
CONTINUOUS
 10
7.5053672762
 20
5.6947851465
 11
7.5053672762
 21
5.8181198968
  0
LINE
  5
224
100
AcDbEntity
  8
0
100
AcDbLine
 62
7
  6
CONTINUOUS
 10
7.3805108634
 20
5.2156494206
 11
7.5019598588
 21
5.668903242
  0
LINE
  5
225
100
AcDbEntity
  8
0
100
AcDbLine
 62
7
  6
CONTINUOUS
 10
7.4458720839
 20
10.6000477814
 11
4.6958720839
 21
10.6000477814
  0
LINE
  5
226
100
AcDbEntity
  8
0
100
AcDbLine
 62
7
  6
CONTINUOUS
 10
4.6958720839
 20
10.6000477814
 11
4.6958720839
 21
14.6000477814
  0
LINE
  5
227
100
AcDbEntity
  8
0
100
AcDbLine
 62
7
  6
CONTINUOUS
 10
7.4458720839
 20
10.6000477814
 11
7.4458720839
 21
14.6000477814
  0
LINE
  5
228
100
AcDbEntity
  8
0
100
AcDbLine
 62
7
  6
CONTINUOUS
 10
4.6958720839
 20
14.6000477814
 11
7.4458720839
 21
14.6000477814
  0
LINE
  5
229
100
AcDbEntity
  8
0
100
AcDbLine
 62
7
  6
CONTINUOUS
 10
13.5603552569
 20
5.3529580378
 11
13.5603552569
 21
5.7836247044
  0
LINE
  5
22A
100
AcDbEntity
  8
0
100
AcDbLine
 62
7
  6
CONTINUOUS
 10
13.67013107
 20
5.3112345695
 11
13.7005794439
 21
5.1793481727
  0
LINE
  5
22B
100
AcDbEntity
  8
0
100
AcDbLine
 62
7
  6
CONTINUOUS
 10
13.92013107
 20
5.1793481727
 11
13.9505794439
 21
5.3112345695
  0
LINE
  5
22C
100
AcDbEntity
  8
0
100
AcDbLine
 62
7
  6
CONTINUOUS
 10
14.17013107
 20
5.3112345695
 11
14.2005794439
 21
5.1793481727
  0
LINE
  5
22D
100
AcDbEntity
  8
0
100
AcDbLine
 62
7
  6
CONTINUOUS
 10
14.42013107
 20
5.1793481727
 11
14.4505794439
 21
5.3112345695
  0
LINE
  5
22E
100
AcDbEntity
  8
0
100
AcDbLine
 62
7
  6
CONTINUOUS
 10
14.67013107
 20
5.3112345695
 11
14.7005794439
 21
5.1793481727
  0
LINE
  5
22F
100
AcDbEntity
  8
0
100
AcDbLine
 62
7
  6
CONTINUOUS
 10
14.92013107
 20
5.1793481727
 11
14.9505794439
 21
5.3112345695
  0
LINE
  5
230
100
AcDbEntity
  8
0
100
AcDbLine
 62
7
  6
CONTINUOUS
 10
15.17013107
 20
5.3112345695
 11
15.2005794439
 21
5.1793481727
  0
LINE
  5
231
100
AcDbEntity
  8
0
100
AcDbLine
 62
7
  6
CONTINUOUS
 10
13.7530330324
 20
5.1376247044
 11
13.8676774815
 21
5.1376247044
  0
LINE
  5
232
100
AcDbEntity
  8
0
100
AcDbLine
 62
7
  6
CONTINUOUS
 10
14.2530330324
 20
5.1376247044
 11
14.3676774815
 21
5.1376247044
  0
LINE
  5
233
100
AcDbEntity
  8
0
100
AcDbLine
 62
7
  6
CONTINUOUS
 10
14.7530330324
 20
5.1376247044
 11
14.8676774815
 21
5.1376247044
  0
LINE
  5
234
100
AcDbEntity
  8
0
100
AcDbLine
 62
7
  6
CONTINUOUS
 10
15.2530330324
 20
5.1376247044
 11
15.3676774815
 21
5.1376247044
  0
LINE
  5
235
100
AcDbEntity
  8
0
100
AcDbLine
 62
7
  6
CONTINUOUS
 10
15.7530330324
 20
5.1376247044
 11
15.8676774815
 21
5.1376247044
  0
LINE
  5
236
100
AcDbEntity
  8
0
100
AcDbLine
 62
7
  6
CONTINUOUS
 10
16.2530330324
 20
5.1376247044
 11
16.3676774815
 21
5.1376247044
  0
LINE
  5
237
100
AcDbEntity
  8
0
100
AcDbLine
 62
7
  6
CONTINUOUS
 10
16.7530330324
 20
5.1376247044
 11
16.8676774815
 21
5.1376247044
  0
LINE
  5
238
100
AcDbEntity
  8
0
100
AcDbLine
 62
7
  6
CONTINUOUS
 10
17.2530330324
 20
5.1376247044
 11
17.3676774815
 21
5.1376247044
  0
LINE
  5
239
100
AcDbEntity
  8
0
100
AcDbLine
 62
7
  6
CONTINUOUS
 10
15.42013107
 20
5.1793481727
 11
15.4505794439
 21
5.3112345695
  0
LINE
  5
23A
100
AcDbEntity
  8
0
100
AcDbLine
 62
7
  6
CONTINUOUS
 10
13.5603552569
 20
5.3529580378
 11
13.6176774815
 21
5.3529580378
  0
LINE
  5
23B
100
AcDbEntity
  8
0
100
AcDbLine
 62
7
  6
CONTINUOUS
 10
14.0030330324
 20
5.3529580378
 11
14.1176774815
 21
5.3529580378
  0
LINE
  5
23C
100
AcDbEntity
  8
0
100
AcDbLine
 62
7
  6
CONTINUOUS
 10
14.5030330324
 20
5.3529580378
 11
14.6176774815
 21
5.3529580378
  0
LINE
  5
23D
100
AcDbEntity
  8
0
100
AcDbLine
 62
7
  6
CONTINUOUS
 10
15.0030330324
 20
5.3529580378
 11
15.1176774815
 21
5.3529580378
  0
LINE
  5
23E
100
AcDbEntity
  8
0
100
AcDbLine
 62
7
  6
CONTINUOUS
 10
15.5030330324
 20
5.3529580378
 11
15.6176774815
 21
5.3529580378
  0
LINE
  5
23F
100
AcDbEntity
  8
0
100
AcDbLine
 62
7
  6
CONTINUOUS
 10
16.0030330324
 20
5.3529580378
 11
16.1176774815
 21
5.3529580378
  0
LINE
  5
240
100
AcDbEntity
  8
0
100
AcDbLine
 62
7
  6
CONTINUOUS
 10
16.5030330324
 20
5.3529580378
 11
16.6176774815
 21
5.3529580378
  0
LINE
  5
241
100
AcDbEntity
  8
0
100
AcDbLine
 62
7
  6
CONTINUOUS
 10
17.0030330324
 20
5.3529580378
 11
17.1176774815
 21
5.3529580378
  0
LINE
  5
242
100
AcDbEntity
  8
0
100
AcDbLine
 62
7
  6
CONTINUOUS
 10
17.5030330324
 20
5.3529580378
 11
17.5603552569
 21
5.3529580378
  0
LINE
  5
243
100
AcDbEntity
  8
0
100
AcDbLine
 62
7
  6
CONTINUOUS
 10
15.67013107
 20
5.3112345695
 11
15.7005794439
 21
5.1793481727
  0
LINE
  5
244
100
AcDbEntity
  8
0
100
AcDbLine
 62
7
  6
CONTINUOUS
 10
15.92013107
 20
5.1793481727
 11
15.9505794439
 21
5.3112345695
  0
LINE
  5
245
100
AcDbEntity
  8
0
100
AcDbLine
 62
7
  6
CONTINUOUS
 10
13.5603552569
 20
5.7836247044
 11
17.5603552569
 21
5.7836247044
  0
LINE
  5
246
100
AcDbEntity
  8
0
100
AcDbLine
 62
7
  6
CONTINUOUS
 10
16.17013107
 20
5.3112345695
 11
16.2005794439
 21
5.1793481727
  0
LINE
  5
247
100
AcDbEntity
  8
0
100
AcDbLine
 62
7
  6
CONTINUOUS
 10
16.42013107
 20
5.1793481727
 11
16.4505794439
 21
5.3112345695
  0
LINE
  5
248
100
AcDbEntity
  8
0
100
AcDbLine
 62
7
  6
CONTINUOUS
 10
16.67013107
 20
5.3112345695
 11
16.7005794439
 21
5.1793481727
  0
LINE
  5
249
100
AcDbEntity
  8
0
100
AcDbLine
 62
7
  6
CONTINUOUS
 10
16.92013107
 20
5.1793481727
 11
16.9505794439
 21
5.3112345695
  0
LINE
  5
24A
100
AcDbEntity
  8
0
100
AcDbLine
 62
7
  6
CONTINUOUS
 10
17.17013107
 20
5.3112345695
 11
17.2005794439
 21
5.1793481727
  0
LINE
  5
24B
100
AcDbEntity
  8
0
100
AcDbLine
 62
7
  6
CONTINUOUS
 10
17.5603552569
 20
5.3529580378
 11
17.5603552569
 21
5.7836247044
  0
LINE
  5
24C
100
AcDbEntity
  8
0
100
AcDbLine
 62
7
  6
CONTINUOUS
 10
17.42013107
 20
5.1793481727
 11
17.4505794439
 21
5.3112345695
  0
LINE
  5
24D
100
AcDbEntity
  8
0
100
AcDbLine
 62
7
  6
CONTINUOUS
 10
13.7416733217
 20
10.9713100342
 11
13.8729672249
 21
10.8234162872
  0
LINE
  5
24E
100
AcDbEntity
  8
0
100
AcDbLine
 62
7
  6
CONTINUOUS
 10
13.6930175556
 20
11.0640645943
 11
13.730639818
 21
10.9873984841
  0
LINE
  5
24F
100
AcDbEntity
  8
0
100
AcDbLine
 62
7
  6
CONTINUOUS
 10
14.0326832704
 20
10.8118981505
 11
14.0448761155
 21
10.8086831238
  0
LWPOLYLINE
  5
250
100
AcDbEntity
  8
0
100
AcDbPolyline
 62
7
  6
CONTINUOUS
 90
5
 70
0
 10
16.3110387323
 20
10.8086045479
 10
16.319035608
 20
10.8098560382
 10
16.3271715191
 20
10.8141069525
 10
16.3329984343
 20
10.8200138927
 10
16.3368482809
 20
10.8263512635
  0
LINE
  5
251
100
AcDbEntity
  8
0
100
AcDbLine
 62
7
  6
CONTINUOUS
 10
14.0472176048
 20
10.8086044936
 11
16.3110362191
 21
10.8086044936
  0
LINE
  5
252
100
AcDbEntity
  8
0
100
AcDbLine
 62
7
  6
CONTINUOUS
 10
13.9008614205
 20
10.8118981505
 11
16.2655820586
 21
10.8118981505
  0
LINE
  5
253
100
AcDbEntity
  8
0
100
AcDbLine
 62
7
  6
CONTINUOUS
 10
14.0448761155
 20
10.8086831238
 11
14.0472565106
 21
10.8086046116
  0
LWPOLYLINE
  5
254
100
AcDbEntity
  8
0
100
AcDbPolyline
 62
7
  6
CONTINUOUS
 90
5
 70
0
 10
16.432071894
 20
11.2002680027
 10
16.4400687697
 20
11.201519493
 10
16.4482046808
 20
11.2057704073
 10
16.454031596
 20
11.2116773475
 10
16.4578814426
 20
11.2180147184
  0
LINE
  5
255
100
AcDbEntity
  8
0
100
AcDbLine
 62
7
  6
CONTINUOUS
 10
16.1952827176
 20
11.0796048435
 11
13.7084180338
 21
11.0796048435
  0
LINE
  5
256
100
AcDbEntity
  8
0
100
AcDbLine
 62
7
  6
CONTINUOUS
 10
16.3993355361
 20
11.2002679485
 11
16.4320693808
 21
11.2002679485
  0
LINE
  5
257
100
AcDbEntity
  8
0
100
AcDbLine
 62
7
  6
CONTINUOUS
 10
13.6921585593
 20
11.0714457786
 11
14.660423853
 21
14.2047534171
  0
LWPOLYLINE
  5
258
100
AcDbEntity
  8
0
100
AcDbPolyline
 62
7
  6
CONTINUOUS
 90
5
 70
0
 10
16.5531050557
 20
11.5919314575
 10
16.5611019314
 20
11.5931829478
 10
16.5692378425
 20
11.5974338622
 10
16.5750647577
 20
11.6033408023
 10
16.5789146043
 20
11.6096781732
  0
LINE
  5
259
100
AcDbEntity
  8
0
100
AcDbLine
 62
7
  6
CONTINUOUS
 10
16.5203686978
 20
11.5919314033
 11
16.5531025425
 21
11.5919314033
  0
LWPOLYLINE
  5
25A
100
AcDbEntity
  8
0
100
AcDbPolyline
 62
7
  6
CONTINUOUS
 90
5
 70
0
 10
16.6741382174
 20
11.9835949123
 10
16.6821350931
 20
11.9848464026
 10
16.6902710042
 20
11.989097317
 10
16.6960979194
 20
11.9950042571
 10
16.699947766
 20
12.001341628
  0
LINE
  5
25B
100
AcDbEntity
  8
0
100
AcDbLine
 62
7
  6
CONTINUOUS
 10
16.6414018595
 20
11.9835948581
 11
16.6741357042
 21
11.9835948581
  0
LWPOLYLINE
  5
25C
100
AcDbEntity
  8
0
100
AcDbPolyline
 62
7
  6
CONTINUOUS
 90
5
 70
0
 10
16.7951713791
 20
12.3752583671
 10
16.8031682548
 20
12.3765098575
 10
16.8113041659
 20
12.3807607718
 10
16.8171310811
 20
12.386667712
 10
16.8209809277
 20
12.3930050828
  0
LINE
  5
25D
100
AcDbEntity
  8
0
100
AcDbLine
 62
7
  6
CONTINUOUS
 10
16.7624350212
 20
12.3752583129
 11
16.7951688659
 21
12.3752583129
  0
LWPOLYLINE
  5
25E
100
AcDbEntity
  8
0
100
AcDbPolyline
 62
7
  6
CONTINUOUS
 90
5
 70
0
 10
16.9162045408
 20
12.7669218219
 10
16.9242014165
 20
12.7681733123
 10
16.9323373276
 20
12.7724242266
 10
16.9381642428
 20
12.7783311668
 10
16.9420140894
 20
12.7846685376
  0
LINE
  5
25F
100
AcDbEntity
  8
0
100
AcDbLine
 62
7
  6
CONTINUOUS
 10
16.2635575515
 20
10.9873984841
 11
16.2259352891
 21
11.0640645943
  0
LINE
  5
260
100
AcDbEntity
  8
0
100
AcDbLine
 62
7
  6
CONTINUOUS
 10
16.8834681829
 20
12.7669217677
 11
16.9162020277
 21
12.7669217677
  0
LWPOLYLINE
  5
261
100
AcDbEntity
  8
0
100
AcDbPolyline
 62
7
  6
CONTINUOUS
 90
5
 70
0
 10
17.0372377025
 20
13.1585852767
 10
17.0452345782
 20
13.1598367671
 10
17.0533704893
 20
13.1640876814
 10
17.0591974045
 20
13.1699946216
 10
17.0630472511
 20
13.1763319924
  0
LINE
  5
262
100
AcDbEntity
  8
0
100
AcDbLine
 62
7
  6
CONTINUOUS
 10
16.2821716931
 20
10.8234162872
 11
16.2683141768
 21
10.9713100342
  0
LINE
  5
263
100
AcDbEntity
  8
0
100
AcDbLine
 62
7
  6
CONTINUOUS
 10
17.0045013446
 20
13.1585852225
 11
17.0372351894
 21
13.1585852225
  0
LWPOLYLINE
  5
264
100
AcDbEntity
  8
0
100
AcDbPolyline
 62
7
  6
CONTINUOUS
 90
5
 70
0
 10
17.1582708642
 20
13.5502487316
 10
17.1662677399
 20
13.5515002219
 10
17.174403651
 20
13.5557511362
 10
17.1802305662
 20
13.5616580764
 10
17.1840804128
 20
13.5679954472
  0
LINE
  5
265
100
AcDbEntity
  8
0
100
AcDbLine
 62
7
  6
CONTINUOUS
 10
16.3753893007
 20
10.9702906315
 11
16.3750781935
 21
11.0761235605
  0
LWPOLYLINE
  5
266
100
AcDbEntity
  8
0
100
AcDbPolyline
 62
7
  6
CONTINUOUS
 90
6
 70
0
 10
16.3750776536
 20
11.0761481963
 10
16.3752260387
 20
11.0841537426
 10
16.3764704293
 20
11.1018251304
 10
16.3789722878
 20
11.1215051122
 10
16.3825012384
 20
11.1410991134
 10
16.3866348074
 20
11.1586000468
  0
LINE
  5
267
100
AcDbEntity
  8
0
100
AcDbLine
 62
7
  6
CONTINUOUS
 10
16.3750961112
 20
10.9619530345
 11
16.3753889319
 21
10.9703533412
  0
LINE
  5
268
100
AcDbEntity
  8
0
100
AcDbLine
 62
7
  6
CONTINUOUS
 10
16.2818376085
 20
10.8200584218
 11
16.2821716931
 21
10.8234162872
  0
LINE
  5
269
100
AcDbEntity
  8
0
100
AcDbLine
 62
7
  6
CONTINUOUS
 10
16.4964224624
 20
11.3619540864
 11
16.4961113552
 21
11.4677870154
  0
LINE
  5
26A
100
AcDbEntity
  8
0
100
AcDbLine
 62
7
  6
CONTINUOUS
 10
16.6174556241
 20
11.7536175412
 11
16.6171445169
 21
11.8594504702
  0
LWPOLYLINE
  5
26B
100
AcDbEntity
  8
0
100
AcDbPolyline
 62
7
  6
CONTINUOUS
 90
6
 70
0
 10
16.4961108153
 20
11.4678116511
 10
16.4962592004
 20
11.4758171974
 10
16.497503591
 20
11.4934885852
 10
16.5000054495
 20
11.513168567
 10
16.5035344001
 20
11.5327625682
 10
16.5076679691
 20
11.5502635016
  0
LWPOLYLINE
  5
26C
100
AcDbEntity
  8
0
100
AcDbPolyline
 62
7
  6
CONTINUOUS
 90
6
 70
0
 10
16.617143977
 20
11.8594751059
 10
16.6172923621
 20
11.8674806522
 10
16.6185367527
 20
11.88515204
 10
16.6210386112
 20
11.9048320218
 10
16.6245675618
 20
11.924426023
 10
16.6287011308
 20
11.9419269564
  0
LINE
  5
26D
100
AcDbEntity
  8
0
100
AcDbLine
 62
7
  6
CONTINUOUS
 10
16.4961292729
 20
11.3536164893
 11
16.4964220936
 21
11.362016796
  0
LWPOLYLINE
  5
26E
100
AcDbEntity
  8
0
100
AcDbPolyline
 62
7
  6
CONTINUOUS
 90
3
 70
0
 10
17.1466277405
 20
13.6171894468
 10
17.1490058239
 20
13.6225648293
 10
17.1499153203
 20
13.624240472
  0
LWPOLYLINE
  5
26F
100
AcDbEntity
  8
0
100
AcDbPolyline
 62
7
  6
CONTINUOUS
 90
3
 70
0
 10
17.0255945788
 20
13.225525992
 10
17.0279726622
 20
13.2309013745
 10
17.0288821586
 20
13.2325770172
  0
LINE
  5
270
100
AcDbEntity
  8
0
100
AcDbLine
 62
7
  6
CONTINUOUS
 10
17.1255345063
 20
13.5502486773
 11
17.1582683511
 21
13.5502486773
  0
LINE
  5
271
100
AcDbEntity
  8
0
100
AcDbLine
 62
7
  6
CONTINUOUS
 10
16.7384887859
 20
12.145280996
 11
16.7381776786
 21
12.251113925
  0
LWPOLYLINE
  5
272
100
AcDbEntity
  8
0
100
AcDbPolyline
 62
7
  6
CONTINUOUS
 90
6
 70
0
 10
16.7381771387
 20
12.2511385607
 10
16.7383255238
 20
12.259144107
 10
16.7395699144
 20
12.2768154949
 10
16.7420717729
 20
12.2964954767
 10
16.7456007235
 20
12.3160894778
 10
16.7497342925
 20
12.3335904112
  0
LINE
  5
273
100
AcDbEntity
  8
0
100
AcDbLine
 62
7
  6
CONTINUOUS
 10
16.6171624346
 20
11.7452799441
 11
16.6174552553
 21
11.7536802508
  0
LINE
  5
274
100
AcDbEntity
  8
0
100
AcDbLine
 62
7
  6
CONTINUOUS
 10
16.7381955963
 20
12.1369433989
 11
16.738488417
 21
12.1453437056
  0
LWPOLYLINE
  5
275
100
AcDbEntity
  8
0
100
AcDbPolyline
 62
7
  6
CONTINUOUS
 90
3
 70
0
 10
16.3706869753
 20
10.933860099
 10
16.3734608987
 20
10.9477116277
 10
16.3750961112
 20
10.9619530345
  0
LWPOLYLINE
  5
276
100
AcDbEntity
  8
0
100
AcDbPolyline
 62
7
  6
CONTINUOUS
 90
3
 70
0
 10
16.491720137
 20
11.3255235538
 10
16.4944940604
 20
11.3393750825
 10
16.4961292729
 20
11.3536164893
  0
LWPOLYLINE
  5
277
100
AcDbEntity
  8
0
100
AcDbPolyline
 62
7
  6
CONTINUOUS
 90
3
 70
0
 10
16.6127532987
 20
11.7171870086
 10
16.6155272221
 20
11.7310385373
 10
16.6171624346
 20
11.7452799441
  0
LWPOLYLINE
  5
278
100
AcDbEntity
  8
0
100
AcDbPolyline
 62
7
  6
CONTINUOUS
 90
3
 70
0
 10
16.7337864604
 20
12.1088504634
 10
16.7365603838
 20
12.1227019921
 10
16.7381955963
 20
12.1369433989
  0
LINE
  5
279
100
AcDbEntity
  8
0
100
AcDbLine
 62
7
  6
CONTINUOUS
 10
16.36876523
 20
10.9269048123
 11
16.3706869753
 21
10.933860099
  0
LINE
  5
27A
100
AcDbEntity
  8
0
100
AcDbLine
 62
7
  6
CONTINUOUS
 10
16.4897983917
 20
11.3185682671
 11
16.491720137
 21
11.3255235538
  0
LINE
  5
27B
100
AcDbEntity
  8
0
100
AcDbLine
 62
7
  6
CONTINUOUS
 10
16.6108315534
 20
11.7102317219
 11
16.6127532987
 21
11.7171870086
  0
LINE
  5
27C
100
AcDbEntity
  8
0
100
AcDbLine
 62
7
  6
CONTINUOUS
 10
16.7318647151
 20
12.1018951767
 11
16.7337864604
 21
12.1088504634
  0
LINE
  5
27D
100
AcDbEntity
  8
0
100
AcDbLine
 62
7
  6
CONTINUOUS
 10
16.3866348074
 20
11.1586000468
 11
16.3889934398
 21
11.1668050896
  0
LINE
  5
27E
100
AcDbEntity
  8
0
100
AcDbLine
 62
7
  6
CONTINUOUS
 10
16.5076679691
 20
11.5502635016
 11
16.5100266015
 21
11.5584685444
  0
LINE
  5
27F
100
AcDbEntity
  8
0
100
AcDbLine
 62
7
  6
CONTINUOUS
 10
16.6287011308
 20
11.9419269564
 11
16.6310597632
 21
11.9501319992
  0
LINE
  5
280
100
AcDbEntity
  8
0
100
AcDbLine
 62
7
  6
CONTINUOUS
 10
16.7497342925
 20
12.3335904112
 11
16.7520929249
 21
12.341795454
  0
LINE
  5
281
100
AcDbEntity
  8
0
100
AcDbLine
 62
7
  6
CONTINUOUS
 10
16.8707674542
 20
12.725253866
 11
16.8731260866
 21
12.7334589089
  0
LINE
  5
282
100
AcDbEntity
  8
0
100
AcDbLine
 62
7
  6
CONTINUOUS
 10
16.9918006159
 20
13.1169173209
 11
16.9941592483
 21
13.1251223637
  0
LINE
  5
283
100
AcDbEntity
  8
0
100
AcDbLine
 62
7
  6
CONTINUOUS
 10
17.1128337776
 20
13.5085807757
 11
17.11519241
 21
13.5167858185
  0
LINE
  5
284
100
AcDbEntity
  8
0
100
AcDbLine
 62
7
  6
CONTINUOUS
 10
17.2338669393
 20
13.9002442305
 11
17.2362255717
 21
13.9084492733
  0
LINE
  5
285
100
AcDbEntity
  8
0
100
AcDbLine
 62
7
  6
CONTINUOUS
 10
16.2828178589
 20
10.8232166069
 11
16.2957173143
 21
10.8649592599
  0
LINE
  5
286
100
AcDbEntity
  8
0
100
AcDbLine
 62
7
  6
CONTINUOUS
 10
16.3889989146
 20
11.1668186292
 11
16.416750476
 21
11.2566227147
  0
LINE
  5
287
100
AcDbEntity
  8
0
100
AcDbLine
 62
7
  6
CONTINUOUS
 10
16.5100320763
 20
11.558482084
 11
16.5377836377
 21
11.6482861695
  0
LINE
  5
288
100
AcDbEntity
  8
0
100
AcDbLine
 62
7
  6
CONTINUOUS
 10
16.631065238
 20
11.9501455388
 11
16.6588167994
 21
12.0399496243
  0
LINE
  5
289
100
AcDbEntity
  8
0
100
AcDbLine
 62
7
  6
CONTINUOUS
 10
16.7520983997
 20
12.3418089936
 11
16.7798499611
 21
12.4316130792
  0
LINE
  5
28A
100
AcDbEntity
  8
0
100
AcDbLine
 62
7
  6
CONTINUOUS
 10
16.8731315614
 20
12.7334724484
 11
16.9008831228
 21
12.823276534
  0
LINE
  5
28B
100
AcDbEntity
  8
0
100
AcDbLine
 62
7
  6
CONTINUOUS
 10
16.9941647231
 20
13.1251359032
 11
17.0219162845
 21
13.2149399888
  0
LINE
  5
28C
100
AcDbEntity
  8
0
100
AcDbLine
 62
7
  6
CONTINUOUS
 10
17.1151978848
 20
13.5167993581
 11
17.1429494462
 21
13.6066034436
  0
LINE
  5
28D
100
AcDbEntity
  8
0
100
AcDbLine
 62
7
  6
CONTINUOUS
 10
17.2362310465
 20
13.9084628129
 11
17.2501068267
 21
13.9533648539
  0
LINE
  5
28E
100
AcDbEntity
  8
0
100
AcDbLine
 62
7
  6
CONTINUOUS
 10
16.3410242767
 20
10.8371335553
 11
16.3687758384
 21
10.9269376419
  0
LINE
  5
28F
100
AcDbEntity
  8
0
100
AcDbLine
 62
7
  6
CONTINUOUS
 10
16.4620574384
 20
11.2287970101
 11
16.4898090001
 21
11.3186010967
  0
LINE
  5
290
100
AcDbEntity
  8
0
100
AcDbLine
 62
7
  6
CONTINUOUS
 10
16.5830906001
 20
11.6204604649
 11
16.6108421618
 21
11.7102645515
  0
LINE
  5
291
100
AcDbEntity
  8
0
100
AcDbLine
 62
7
  6
CONTINUOUS
 10
16.7041237618
 20
12.0121239197
 11
16.7318753235
 21
12.1019280063
  0
LINE
  5
292
100
AcDbEntity
  8
0
100
AcDbLine
 62
7
  6
CONTINUOUS
 10
16.8251569235
 20
12.4037873745
 11
16.8529084853
 21
12.4935914611
  0
LINE
  5
293
100
AcDbEntity
  8
0
100
AcDbLine
 62
7
  6
CONTINUOUS
 10
16.9461900852
 20
12.7954508293
 11
16.973941647
 21
12.8852549159
  0
LINE
  5
294
100
AcDbEntity
  8
0
100
AcDbLine
 62
7
  6
CONTINUOUS
 10
17.0672232469
 20
13.1871142841
 11
17.0949748087
 21
13.2769183708
  0
LINE
  5
295
100
AcDbEntity
  8
0
100
AcDbLine
 62
7
  6
CONTINUOUS
 10
17.1882564086
 20
13.578777739
 11
17.2160079704
 21
13.6685818256
  0
LINE
  5
296
100
AcDbEntity
  8
0
100
AcDbLine
 62
7
  6
CONTINUOUS
 10
17.1429491484
 20
13.6066055632
 11
17.1437935562
 21
13.6092658916
  0
LINE
  5
297
100
AcDbEntity
  8
0
100
AcDbLine
 62
7
  6
CONTINUOUS
 10
17.0219159867
 20
13.2149421084
 11
17.0227603945
 21
13.2176024368
  0
LINE
  5
298
100
AcDbEntity
  8
0
100
AcDbLine
 62
7
  6
CONTINUOUS
 10
16.900882825
 20
12.8232786536
 11
16.9017272328
 21
12.825938982
  0
LINE
  5
299
100
AcDbEntity
  8
0
100
AcDbLine
 62
7
  6
CONTINUOUS
 10
16.7798496633
 20
12.4316151988
 11
16.7806940711
 21
12.4342755272
  0
LINE
  5
29A
100
AcDbEntity
  8
0
100
AcDbLine
 62
7
  6
CONTINUOUS
 10
16.6588165016
 20
12.039951744
 11
16.6596609094
 21
12.0426120724
  0
LINE
  5
29B
100
AcDbEntity
  8
0
100
AcDbLine
 62
7
  6
CONTINUOUS
 10
16.5377833399
 20
11.6482882891
 11
16.5386277477
 21
11.6509486175
  0
LINE
  5
29C
100
AcDbEntity
  8
0
100
AcDbLine
 62
7
  6
CONTINUOUS
 10
16.4167501782
 20
11.2566248343
 11
16.417594586
 21
11.2592851627
  0
LINE
  5
29D
100
AcDbEntity
  8
0
100
AcDbLine
 62
7
  6
CONTINUOUS
 10
16.2957170165
 20
10.8649613795
 11
16.2965614243
 21
10.8676217079
  0
LINE
  5
29E
100
AcDbEntity
  8
0
100
AcDbLine
 62
7
  6
CONTINUOUS
 10
17.1870178641
 20
13.5750366092
 11
17.1882618785
 21
13.5787964891
  0
LINE
  5
29F
100
AcDbEntity
  8
0
100
AcDbLine
 62
7
  6
CONTINUOUS
 10
17.0659847024
 20
13.1833731544
 11
17.0672287168
 21
13.1871330343
  0
LINE
  5
2A0
100
AcDbEntity
  8
0
100
AcDbLine
 62
7
  6
CONTINUOUS
 10
16.9449515407
 20
12.7917096996
 11
16.9461955551
 21
12.7954695795
  0
LINE
  5
2A1
100
AcDbEntity
  8
0
100
AcDbLine
 62
7
  6
CONTINUOUS
 10
16.823918379
 20
12.4000462448
 11
16.8251623934
 21
12.4038061247
  0
LINE
  5
2A2
100
AcDbEntity
  8
0
100
AcDbLine
 62
7
  6
CONTINUOUS
 10
16.7028852173
 20
12.00838279
 11
16.7041292317
 21
12.0121426699
  0
LINE
  5
2A3
100
AcDbEntity
  8
0
100
AcDbLine
 62
7
  6
CONTINUOUS
 10
17.1437935562
 20
13.6092658916
 11
17.1466277405
 21
13.6171894468
  0
LINE
  5
2A4
100
AcDbEntity
  8
0
100
AcDbLine
 62
7
  6
CONTINUOUS
 10
17.0227603945
 20
13.2176024368
 11
17.0255945788
 21
13.225525992
  0
LINE
  5
2A5
100
AcDbEntity
  8
0
100
AcDbLine
 62
7
  6
CONTINUOUS
 10
16.9017272328
 20
12.825938982
 11
16.9045614171
 21
12.8338625372
  0
LINE
  5
2A6
100
AcDbEntity
  8
0
100
AcDbLine
 62
7
  6
CONTINUOUS
 10
16.7806940711
 20
12.4342755272
 11
16.7835282554
 21
12.4421990824
  0
LINE
  5
2A7
100
AcDbEntity
  8
0
100
AcDbLine
 62
7
  6
CONTINUOUS
 10
16.6596609094
 20
12.0426120724
 11
16.6624950937
 21
12.0505356276
  0
LINE
  5
2A8
100
AcDbEntity
  8
0
100
AcDbLine
 62
7
  6
CONTINUOUS
 10
16.5386277477
 20
11.6509486175
 11
16.541461932
 21
11.6588721728
  0
LINE
  5
2A9
100
AcDbEntity
  8
0
100
AcDbLine
 62
7
  6
CONTINUOUS
 10
16.417594586
 20
11.2592851627
 11
16.4204287703
 21
11.267208718
  0
LINE
  5
2AA
100
AcDbEntity
  8
0
100
AcDbLine
 62
7
  6
CONTINUOUS
 10
16.2965614243
 20
10.8676217079
 11
16.2993956086
 21
10.8755452632
  0
LINE
  5
2AB
100
AcDbEntity
  8
0
100
AcDbLine
 62
7
  6
CONTINUOUS
 10
17.1840804128
 20
13.5679954472
 11
17.1870178641
 21
13.5750366092
  0
LINE
  5
2AC
100
AcDbEntity
  8
0
100
AcDbLine
 62
7
  6
CONTINUOUS
 10
17.0630472511
 20
13.1763319924
 11
17.0659847024
 21
13.1833731544
  0
LINE
  5
2AD
100
AcDbEntity
  8
0
100
AcDbLine
 62
7
  6
CONTINUOUS
 10
16.9420140894
 20
12.7846685376
 11
16.9449515407
 21
12.7917096996
  0
LINE
  5
2AE
100
AcDbEntity
  8
0
100
AcDbLine
 62
7
  6
CONTINUOUS
 10
16.8209809277
 20
12.3930050828
 11
16.823918379
 21
12.4000462448
  0
LINE
  5
2AF
100
AcDbEntity
  8
0
100
AcDbLine
 62
7
  6
CONTINUOUS
 10
16.699947766
 20
12.001341628
 11
16.7028852173
 21
12.00838279
  0
LWPOLYLINE
  5
2B0
100
AcDbEntity
  8
0
100
AcDbPolyline
 62
7
  6
CONTINUOUS
 90
3
 70
0
 10
16.9045614171
 20
12.8338625372
 10
16.9069395005
 20
12.8392379196
 10
16.9078489969
 20
12.8409135624
  0
LWPOLYLINE
  5
2B1
100
AcDbEntity
  8
0
100
AcDbPolyline
 62
7
  6
CONTINUOUS
 90
3
 70
0
 10
16.7835282554
 20
12.4421990824
 10
16.7859063388
 20
12.4475744648
 10
16.7868158352
 20
12.4492501075
  0
LWPOLYLINE
  5
2B2
100
AcDbEntity
  8
0
100
AcDbPolyline
 62
7
  6
CONTINUOUS
 90
3
 70
0
 10
16.6624950937
 20
12.0505356276
 10
16.6648731771
 20
12.05591101
 10
16.6657826735
 20
12.0575866527
  0
LWPOLYLINE
  5
2B3
100
AcDbEntity
  8
0
100
AcDbPolyline
 62
7
  6
CONTINUOUS
 90
3
 70
0
 10
16.541461932
 20
11.6588721728
 10
16.5438400154
 20
11.6642475552
 10
16.5447495118
 20
11.6659231979
  0
LINE
  5
2B4
100
AcDbEntity
  8
0
100
AcDbLine
 62
7
  6
CONTINUOUS
 10
16.8595219476
 20
12.5369444508
 11
16.8592108404
 21
12.6427773798
  0
LWPOLYLINE
  5
2B5
100
AcDbEntity
  8
0
100
AcDbPolyline
 62
7
  6
CONTINUOUS
 90
6
 70
0
 10
16.8592103004
 20
12.6428020156
 10
16.8593586855
 20
12.6508075619
 10
16.8606030761
 20
12.6684789497
 10
16.8631049346
 20
12.6881589315
 10
16.8666338852
 20
12.7077529326
 10
16.8707674542
 20
12.725253866
  0
LWPOLYLINE
  5
2B6
100
AcDbEntity
  8
0
100
AcDbPolyline
 62
7
  6
CONTINUOUS
 90
6
 70
0
 10
16.9802434621
 20
13.0344654704
 10
16.9803918472
 20
13.0424710167
 10
16.9816362378
 20
13.0601424045
 10
16.9841380963
 20
13.0798223863
 10
16.9876670469
 20
13.0994163874
 10
16.9918006159
 20
13.1169173209
  0
LINE
  5
2B7
100
AcDbEntity
  8
0
100
AcDbLine
 62
7
  6
CONTINUOUS
 10
16.859228758
 20
12.5286068537
 11
16.8595215787
 21
12.5370071604
  0
LINE
  5
2B8
100
AcDbEntity
  8
0
100
AcDbLine
 62
7
  6
CONTINUOUS
 10
16.9802619197
 20
12.9202703085
 11
16.9805547404
 21
12.9286706152
  0
LWPOLYLINE
  5
2B9
100
AcDbEntity
  8
0
100
AcDbPolyline
 62
7
  6
CONTINUOUS
 90
3
 70
0
 10
16.8548196221
 20
12.5005139182
 10
16.8575935455
 20
12.5143654469
 10
16.859228758
 20
12.5286068537
  0
LWPOLYLINE
  5
2BA
100
AcDbEntity
  8
0
100
AcDbPolyline
 62
7
  6
CONTINUOUS
 90
3
 70
0
 10
16.9758527838
 20
12.892177373
 10
16.9786267072
 20
12.9060289017
 10
16.9802619197
 20
12.9202703085
  0
LWPOLYLINE
  5
2BB
100
AcDbEntity
  8
0
100
AcDbPolyline
 62
7
  6
CONTINUOUS
 90
3
 70
0
 10
17.0968859455
 20
13.2838408279
 10
17.0996598689
 20
13.2976923565
 10
17.1012950814
 20
13.3119337634
  0
LWPOLYLINE
  5
2BC
100
AcDbEntity
  8
0
100
AcDbPolyline
 62
7
  6
CONTINUOUS
 90
3
 70
0
 10
17.2179191072
 20
13.6755042827
 10
17.2206930306
 20
13.6893558114
 10
17.2223282431
 20
13.7035972182
  0
LINE
  5
2BD
100
AcDbEntity
  8
0
100
AcDbLine
 62
7
  6
CONTINUOUS
 10
16.8528978768
 20
12.4935586316
 11
16.8548196221
 21
12.5005139182
  0
LINE
  5
2BE
100
AcDbEntity
  8
0
100
AcDbLine
 62
7
  6
CONTINUOUS
 10
16.9739310385
 20
12.8852220864
 11
16.9758527838
 21
12.892177373
  0
LINE
  5
2BF
100
AcDbEntity
  8
0
100
AcDbLine
 62
7
  6
CONTINUOUS
 10
17.0949642002
 20
13.2768855412
 11
17.0968859455
 21
13.2838408279
  0
LINE
  5
2C0
100
AcDbEntity
  8
0
100
AcDbLine
 62
7
  6
CONTINUOUS
 10
17.2159973619
 20
13.668548996
 11
17.2179191072
 21
13.6755042827
  0
LINE
  5
2C1
100
AcDbEntity
  8
0
100
AcDbLine
 62
7
  6
CONTINUOUS
 10
16.5818520556
 20
11.6167193352
 11
16.58309607
 21
11.6204792151
  0
LINE
  5
2C2
100
AcDbEntity
  8
0
100
AcDbLine
 62
7
  6
CONTINUOUS
 10
16.4608188939
 20
11.2250558803
 11
16.4620629083
 21
11.2288157602
  0
LINE
  5
2C3
100
AcDbEntity
  8
0
100
AcDbLine
 62
7
  6
CONTINUOUS
 10
16.3397857322
 20
10.8333924255
 11
16.3410297466
 21
10.8371523054
  0
LINE
  5
2C4
100
AcDbEntity
  8
0
100
AcDbLine
 62
7
  6
CONTINUOUS
 10
16.5789146043
 20
11.6096781732
 11
16.5818520556
 21
11.6167193352
  0
LINE
  5
2C5
100
AcDbEntity
  8
0
100
AcDbLine
 62
7
  6
CONTINUOUS
 10
16.4578814426
 20
11.2180147184
 11
16.4608188939
 21
11.2250558803
  0
LINE
  5
2C6
100
AcDbEntity
  8
0
100
AcDbLine
 62
7
  6
CONTINUOUS
 10
16.3368482809
 20
10.8263512635
 11
16.3397857322
 21
10.8333924255
  0
LWPOLYLINE
  5
2C7
100
AcDbEntity
  8
0
100
AcDbPolyline
 62
7
  6
CONTINUOUS
 90
3
 70
0
 10
16.4204287703
 20
11.267208718
 10
16.4228068537
 20
11.2725841004
 10
16.4237163501
 20
11.2742597431
  0
LWPOLYLINE
  5
2C8
100
AcDbEntity
  8
0
100
AcDbPolyline
 62
7
  6
CONTINUOUS
 90
3
 70
0
 10
16.2993956086
 20
10.8755452632
 10
16.301773692
 20
10.8809206456
 10
16.3026831884
 20
10.8825962883
  0
LINE
  5
2C9
100
AcDbEntity
  8
0
100
AcDbLine
 62
7
  6
CONTINUOUS
 10
16.9805551093
 20
12.9286079056
 11
16.9802440021
 21
13.0344408346
  0
LINE
  5
2CA
100
AcDbEntity
  8
0
100
AcDbLine
 62
7
  6
CONTINUOUS
 10
17.101588271
 20
13.3202713604
 11
17.1012771638
 21
13.4261042894
  0
LWPOLYLINE
  5
2CB
100
AcDbEntity
  8
0
100
AcDbPolyline
 62
7
  6
CONTINUOUS
 90
6
 70
0
 10
17.1012766238
 20
13.4261289252
 10
17.1014250089
 20
13.4341344715
 10
17.1026693995
 20
13.4518058593
 10
17.105171258
 20
13.4714858411
 10
17.1087002086
 20
13.4910798423
 10
17.1128337776
 20
13.5085807757
  0
LINE
  5
2CC
100
AcDbEntity
  8
0
100
AcDbLine
 62
7
  6
CONTINUOUS
 10
17.1012950814
 20
13.3119337634
 11
17.1015879022
 21
13.32033407
  0
LINE
  5
2CD
100
AcDbEntity
  8
0
100
AcDbLine
 62
7
  6
CONTINUOUS
 10
17.2504369868
 20
13.9567239257
 11
17.2501029022
 21
13.9533660603
  0
LINE
  5
2CE
100
AcDbEntity
  8
0
100
AcDbLine
 62
7
  6
CONTINUOUS
 10
17.2226214327
 20
13.7119348152
 11
17.2223103255
 21
13.8177677442
  0
LWPOLYLINE
  5
2CF
100
AcDbEntity
  8
0
100
AcDbPolyline
 62
7
  6
CONTINUOUS
 90
6
 70
0
 10
17.2223097855
 20
13.81779238
 10
17.2224581706
 20
13.8257979263
 10
17.2237025612
 20
13.8434693141
 10
17.2262044197
 20
13.8631492959
 10
17.2297333703
 20
13.8827432971
 10
17.2338669393
 20
13.9002442305
  0
LINE
  5
2D0
100
AcDbEntity
  8
0
100
AcDbLine
 62
7
  6
CONTINUOUS
 10
17.2223282431
 20
13.7035972182
 11
17.2226210639
 21
13.7119975248
  0
LINE
  5
2D1
100
AcDbEntity
  8
0
100
AcDbLine
 62
7
  6
CONTINUOUS
 10
17.1635480112
 20
14.212912482
 11
14.6766833274
 21
14.212912482
  0
LINE
  5
2D2
100
AcDbEntity
  8
0
100
AcDbLine
 62
7
  6
CONTINUOUS
 10
17.2504369868
 20
13.9567239257
 11
17.2365794704
 21
14.1046176727
  0
LINE
  5
2D3
100
AcDbEntity
  8
0
100
AcDbLine
 62
7
  6
CONTINUOUS
 10
17.2318228452
 20
14.1207061226
 11
17.1942005827
 21
14.1973722328
  0
ARC
  5
2D4
100
AcDbEntity
  8
0
100
AcDbCircle
 62
7
  6
CONTINUOUS
 10
4.8466734418
 20
5.4374532301
 40
0.025
100
AcDbArc
 50
195.0
 51
270.0
  0
ARC
  5
2D5
100
AcDbEntity
  8
0
100
AcDbCircle
 62
7
  6
CONTINUOUS
 10
4.904371572
 20
5.2221208769
 40
0.025
100
AcDbArc
 50
195.0023254956
 51
270.0006017271
  0
ARC
  5
2D6
100
AcDbEntity
  8
0
100
AcDbCircle
 62
7
  6
CONTINUOUS
 10
4.8553672762
 20
5.6947851465
 40
0.1
100
AcDbArc
 50
180.0
 51
195.0
  0
ARC
  5
2D7
100
AcDbEntity
  8
0
100
AcDbCircle
 62
7
  6
CONTINUOUS
 10
4.7803672762
 20
5.8181198968
 40
0.025
100
AcDbArc
 50
90.0
 51
180.0
  0
ARC
  5
2D8
100
AcDbEntity
  8
0
100
AcDbCircle
 62
7
  6
CONTINUOUS
 10
7.3563627177
 20
5.2221198968
 40
0.025
100
AcDbArc
 50
270.0
 51
345.0
  0
ARC
  5
2D9
100
AcDbEntity
  8
0
100
AcDbCircle
 62
7
  6
CONTINUOUS
 10
7.4140611105
 20
5.4374532301
 40
0.025
100
AcDbArc
 50
270.0
 51
345.0
  0
ARC
  5
2DA
100
AcDbEntity
  8
0
100
AcDbCircle
 62
7
  6
CONTINUOUS
 10
7.4053672762
 20
5.6947851465
 40
0.1
100
AcDbArc
 50
345.0
 51
360.0
  0
ARC
  5
2DB
100
AcDbEntity
  8
0
100
AcDbCircle
 62
7
  6
CONTINUOUS
 10
7.4803672762
 20
5.8181198968
 40
0.025
100
AcDbArc
 50
0.0
 51
90.0
  0
ARC
  5
2DC
100
AcDbEntity
  8
0
100
AcDbCircle
 62
7
  6
CONTINUOUS
 10
13.7530330324
 20
5.1914580378
 40
0.0538333333
100
AcDbArc
 50
193.0
 51
270.0
  0
ARC
  5
2DD
100
AcDbEntity
  8
0
100
AcDbCircle
 62
7
  6
CONTINUOUS
 10
13.8676774815
 20
5.1914580378
 40
0.0538333333
100
AcDbArc
 50
270.0
 51
347.0
  0
ARC
  5
2DE
100
AcDbEntity
  8
0
100
AcDbCircle
 62
7
  6
CONTINUOUS
 10
14.2530330324
 20
5.1914580378
 40
0.0538333333
100
AcDbArc
 50
193.0
 51
270.0
  0
ARC
  5
2DF
100
AcDbEntity
  8
0
100
AcDbCircle
 62
7
  6
CONTINUOUS
 10
14.3676774815
 20
5.1914580378
 40
0.0538333333
100
AcDbArc
 50
270.0
 51
347.0
  0
ARC
  5
2E0
100
AcDbEntity
  8
0
100
AcDbCircle
 62
7
  6
CONTINUOUS
 10
14.7530330324
 20
5.1914580378
 40
0.0538333333
100
AcDbArc
 50
193.0
 51
270.0
  0
ARC
  5
2E1
100
AcDbEntity
  8
0
100
AcDbCircle
 62
7
  6
CONTINUOUS
 10
14.8676774815
 20
5.1914580378
 40
0.0538333333
100
AcDbArc
 50
270.0
 51
347.0
  0
ARC
  5
2E2
100
AcDbEntity
  8
0
100
AcDbCircle
 62
7
  6
CONTINUOUS
 10
15.2530330324
 20
5.1914580378
 40
0.0538333333
100
AcDbArc
 50
193.0
 51
270.0
  0
ARC
  5
2E3
100
AcDbEntity
  8
0
100
AcDbCircle
 62
7
  6
CONTINUOUS
 10
15.3676774815
 20
5.1914580378
 40
0.0538333333
100
AcDbArc
 50
270.0
 51
347.0
  0
ARC
  5
2E4
100
AcDbEntity
  8
0
100
AcDbCircle
 62
7
  6
CONTINUOUS
 10
13.6176774815
 20
5.2991247044
 40
0.0538333333
100
AcDbArc
 50
13.0
 51
90.0
  0
ARC
  5
2E5
100
AcDbEntity
  8
0
100
AcDbCircle
 62
7
  6
CONTINUOUS
 10
14.0030330324
 20
5.2991247044
 40
0.0538333333
100
AcDbArc
 50
90.0
 51
167.0
  0
ARC
  5
2E6
100
AcDbEntity
  8
0
100
AcDbCircle
 62
7
  6
CONTINUOUS
 10
14.1176774815
 20
5.2991247044
 40
0.0538333333
100
AcDbArc
 50
13.0
 51
90.0
  0
ARC
  5
2E7
100
AcDbEntity
  8
0
100
AcDbCircle
 62
7
  6
CONTINUOUS
 10
14.5030330324
 20
5.2991247044
 40
0.0538333333
100
AcDbArc
 50
90.0
 51
167.0
  0
ARC
  5
2E8
100
AcDbEntity
  8
0
100
AcDbCircle
 62
7
  6
CONTINUOUS
 10
14.6176774815
 20
5.2991247044
 40
0.0538333333
100
AcDbArc
 50
13.0
 51
90.0
  0
ARC
  5
2E9
100
AcDbEntity
  8
0
100
AcDbCircle
 62
7
  6
CONTINUOUS
 10
15.0030330324
 20
5.2991247044
 40
0.0538333333
100
AcDbArc
 50
90.0
 51
167.0
  0
ARC
  5
2EA
100
AcDbEntity
  8
0
100
AcDbCircle
 62
7
  6
CONTINUOUS
 10
15.1176774815
 20
5.2991247044
 40
0.0538333333
100
AcDbArc
 50
13.0
 51
90.0
  0
ARC
  5
2EB
100
AcDbEntity
  8
0
100
AcDbCircle
 62
7
  6
CONTINUOUS
 10
15.5030330324
 20
5.2991247044
 40
0.0538333333
100
AcDbArc
 50
90.0
 51
167.0
  0
ARC
  5
2EC
100
AcDbEntity
  8
0
100
AcDbCircle
 62
7
  6
CONTINUOUS
 10
17.3676774815
 20
5.1914580378
 40
0.0538333333
100
AcDbArc
 50
270.0
 51
347.0
  0
ARC
  5
2ED
100
AcDbEntity
  8
0
100
AcDbCircle
 62
7
  6
CONTINUOUS
 10
17.2530330324
 20
5.1914580378
 40
0.0538333333
100
AcDbArc
 50
193.0
 51
270.0
  0
ARC
  5
2EE
100
AcDbEntity
  8
0
100
AcDbCircle
 62
7
  6
CONTINUOUS
 10
16.8676774815
 20
5.1914580378
 40
0.0538333333
100
AcDbArc
 50
270.0
 51
347.0
  0
ARC
  5
2EF
100
AcDbEntity
  8
0
100
AcDbCircle
 62
7
  6
CONTINUOUS
 10
16.7530330324
 20
5.1914580378
 40
0.0538333333
100
AcDbArc
 50
193.0
 51
270.0
  0
ARC
  5
2F0
100
AcDbEntity
  8
0
100
AcDbCircle
 62
7
  6
CONTINUOUS
 10
16.3676774815
 20
5.1914580378
 40
0.0538333333
100
AcDbArc
 50
270.0
 51
347.0
  0
ARC
  5
2F1
100
AcDbEntity
  8
0
100
AcDbCircle
 62
7
  6
CONTINUOUS
 10
16.2530330324
 20
5.1914580378
 40
0.0538333333
100
AcDbArc
 50
193.0
 51
270.0
  0
ARC
  5
2F2
100
AcDbEntity
  8
0
100
AcDbCircle
 62
7
  6
CONTINUOUS
 10
15.8676774815
 20
5.1914580378
 40
0.0538333333
100
AcDbArc
 50
270.0
 51
347.0
  0
ARC
  5
2F3
100
AcDbEntity
  8
0
100
AcDbCircle
 62
7
  6
CONTINUOUS
 10
15.7530330324
 20
5.1914580378
 40
0.0538333333
100
AcDbArc
 50
193.0
 51
270.0
  0
ARC
  5
2F4
100
AcDbEntity
  8
0
100
AcDbCircle
 62
7
  6
CONTINUOUS
 10
17.5030330324
 20
5.2991247044
 40
0.0538333333
100
AcDbArc
 50
90.0
 51
167.0
  0
ARC
  5
2F5
100
AcDbEntity
  8
0
100
AcDbCircle
 62
7
  6
CONTINUOUS
 10
17.1176774815
 20
5.2991247044
 40
0.0538333333
100
AcDbArc
 50
13.0
 51
90.0
  0
ARC
  5
2F6
100
AcDbEntity
  8
0
100
AcDbCircle
 62
7
  6
CONTINUOUS
 10
17.0030330324
 20
5.2991247044
 40
0.0538333333
100
AcDbArc
 50
90.0
 51
167.0
  0
ARC
  5
2F7
100
AcDbEntity
  8
0
100
AcDbCircle
 62
7
  6
CONTINUOUS
 10
16.6176774815
 20
5.2991247044
 40
0.0538333333
100
AcDbArc
 50
13.0
 51
90.0
  0
ARC
  5
2F8
100
AcDbEntity
  8
0
100
AcDbCircle
 62
7
  6
CONTINUOUS
 10
16.5030330324
 20
5.2991247044
 40
0.0538333333
100
AcDbArc
 50
90.0
 51
167.0
  0
ARC
  5
2F9
100
AcDbEntity
  8
0
100
AcDbCircle
 62
7
  6
CONTINUOUS
 10
16.1176774815
 20
5.2991247044
 40
0.0538333333
100
AcDbArc
 50
13.0
 51
90.0
  0
ARC
  5
2FA
100
AcDbEntity
  8
0
100
AcDbCircle
 62
7
  6
CONTINUOUS
 10
16.0030330324
 20
5.2991247044
 40
0.0538333333
100
AcDbArc
 50
90.0
 51
167.0
  0
ARC
  5
2FB
100
AcDbEntity
  8
0
100
AcDbCircle
 62
7
  6
CONTINUOUS
 10
15.6176774815
 20
5.2991247044
 40
0.0538333333
100
AcDbArc
 50
13.0
 51
90.0
  0
SPLINE
  5
2FC
100
AcDbEntity
  8
0
100
AcDbSpline
 62
7
  6
CONTINUOUS
 70
0
 71
3
 72
15
 73
11
 74
0
 42
0.0000001
 43
0.0000001
 44
0.0000000001
 40
0.0
 40
0.0
 40
0.0
 40
0.0
 40
0.129569793
 40
0.264577668
 40
0.4012662533
 40
0.5362714839
 40
0.6662151652
 40
0.7880989574
 40
0.8998129663
 40
1.0
 40
1.0
 40
1.0
 40
1.0
 10
17.1635480112
 20
14.212912482
 30
0.0
 10
17.1650962849
 20
14.212912482
 30
0.0
 10
17.1682602584
 20
14.2126972298
 30
0.0
 10
17.172982781
 20
14.2118133655
 30
0.0
 10
17.1776390689
 20
14.2103859051
 30
0.0
 10
17.1820508989
 20
14.2084705805
 30
0.0
 10
17.186057071
 20
14.2061419278
 30
0.0
 10
17.1895091602
 20
14.2034806213
 30
0.0
 10
17.1922749853
 20
14.2005845433
 30
0.0
 10
17.1936731786
 20
14.1984469693
 30
0.0
 10
17.1942005827
 20
14.1973722328
 30
0.0
  0
SPLINE
  5
2FD
100
AcDbEntity
  8
0
100
AcDbSpline
 62
7
  6
CONTINUOUS
 70
0
 71
3
 72
15
 73
11
 74
0
 42
0.0000001
 43
0.0000001
 44
0.0000000001
 40
0.0
 40
0.0
 40
0.0
 40
0.0
 40
0.0996450325
 40
0.2028710621
 40
0.3125932895
 40
0.4308545583
 40
0.5588107256
 40
0.6968277447
 40
0.8443971425
 40
1.0
 40
1.0
 40
1.0
 40
1.0
 10
14.6604238217
 20
14.2047534293
 30
0.0
 10
14.6606139369
 20
14.2053686636
 30
0.0
 10
14.6611525867
 20
14.2065795957
 30
0.0
 10
14.6623835784
 20
14.2082005282
 30
0.0
 10
14.6640069476
 20
14.209615698
 30
0.0
 10
14.6659910782
 20
14.210799768
 30
0.0
 10
14.6682986018
 20
14.2117384052
 30
0.0
 10
14.6708902316
 20
14.2124171083
 30
0.0
 10
14.6737171338
 20
14.2128247869
 30
0.0
 10
14.675677771
 20
14.212912482
 30
0.0
 10
14.6766833274
 20
14.212912482
 30
0.0
  0
SPLINE
  5
2FE
100
AcDbEntity
  8
0
100
AcDbSpline
 62
7
  6
CONTINUOUS
 70
0
 71
3
 72
11
 73
7
 74
0
 42
0.0000001
 43
0.0000001
 44
0.0000000001
 40
0.0
 40
0.0
 40
0.0
 40
0.0
 40
0.2336912184
 40
0.4747256633
 40
0.7289541255
 40
1.0
 40
1.0
 40
1.0
 40
1.0
 10
13.692158528
 20
11.0714457908
 30
0.0
 10
13.691983674
 20
11.0708799435
 30
0.0
 10
13.6917533668
 20
11.0696877997
 30
0.0
 10
13.6917956874
 20
11.0678285242
 30
0.0
 10
13.6922134819
 20
11.0659213404
 30
0.0
 10
13.6927149398
 20
11.0646812605
 30
0.0
 10
13.6930175556
 20
11.0640645943
 30
0.0
  0
SPLINE
  5
2FF
100
AcDbEntity
  8
0
100
AcDbSpline
 62
7
  6
CONTINUOUS
 70
0
 71
3
 72
9
 73
5
 74
0
 42
0.0000001
 43
0.0000001
 44
0.0000000001
 40
0.0
 40
0.0
 40
0.0
 40
0.0
 40
0.5176005376
 40
1.0
 40
1.0
 40
1.0
 40
1.0
 10
17.2318228452
 20
14.1207061226
 30
0.0
 10
17.233103288
 20
14.1180968545
 30
0.0
 10
17.2352050339
 20
14.1128589197
 30
0.0
 10
17.2363267608
 20
14.1073147049
 30
0.0
 10
17.2365794704
 20
14.1046176727
 30
0.0
  0
SPLINE
  5
300
100
AcDbEntity
  8
0
100
AcDbSpline
 62
7
  6
CONTINUOUS
 70
0
 71
3
 72
14
 73
10
 74
0
 42
0.0000001
 43
0.0000001
 44
0.0000000001
 40
0.0
 40
0.0
 40
0.0
 40
0.0
 40
0.1556306658
 40
0.303268118
 40
0.568826556
 40
0.6871323839
 40
0.7968667035
 40
0.9001614253
 40
1.0
 40
1.0
 40
1.0
 40
1.0
 10
16.2655820586
 20
10.8118981505
 30
0.0
 10
16.2665872178
 20
10.8118981505
 30
0.0
 10
16.2685482265
 20
10.8119859753
 30
0.0
 10
16.2721860921
 20
10.8125106747
 30
0.0
 10
16.275506696
 20
10.8135547449
 30
0.0
 10
16.2782568949
 20
10.8151933867
 30
0.0
 10
16.2798807286
 20
10.816607707
 30
0.0
 10
16.2811121613
 20
10.818229125
 30
0.0
 10
16.2816504513
 20
10.8194413528
 30
0.0
 10
16.2818403205
 20
10.8200575846
 30
0.0
  0
SPLINE
  5
301
100
AcDbEntity
  8
0
100
AcDbSpline
 62
7
  6
CONTINUOUS
 70
0
 71
3
 72
15
 73
11
 74
0
 42
0.0000001
 43
0.0000001
 44
0.0000000001
 40
0.0
 40
0.0
 40
0.0
 40
0.0
 40
0.1102082503
 40
0.2287251265
 40
0.3536340164
 40
0.4829520643
 40
0.6145636634
 40
0.7462220284
 40
0.8755856933
 40
1.0
 40
1.0
 40
1.0
 40
1.0
 10
13.8729672249
 20
10.8234162872
 30
0.0
 10
13.8737225665
 20
10.8225654458
 30
0.0
 10
13.8754252223
 20
10.8209173173
 30
0.0
 10
13.8783426013
 20
10.818710348
 30
0.0
 10
13.8816536645
 20
10.8167355674
 30
0.0
 10
13.8852653919
 20
10.8150412965
 30
0.0
 10
13.8890867746
 20
10.8136734939
 30
0.0
 10
13.893018852
 20
10.812664459
 30
0.0
 10
13.8969556504
 20
10.8120471789
 30
0.0
 10
13.8995770139
 20
10.8118981505
 30
0.0
 10
13.9008614205
 20
10.8118981505
 30
0.0
  0
SPLINE
  5
302
100
AcDbEntity
  8
0
100
AcDbSpline
 62
7
  6
CONTINUOUS
 70
0
 71
3
 72
9
 73
5
 74
0
 42
0.0000001
 43
0.0000001
 44
0.0000000001
 40
0.0
 40
0.0
 40
0.0
 40
0.0
 40
0.4813567995
 40
1.0
 40
1.0
 40
1.0
 40
1.0
 10
13.730639818
 20
10.9873984841
 30
0.0
 10
13.7320219022
 20
10.9845820927
 30
0.0
 10
13.7353689275
 20
10.978958746
 30
0.0
 10
13.7394292068
 20
10.9738378787
 30
0.0
 10
13.7416733217
 20
10.9713100342
 30
0.0
  0
SPLINE
  5
303
100
AcDbEntity
  8
0
100
AcDbSpline
 62
7
  6
CONTINUOUS
 70
0
 71
3
 72
15
 73
11
 74
0
 42
0.0000001
 43
0.0000001
 44
0.0000000001
 40
0.0
 40
0.0
 40
0.0
 40
0.0
 40
0.1001870337
 40
0.2119010426
 40
0.3337848348
 40
0.4637285161
 40
0.5987337467
 40
0.735422332
 40
0.870430207
 40
1.0
 40
1.0
 40
1.0
 40
1.0
 10
16.2259352891
 20
11.0640645943
 30
0.0
 10
16.225407885
 20
11.0651393308
 30
0.0
 10
16.2240096916
 20
11.0672769048
 30
0.0
 10
16.2212438665
 20
11.0701729828
 30
0.0
 10
16.2177917773
 20
11.0728342893
 30
0.0
 10
16.2137856053
 20
11.075162942
 30
0.0
 10
16.2093737752
 20
11.0770782666
 30
0.0
 10
16.2047174874
 20
11.078505727
 30
0.0
 10
16.1999949648
 20
11.0793895912
 30
0.0
 10
16.1968309913
 20
11.0796048435
 30
0.0
 10
16.1952827176
 20
11.0796048435
 30
0.0
  0
SPLINE
  5
304
100
AcDbEntity
  8
0
100
AcDbSpline
 62
7
  6
CONTINUOUS
 70
0
 71
3
 72
15
 73
11
 74
0
 42
0.0000001
 43
0.0000001
 44
0.0000000001
 40
0.0
 40
0.0
 40
0.0
 40
0.0
 40
0.1556028575
 40
0.3031722553
 40
0.4411892744
 40
0.5691454417
 40
0.6874067105
 40
0.7971289379
 40
0.9003549675
 40
1.0
 40
1.0
 40
1.0
 40
1.0
 10
13.7084180338
 20
11.0796048435
 30
0.0
 10
13.7074124774
 20
11.0796048435
 30
0.0
 10
13.7054518402
 20
11.0795171484
 30
0.0
 10
13.702624938
 20
11.0791094698
 30
0.0
 10
13.7000333082
 20
11.0784307667
 30
0.0
 10
13.6977257845
 20
11.0774921295
 30
0.0
 10
13.695741654
 20
11.0763080594
 30
0.0
 10
13.6941182847
 20
11.0748928897
 30
0.0
 10
13.6928872931
 20
11.0732719572
 30
0.0
 10
13.6923486433
 20
11.0720610251
 30
0.0
 10
13.692158528
 20
11.0714457908
 30
0.0
  0
SPLINE
  5
305
100
AcDbEntity
  8
0
100
AcDbSpline
 62
7
  6
CONTINUOUS
 70
0
 71
3
 72
9
 73
5
 74
0
 42
0.0000001
 43
0.0000001
 44
0.0000000001
 40
0.0
 40
0.0
 40
0.0
 40
0.0
 40
0.4823994624
 40
1.0
 40
1.0
 40
1.0
 40
1.0
 10
16.2683141768
 20
10.9713100342
 30
0.0
 10
16.2680614672
 20
10.9740070664
 30
0.0
 10
16.2669397402
 20
10.9795512812
 30
0.0
 10
16.2648379943
 20
10.984789216
 30
0.0
 10
16.2635575515
 20
10.9873984841
 30
0.0
  0
ENDSEC
  0
SECTION
  2
OBJECTS
  0
DICTIONARY
  5
C
100
AcDbDictionary
280
0
281
1
  3
ACAD_GROUP
350
D
  3
ACAD_MLINESTYLE
350
17
  3
ACAD_LAYOUT
350
1A
  3
ACAD_PLOTSETTINGS
350
19
  3
ACAD_PLOTSTYLENAME
350
E
  0
DICTIONARY
  5
D
102
{ACAD_REACTORS
330
C
102
}
100
AcDbDictionary
280
0
281
1
  0
ACDBDICTIONARYWDFLT
  5
E
102
{ACAD_REACTORS
330
C
102
}
100
AcDbDictionary
281
1
  3
Normal
350
F
100
AcDbDictionaryWithDefault
340
F
  0
DICTIONARY
  5
17
102
{ACAD_REACTORS
330
C
102
}
100
AcDbDictionary
280
0
281
1
  3
Standard
350
18
  0
DICTIONARY
  5
19
102
{ACAD_REACTORS
330
C
102
}
100
AcDbDictionary
281
1
  0
DICTIONARY
  5
1A
102
{ACAD_REACTORS
330
C
102
}
100
AcDbDictionary
281
1
  3
Model
350
306
  3
Layout1
350
307
  0
ACDBPLACEHOLDER
  5
F
102
{ACAD_REACTORS
330
E
102
}
  0
MLINESTYLE
  5
18
102
{ACAD_REACTORS
330
17
102
}
100
AcDbMlineStyle
  2
STANDARD
 70
0
  3

 62
256
 51
90.0
 52
90.0
 71
2
 49
0.5
 62
256
  6
BYLAYER
 49
-0.5
 62
256
  6
BYLAYER
  0
LAYOUT
  5
306
102
{ACAD_REACTORS
330
1A
102
}
100
AcDbPlotSettings
  1

  2
none_device
  4
ANSI_C_(22.00_x_17.00_Inches)
  6

 40
0.0
 41
0.0
 42
0.0
 43
0.0
 44
558.8
 45
431.8
 46
0.0
 47
0.0
 48
0.0
 49
0.0
140
0.0
141
0.0
142
1.0
143
1.0
 70
1024
 72
0
 73
0
 74
0
  7

 75
0
147
1.0
148
0.0
149
0.0
100
AcDbLayout
  1
Model
 70
0
 71
0
 10
0.0
 20
0.0
 11
22.0
 21
17.0
 12
0.0
 22
0.0
 32
0.0
 14
0.0
 24
0.0
 34
0.0
 15
0.0
 25
0.0
 35
0.0
146
0.0
 13
0.0
 23
0.0
 33
0.0
 16
1.0
 26
0.0
 36
0.0
 17
0.0
 27
1.0
 37
0.0
 76
0
330
216
345
0
346
0
  0
LAYOUT
  5
307
102
{ACAD_REACTORS
330
1A
102
}
100
AcDbPlotSettings
  1

  2
none_device
  4
ANSI_C_(22.00_x_17.00_Inches)
  6

 40
0.0
 41
0.0
 42
0.0
 43
0.0
 44
558.8
 45
431.8
 46
0.0
 47
0.0
 48
0.0
 49
0.0
140
0.0
141
0.0
142
1.0
143
1.0
 70
0
 72
0
 73
0
 74
0
  7

 75
0
147
1.0
148
0.0
149
0.0
100
AcDbLayout
  1
Layout1
 70
0
 71
1
 10
0.0
 20
0.0
 11
22.0
 21
17.0
 12
0.0
 22
0.0
 32
0.0
 14
0.0
 24
0.0
 34
0.0
 15
0.0
 25
0.0
 35
0.0
146
0.0
 13
0.0
 23
0.0
 33
0.0
 16
1.0
 26
0.0
 36
0.0
 17
0.0
 27
1.0
 37
0.0
 76
0
330
217
345
0
346
0
  0
ENDSEC
  0
EOF