999
DXF file: _cgs_temp_output.dxf
999
Pro/ENGINEER 2016360 by Parametric Technology Corporation
  0
SECTION
  2
HEADER
  9
$ACADVER
  1
AC1021
  9
$DWGCODEPAGE
  3
ANSI_1252
  9
$EXTMAX
 10
22.0
 20
17.0
 30
0.0
  9
$EXTMIN
 10
0.0
 20
0.0
 30
0.0
  9
$LIMMIN
 10
0.0
 20
0.0
  9
$LIMMAX
 10
22.0
 20
17.0
  9
$VIEWCTR
 10
11.0
 20
8.5
  9
$VIEWSIZE
 40
17.0
  9
$CLAYER
  8
0
  9
$LTSCALE
 40
1.21
  9
$CELTYPE
  6
BYLAYER
  9
$DIMSCALE
 40
1.0
  9
$DIMASZ
 40
0.1875
  9
$DIMEXO
 40
0.0625
  9
$DIMDLI
 40
0.836
  9
$DIMEXE
 40
0.125
  9
$DIMCEN
 40
0.198
  9
$DIMLFAC
 40
1.0
  9
$DIMBLK
  1
_CLOSED
  9
$DIMALT
 70
0
  9
$DIMALTF
 40
25.4
  9
$DIMTXT
 40
0.15625
  9
$DIMTOL
 70
0
  9
$DIMLIM
 70
0
  9
$DIMTFAC
 40
1.0
  9
$DIMGAP
 40
0.09
  9
$DIMDSEP
 70
46
  9
$AUNITS
 70
0
  9
$PDMODE
 70
3
  9
$PDSIZE
 40
0.3125
  9
$HANDSEED
  5
308
  9
$TILEMODE
 70
1
  9
$MEASUREMENT
 70
0
  9
$INSUNITS
 70
1
  0
ENDSEC
  0
SECTION
  2
CLASSES
  0
CLASS
  1
ACDBDICTIONARYWDFLT
  2
AcDbDictionaryWithDefault
  3
AutoCAD 2000
 90
0
 91
1
280
0
281
0
  0
CLASS
  1
ACDBPLACEHOLDER
  2
AcDbPlaceHolder
  3
AutoCAD 2000
 90
0
 91
1
280
0
281
0
  0
CLASS
  1
LAYOUT
  2
AcDbLayout
  3
AutoCAD 2000
 90
0
 91
0
280
0
281
0
  0
ENDSEC
  0
SECTION
  2
TABLES
  0
TABLE
  2
VPORT
  5
8
100
AcDbSymbolTable
 70
2
  0
VPORT
  5
1F4
100
AcDbSymbolTableRecord
100
AcDbViewportTableRecord
  2
*ACTIVE
 70
0
 10
0.0
 20
0.0
 11
1.0
 21
1.0
 12
11.0
 22
8.5
 13
0.0
 23
0.0
 14
1.0
 24
1.0
 15
0.0
 25
0.0
 16
0.0
 26
0.0
 36
1.0
 17
0.0
 27
0.0
 37
0.0
 40
17.0
 41
1.2941176471
 42
50.0
 43
0.0
 44
0.0
 50
0.0
 51
0.0
 71
0
 72
100
 73
1
 74
1
 75
0
 76
0
 77
0
 78
0
  0
ENDTAB
  0
TABLE
  2
LTYPE
  5
5
100
AcDbSymbolTable
 70
6
  0
LTYPE
  5
14
100
AcDbSymbolTableRecord
100
AcDbLinetypeTableRecord
  2
BYBLOCK
 70
0
  3

 72
65
 73
0
 40
0.0
  0
LTYPE
  5
15
100
AcDbSymbolTableRecord
100
AcDbLinetypeTableRecord
  2
BYLAYER
 70
0
  3

 72
65
 73
0
 40
0.0
  0
LTYPE
  5
16
100
AcDbSymbolTableRecord
100
AcDbLinetypeTableRecord
  2
CONTINUOUS
 70
64
  3
Solid line
 72
65
 73
0
 40
0.0
  0
LTYPE
  5
1F5
100
AcDbSymbolTableRecord
100
AcDbLinetypeTableRecord
  2
CENTER
 70
64
  3
____ _ ____ _ ____ _ ____ _ ____ _ ____ _ ____
 72
65
 73
4
 40
0.6
 49
0.375
 74
0
 49
-0.075
 74
0
 49
0.075
 74
0
 49
-0.075
 74
0
  0
LTYPE
  5
1F6
100
AcDbSymbolTableRecord
100
AcDbLinetypeTableRecord
  2
HIDDEN
 70
64
  3
- - - - - - - - - - - - - - - - - - - -
 72
65
 73
2
 40
0.2
 49
0.1
 74
0
 49
-0.1
 74
0
  0
LTYPE
  5
1F7
100
AcDbSymbolTableRecord
100
AcDbLinetypeTableRecord
  2
PHANTOM
 70
64
  3
_____ _ _ _____ _ _ _____ _ _ _____
 72
65
 73
6
 40
0.8
 49
0.45
 74
0
 49
-0.05
 74
0
 49
0.1
 74
0
 49
-0.05
 74
0
 49
0.1
 74
0
 49
-0.05
 74
0
  0
LTYPE
  5
1F8
100
AcDbSymbolTableRecord
100
AcDbLinetypeTableRecord
  2
DOT
 70
64
  3
. . . . . . . . . . . . . . . . . . . .
 72
65
 73
2
 40
0.2
 49
0.1
 74
0
 49
-0.1
 74
0
  0
LTYPE
  5
1F9
100
AcDbSymbolTableRecord
100
AcDbLinetypeTableRecord
  2
DASHED
 70
64
  3
- - - - - - - - - - - - - - - - - - - -
 72
65
 73
2
 40
0.2
 49
0.1
 74
0
 49
-0.1
 74
0
  0
ENDTAB
  0
TABLE
  2
LAYER
  5
2
100
AcDbSymbolTable
 70
36
  0
LAYER
  5
10
100
AcDbSymbolTableRecord
100
AcDbLayerTableRecord
  2
0
 70
0
 62
7
  6
CONTINUOUS
370
-3
390
F
  0
LAYER
  5
1FA
100
AcDbSymbolTableRecord
100
AcDbLayerTableRecord
  2
DEFAULT_1
 70
0
 62
7
  6
CENTER
370
-3
390
F
  0
LAYER
  5
1FB
100
AcDbSymbolTableRecord
100
AcDbLayerTableRecord
  2
DEFAULT_2
 70
0
 62
8
  6
HIDDEN
370
-3
390
F
  0
LAYER
  5
1FC
100
AcDbSymbolTableRecord
100
AcDbLayerTableRecord
  2
DEFAULT_3
 70
0
 62
7
  6
PHANTOM
370
-3
390
F
  0
LAYER
  5
1FD
100
AcDbSymbolTableRecord
100
AcDbLayerTableRecord
  2
01_ALL_DTM_PLN
 70
0
 62
7
  6
CONTINUOUS
370
-3
390
F
  0
LAYER
  5
1FE
100
AcDbSymbolTableRecord
100
AcDbLayerTableRecord
  2
01__ASM_ALL_DTM_PLN
 70
0
 62
7
  6
CONTINUOUS
370
-3
390
F
  0
LAYER
  5
1FF
100
AcDbSymbolTableRecord
100
AcDbLayerTableRecord
  2
01__ASM_DEF_DTM_PLN
 70
0
 62
7
  6
CONTINUOUS
370
-3
390
F
  0
LAYER
  5
200
100
AcDbSymbolTableRecord
100
AcDbLayerTableRecord
  2
01___PRT_ALL_DTM_PLN
 70
0
 62
7
  6
CONTINUOUS
370
-3
390
F
  0
LAYER
  5
201
100
AcDbSymbolTableRecord
100
AcDbLayerTableRecord
  2
01___PRT_DEF_DTM_PLN
 70
0
 62
7
  6
CONTINUOUS
370
-3
390
F
  0
LAYER
  5
202
100
AcDbSymbolTableRecord
100
AcDbLayerTableRecord
  2
02_ALL_AXES
 70
0
 62
7
  6
CONTINUOUS
370
-3
390
F
  0
LAYER
  5
203
100
AcDbSymbolTableRecord
100
AcDbLayerTableRecord
  2
02__ASM_ALL_AXES
 70
0
 62
7
  6
CONTINUOUS
370
-3
390
F
  0
LAYER
  5
204
100
AcDbSymbolTableRecord
100
AcDbLayerTableRecord
  2
02___PRT_ALL_AXES
 70
0
 62
7
  6
CONTINUOUS
370
-3
390
F
  0
LAYER
  5
205
100
AcDbSymbolTableRecord
100
AcDbLayerTableRecord
  2
03_ALL_CURVES
 70
0
 62
7
  6
CONTINUOUS
370
-3
390
F
  0
LAYER
  5
206
100
AcDbSymbolTableRecord
100
AcDbLayerTableRecord
  2
03__ASM_ALL_CURVES
 70
0
 62
7
  6
CONTINUOUS
370
-3
390
F
  0
LAYER
  5
207
100
AcDbSymbolTableRecord
100
AcDbLayerTableRecord
  2
03___PRT_ALL_CURVES
 70
0
 62
7
  6
CONTINUOUS
370
-3
390
F
  0
LAYER
  5
208
100
AcDbSymbolTableRecord
100
AcDbLayerTableRecord
  2
04_ALL_DTM_PNT
 70
0
 62
7
  6
CONTINUOUS
370
-3
390
F
  0
LAYER
  5
209
100
AcDbSymbolTableRecord
100
AcDbLayerTableRecord
  2
04__ASM_ALL_DTM_PNT
 70
0
 62
7
  6
CONTINUOUS
370
-3
390
F
  0
LAYER
  5
20A
100
AcDbSymbolTableRecord
100
AcDbLayerTableRecord
  2
04___PRT_ALL_DTM_PNT
 70
0
 62
7
  6
CONTINUOUS
370
-3
390
F
  0
LAYER
  5
20B
100
AcDbSymbolTableRecord
100
AcDbLayerTableRecord
  2
05_ALL_DTM_CSYS
 70
0
 62
7
  6
CONTINUOUS
370
-3
390
F
  0
LAYER
  5
20C
100
AcDbSymbolTableRecord
100
AcDbLayerTableRecord
  2
05__ASM_ALL_DTM_CSYS
 70
0
 62
7
  6
CONTINUOUS
370
-3
390
F
  0
LAYER
  5
20D
100
AcDbSymbolTableRecord
100
AcDbLayerTableRecord
  2
05__ASM_DEF_DTM_CSYS
 70
0
 62
7
  6
CONTINUOUS
370
-3
390
F
  0
LAYER
  5
20E
100
AcDbSymbolTableRecord
100
AcDbLayerTableRecord
  2
05___PRT_ALL_DTM_CSYS
 70
0
 62
7
  6
CONTINUOUS
370
-3
390
F
  0
LAYER
  5
20F
100
AcDbSymbolTableRecord
100
AcDbLayerTableRecord
  2
05___PRT_DEF_DTM_CSYS
 70
0
 62
7
  6
CONTINUOUS
370
-3
390
F
  0
LAYER
  5
210
100
AcDbSymbolTableRecord
100
AcDbLayerTableRecord
  2
06_ALL_SURFS
 70
0
 62
7
  6
CONTINUOUS
370
-3
390
F
  0
LAYER
  5
211
100
AcDbSymbolTableRecord
100
AcDbLayerTableRecord
  2
06__ASM_ALL_SURFS
 70
0
 62
7
  6
CONTINUOUS
370
-3
390
F
  0
LAYER
  5
212
100
AcDbSymbolTableRecord
100
AcDbLayerTableRecord
  2
06___PRT_ALL_SURFS
 70
0
 62
7
  6
CONTINUOUS
370
-3
390
F
  0
LAYER
  5
213
100
AcDbSymbolTableRecord
100
AcDbLayerTableRecord
  2
07__ASM_ALL_SKELETONS
 70
0
 62
7
  6
CONTINUOUS
370
-3
390
F
  0
ENDTAB
  0
TABLE
  2
STYLE
  5
3
100
AcDbSymbolTable
 70
1
  0
STYLE
  5
11
100
AcDbSymbolTableRecord
100
AcDbTextStyleTableRecord
  2
STANDARD
 70
0
 40
0.0
 41
0.8
 50
0.0
 71
0
 42
0.2
  3
txt
  4

  0
STYLE
  5
214
100
AcDbSymbolTableRecord
100
AcDbTextStyleTableRecord
  2
TEXTSTYLE_1
 70
0
 40
0.0
 41
0.8
 50
0.0
 71
0
 42
0.2
  3
gdt
  4

  0
ENDTAB
  0
TABLE
  2
VIEW
  5
6
100
AcDbSymbolTable
 70
0
  0
ENDTAB
  0
TABLE
  2
UCS
  5
7
100
AcDbSymbolTable
 70
0
  0
ENDTAB
  0
TABLE
  2
APPID
  5
9
100
AcDbSymbolTable
 70
1
  0
APPID
  5
215
100
AcDbSymbolTableRecord
100
AcDbRegAppTableRecord
  2
ACAD
 70
0
  0
ENDTAB
  0
TABLE
  2
BLOCK_RECORD
  5
1
100
AcDbSymbolTable
 70
0
  0
BLOCK_RECORD
  5
216
100
AcDbSymbolTableRecord
100
AcDbBlockTableRecord
  2
*Model_Space
  0
BLOCK_RECORD
  5
217
100
AcDbSymbolTableRecord
100
AcDbBlockTableRecord
  2
*Paper_Space
  0
ENDTAB
  0
TABLE
  2
DIMSTYLE
  5
A
100
AcDbSymbolTable
 70
1
100
AcDbDimStyleTable
 71
0
  0
DIMSTYLE
105
218
100
AcDbSymbolTableRecord
100
AcDbDimStyleTableRecord
  2
STANDARD
 70
0
  3

  4

 40
1.0
 41
0.1875
 42
0.0625
 43
0.38
 44
0.125
 45
0.0
 46
0.0
 47
0.0001
 48
0.0001
140
0.15625
141
0.09
142
0.0
143
25.4
144
1.0
145
0.0
146
1.0
147
0.09
 71
0.0
 72
0.0
 73
1
 74
1
 75
0
 76
0
 77
0
 78
4
 79
1
170
0
171
3
172
0
173
0
174
0
175
0
176
0
177
0
178
0
270
2
179
4
271
4
272
4
273
2
274
2
275
0
280
0
281
0
282
0
283
1
284
4
285
0
286
0
287
3
288
0
340
11
278
46
  0
ENDTAB
  0
ENDSEC
  0
SECTION
  2
BLOCKS
  0
BLOCK
  5
20
100
AcDbEntity
  8
0
100
AcDbBlockBegin
  2
*Model_Space
 70
0
 10
0.0
 20
0.0
 30
0.0
  3
*Model_Space
  1

  0
ENDBLK
  5
21
100
AcDbEntity
  8
0
100
AcDbBlockEnd
  0
BLOCK
  5
1C
100
AcDbEntity
  8
0
100
AcDbBlockBegin
  2
*Paper_Space
 70
0
 10
0.0
 20
0.0
 30
0.0
  3
*Paper_Space
  1

  0
ENDBLK
  5
1D
100
AcDbEntity
  8
0
100
AcDbBlockEnd
  0
ENDSEC
  0
SECTION
  2
ENTITIES
  0
MTEXT
  5
219
100
AcDbEntity
  8
0
100
AcDbMText
 62
7
  6
CONTINUOUS
  7
STANDARD
 71
1
 72
1
 10
15.9560215477
 20
0.9479130325
 30
0.0
 11
1.0
 21
0.0
 31
0.0
 44
0.9
  1
SCALE: 1:1.000
 40
0.3
 41
3.36
  0
LINE
  5
21A
100
AcDbEntity
  8
0
100
AcDbLine
 62
7
  6
CONTINUOUS
 10
0.0
 20
0.0
 11
0.0
 21
17.0
  0
LINE
  5
21B
100
AcDbEntity
  8
0
100
AcDbLine
 62
7
  6
CONTINUOUS
 10
0.0
 20
0.0
 11
22.0
 21
0.0
  0
LINE
  5
21C
100
AcDbEntity
  8
0
100
AcDbLine
 62
7
  6
CONTINUOUS
 10
0.0
 20
17.0
 11
22.0
 21
17.0
  0
LINE
  5
21D
100
AcDbEntity
  8
0
100
AcDbLine
 62
7
  6
CONTINUOUS
 10
22.0
 20
0.0
 11
22.0
 21
17.0
  0
LINE
  5
21E
100
AcDbEntity
  8
0
100
AcDbLine
 62
7
  6
CONTINUOUS
 10
4.7553672762
 20
5.8186198968
 11
4.7553672762
 21
5.6950351465
  0
LINE
  5
21F
100
AcDbEntity
  8
0
100
AcDbLine
 62
7
  6
CONTINUOUS
 10
4.8804246508
 20
5.2151494206
 11
4.7587746935
 21
5.669153242
  0
LINE
  5
220
100
AcDbEntity
  8
0
100
AcDbLine
 62
7
  6
CONTINUOUS
 10
4.9045727965
 20
5.1966198968
 11
7.3561617558
 21
5.1966198968
  0
LINE
  5
221
100
AcDbEntity
  8
0
100
AcDbLine
 62
7
  6
CONTINUOUS
 10
4.8467850873
 20
5.4122865634
 11
7.413949465
 21
5.4122865634
  0
LINE
  5
222
100
AcDbEntity
  8
0
100
AcDbLine
 62
7
  6
CONTINUOUS
 10
7.4803672762
 20
5.8436198968
 11
4.7803672762
 21
5.8436198968
  0
LINE
  5
223
100
AcDbEntity
  8
0
100
AcDbLine
 62
7
  6
CONTINUOUS
 10
7.5053672762
 20
5.6950351465
 11
7.5053672762
 21
5.8186198968
  0
LINE
  5
224
100
AcDbEntity
  8
0
100
AcDbLine
 62
7
  6
CONTINUOUS
 10
7.3803099015
 20
5.2151494206
 11
7.5019598588
 21
5.669153242
  0
LINE
  5
225
100
AcDbEntity
  8
0
100
AcDbLine
 62
7
  6
CONTINUOUS
 10
7.4458720839
 20
10.6000477814
 11
4.6958720839
 21
10.6000477814
  0
LINE
  5
226
100
AcDbEntity
  8
0
100
AcDbLine
 62
7
  6
CONTINUOUS
 10
4.6958720839
 20
10.6000477814
 11
4.6958720839
 21
14.6000477814
  0
LINE
  5
227
100
AcDbEntity
  8
0
100
AcDbLine
 62
7
  6
CONTINUOUS
 10
7.4458720839
 20
10.6000477814
 11
7.4458720839
 21
14.6000477814
  0
LINE
  5
228
100
AcDbEntity
  8
0
100
AcDbLine
 62
7
  6
CONTINUOUS
 10
4.6958720839
 20
14.6000477814
 11
7.4458720839
 21
14.6000477814
  0
LINE
  5
229
100
AcDbEntity
  8
0
100
AcDbLine
 62
7
  6
CONTINUOUS
 10
13.5603552569
 20
5.3527913711
 11
13.5603552569
 21
5.7841247044
  0
LINE
  5
22A
100
AcDbEntity
  8
0
100
AcDbLine
 62
7
  6
CONTINUOUS
 10
13.6701075031
 20
5.3110033155
 11
13.7006030107
 21
5.1789127601
  0
LINE
  5
22B
100
AcDbEntity
  8
0
100
AcDbLine
 62
7
  6
CONTINUOUS
 10
13.9201075031
 20
5.1789127601
 11
13.9506030107
 21
5.3110033155
  0
LINE
  5
22C
100
AcDbEntity
  8
0
100
AcDbLine
 62
7
  6
CONTINUOUS
 10
14.1701075031
 20
5.3110033155
 11
14.2006030107
 21
5.1789127601
  0
LINE
  5
22D
100
AcDbEntity
  8
0
100
AcDbLine
 62
7
  6
CONTINUOUS
 10
14.4201075031
 20
5.1789127601
 11
14.4506030107
 21
5.3110033155
  0
LINE
  5
22E
100
AcDbEntity
  8
0
100
AcDbLine
 62
7
  6
CONTINUOUS
 10
14.6701075031
 20
5.3110033155
 11
14.7006030107
 21
5.1789127601
  0
LINE
  5
22F
100
AcDbEntity
  8
0
100
AcDbLine
 62
7
  6
CONTINUOUS
 10
14.9201075031
 20
5.1789127601
 11
14.9506030107
 21
5.3110033155
  0
LINE
  5
230
100
AcDbEntity
  8
0
100
AcDbLine
 62
7
  6
CONTINUOUS
 10
15.1701075031
 20
5.3110033155
 11
15.2006030107
 21
5.1789127601
  0
LINE
  5
231
100
AcDbEntity
  8
0
100
AcDbLine
 62
7
  6
CONTINUOUS
 10
13.7531377967
 20
5.1371247044
 11
13.8675727172
 21
5.1371247044
  0
LINE
  5
232
100
AcDbEntity
  8
0
100
AcDbLine
 62
7
  6
CONTINUOUS
 10
14.2531377967
 20
5.1371247044
 11
14.3675727172
 21
5.1371247044
  0
LINE
  5
233
100
AcDbEntity
  8
0
100
AcDbLine
 62
7
  6
CONTINUOUS
 10
14.7531377967
 20
5.1371247044
 11
14.8675727172
 21
5.1371247044
  0
LINE
  5
234
100
AcDbEntity
  8
0
100
AcDbLine
 62
7
  6
CONTINUOUS
 10
15.2531377967
 20
5.1371247044
 11
15.3675727172
 21
5.1371247044
  0
LINE
  5
235
100
AcDbEntity
  8
0
100
AcDbLine
 62
7
  6
CONTINUOUS
 10
15.7531377967
 20
5.1371247044
 11
15.8675727172
 21
5.1371247044
  0
LINE
  5
236
100
AcDbEntity
  8
0
100
AcDbLine
 62
7
  6
CONTINUOUS
 10
16.2531377967
 20
5.1371247044
 11
16.3675727172
 21
5.1371247044
  0
LINE
  5
237
100
AcDbEntity
  8
0
100
AcDbLine
 62
7
  6
CONTINUOUS
 10
16.7531377967
 20
5.1371247044
 11
16.8675727172
 21
5.1371247044
  0
LINE
  5
238
100
AcDbEntity
  8
0
100
AcDbLine
 62
7
  6
CONTINUOUS
 10
17.2531377967
 20
5.1371247044
 11
17.3675727172
 21
5.1371247044
  0
LINE
  5
239
100
AcDbEntity
  8
0
100
AcDbLine
 62
7
  6
CONTINUOUS
 10
15.4201075031
 20
5.1789127601
 11
15.4506030107
 21
5.3110033155
  0
LINE
  5
23A
100
AcDbEntity
  8
0
100
AcDbLine
 62
7
  6
CONTINUOUS
 10
13.5603552569
 20
5.3527913711
 11
13.6175727172
 21
5.3527913711
  0
LINE
  5
23B
100
AcDbEntity
  8
0
100
AcDbLine
 62
7
  6
CONTINUOUS
 10
14.0031377967
 20
5.3527913711
 11
14.1175727172
 21
5.3527913711
  0
LINE
  5
23C
100
AcDbEntity
  8
0
100
AcDbLine
 62
7
  6
CONTINUOUS
 10
14.5031377967
 20
5.3527913711
 11
14.6175727172
 21
5.3527913711
  0
LINE
  5
23D
100
AcDbEntity
  8
0
100
AcDbLine
 62
7
  6
CONTINUOUS
 10
15.0031377967
 20
5.3527913711
 11
15.1175727172
 21
5.3527913711
  0
LINE
  5
23E
100
AcDbEntity
  8
0
100
AcDbLine
 62
7
  6
CONTINUOUS
 10
15.5031377967
 20
5.3527913711
 11
15.6175727172
 21
5.3527913711
  0
LINE
  5
23F
100
AcDbEntity
  8
0
100
AcDbLine
 62
7
  6
CONTINUOUS
 10
16.0031377967
 20
5.3527913711
 11
16.1175727172
 21
5.3527913711
  0
LINE
  5
240
100
AcDbEntity
  8
0
100
AcDbLine
 62
7
  6
CONTINUOUS
 10
16.5031377967
 20
5.3527913711
 11
16.6175727172
 21
5.3527913711
  0
LINE
  5
241
100
AcDbEntity
  8
0
100
AcDbLine
 62
7
  6
CONTINUOUS
 10
17.0031377967
 20
5.3527913711
 11
17.1175727172
 21
5.3527913711
  0
LINE
  5
242
100
AcDbEntity
  8
0
100
AcDbLine
 62
7
  6
CONTINUOUS
 10
17.5031377967
 20
5.3527913711
 11
17.5603552569
 21
5.3527913711
  0
LINE
  5
243
100
AcDbEntity
  8
0
100
AcDbLine
 62
7
  6
CONTINUOUS
 10
15.6701075031
 20
5.3110033155
 11
15.7006030107
 21
5.1789127601
  0
LINE
  5
244
100
AcDbEntity
  8
0
100
AcDbLine
 62
7
  6
CONTINUOUS
 10
15.9201075031
 20
5.1789127601
 11
15.9506030107
 21
5.3110033155
  0
LINE
  5
245
100
AcDbEntity
  8
0
100
AcDbLine
 62
7
  6
CONTINUOUS
 10
13.5603552569
 20
5.7841247044
 11
17.5603552569
 21
5.7841247044
  0
LINE
  5
246
100
AcDbEntity
  8
0
100
AcDbLine
 62
7
  6
CONTINUOUS
 10
16.1701075031
 20
5.3110033155
 11
16.2006030107
 21
5.1789127601
  0
LINE
  5
247
100
AcDbEntity
  8
0
100
AcDbLine
 62
7
  6
CONTINUOUS
 10
16.4201075031
 20
5.1789127601
 11
16.4506030107
 21
5.3110033155
  0
LINE
  5
248
100
AcDbEntity
  8
0
100
AcDbLine
 62
7
  6
CONTINUOUS
 10
16.6701075031
 20
5.3110033155
 11
16.7006030107
 21
5.1789127601
  0
LINE
  5
249
100
AcDbEntity
  8
0
100
AcDbLine
 62
7
  6
CONTINUOUS
 10
16.9201075031
 20
5.1789127601
 11
16.9506030107
 21
5.3110033155
  0
LINE
  5
24A
100
AcDbEntity
  8
0
100
AcDbLine
 62
7
  6
CONTINUOUS
 10
17.1701075031
 20
5.3110033155
 11
17.2006030107
 21
5.1789127601
  0
LINE
  5
24B
100
AcDbEntity
  8
0
100
AcDbLine
 62
7
  6
CONTINUOUS
 10
17.5603552569
 20
5.3527913711
 11
17.5603552569
 21
5.7841247044
  0
LINE
  5
24C
100
AcDbEntity
  8
0
100
AcDbLine
 62
7
  6
CONTINUOUS
 10
17.4201075031
 20
5.1789127601
 11
17.4506030107
 21
5.3110033155
  0
LINE
  5
24D
100
AcDbEntity
  8
0
100
AcDbLine
 62
7
  6
CONTINUOUS
 10
13.7416993177
 20
10.9714399431
 11
13.873223154
 21
10.8232871919
  0
LINE
  5
24E
100
AcDbEntity
  8
0
100
AcDbLine
 62
7
  6
CONTINUOUS
 10
13.6929672911
 20
11.0643499056
 11
13.730665814
 21
10.9875283929
  0
LINE
  5
24F
100
AcDbEntity
  8
0
100
AcDbLine
 62
7
  6
CONTINUOUS
 10
14.0325160174
 20
10.8117690552
 11
14.0453085237
 21
10.8083972679
  0
LWPOLYLINE
  5
250
100
AcDbEntity
  8
0
100
AcDbPolyline
 62
7
  6
CONTINUOUS
 90
5
 70
0
 10
16.3111161379
 20
10.8083187817
 10
16.3191144411
 20
10.8095705576
 10
16.3272512549
 20
10.8138219203
 10
16.3330787957
 20
10.8197285939
 10
16.3369310305
 20
10.8260674979
  0
LINE
  5
251
100
AcDbEntity
  8
0
100
AcDbLine
 62
7
  6
CONTINUOUS
 10
14.0476496409
 20
10.8083187273
 11
16.3111136201
 21
10.8083187273
  0
LINE
  5
252
100
AcDbEntity
  8
0
100
AcDbLine
 62
7
  6
CONTINUOUS
 10
13.9011173496
 20
10.8117690552
 11
16.2656323231
 21
10.8117690552
  0
LINE
  5
253
100
AcDbEntity
  8
0
100
AcDbLine
 62
7
  6
CONTINUOUS
 10
14.0453085237
 20
10.8083972679
 11
14.0476885533
 21
10.8083188454
  0
LWPOLYLINE
  5
254
100
AcDbEntity
  8
0
100
AcDbPolyline
 62
7
  6
CONTINUOUS
 90
5
 70
0
 10
16.4321492996
 20
11.1999822365
 10
16.4401476028
 20
11.2012340124
 10
16.4482844166
 20
11.2054853751
 10
16.4541119574
 20
11.2113920488
 10
16.4579641922
 20
11.2177309527
  0
LINE
  5
255
100
AcDbEntity
  8
0
100
AcDbLine
 62
7
  6
CONTINUOUS
 10
16.1952324531
 20
11.0798901548
 11
13.7083677693
 21
11.0798901548
  0
LINE
  5
256
100
AcDbEntity
  8
0
100
AcDbLine
 62
7
  6
CONTINUOUS
 10
16.3993373855
 20
11.1999821821
 11
16.4321467818
 21
11.1999821821
  0
LINE
  5
257
100
AcDbEntity
  8
0
100
AcDbLine
 62
7
  6
CONTINUOUS
 10
13.6921082949
 20
11.0717310899
 11
14.6603735885
 21
14.2050387284
  0
LWPOLYLINE
  5
258
100
AcDbEntity
  8
0
100
AcDbPolyline
 62
7
  6
CONTINUOUS
 90
5
 70
0
 10
16.5531824613
 20
11.5916456914
 10
16.5611807646
 20
11.5928974673
 10
16.5693175783
 20
11.5971488299
 10
16.5751451191
 20
11.6030555036
 10
16.5789973539
 20
11.6093944075
  0
LINE
  5
259
100
AcDbEntity
  8
0
100
AcDbLine
 62
7
  6
CONTINUOUS
 10
16.5203705472
 20
11.5916456369
 11
16.5531799435
 21
11.5916456369
  0
LWPOLYLINE
  5
25A
100
AcDbEntity
  8
0
100
AcDbPolyline
 62
7
  6
CONTINUOUS
 90
5
 70
0
 10
16.674215623
 20
11.9833091462
 10
16.6822139263
 20
11.9845609221
 10
16.69035074
 20
11.9888122847
 10
16.6961782808
 20
11.9947189584
 10
16.7000305156
 20
12.0010578623
  0
LINE
  5
25B
100
AcDbEntity
  8
0
100
AcDbLine
 62
7
  6
CONTINUOUS
 10
16.6414037089
 20
11.9833090917
 11
16.6742131052
 21
11.9833090917
  0
LWPOLYLINE
  5
25C
100
AcDbEntity
  8
0
100
AcDbPolyline
 62
7
  6
CONTINUOUS
 90
5
 70
0
 10
16.7952487847
 20
12.374972601
 10
16.803247088
 20
12.3762243769
 10
16.8113839017
 20
12.3804757396
 10
16.8172114425
 20
12.3863824132
 10
16.8210636773
 20
12.3927213171
  0
LINE
  5
25D
100
AcDbEntity
  8
0
100
AcDbLine
 62
7
  6
CONTINUOUS
 10
16.7624368706
 20
12.3749725465
 11
16.795246267
 21
12.3749725465
  0
LWPOLYLINE
  5
25E
100
AcDbEntity
  8
0
100
AcDbPolyline
 62
7
  6
CONTINUOUS
 90
5
 70
0
 10
16.9162819464
 20
12.7666360558
 10
16.9242802497
 20
12.7678878317
 10
16.9324170634
 20
12.7721391944
 10
16.9382446042
 20
12.778045868
 10
16.942096839
 20
12.784384772
  0
LINE
  5
25F
100
AcDbEntity
  8
0
100
AcDbLine
 62
7
  6
CONTINUOUS
 10
16.2635835475
 20
10.9875283929
 11
16.2258850246
 21
11.0643499056
  0
LINE
  5
260
100
AcDbEntity
  8
0
100
AcDbLine
 62
7
  6
CONTINUOUS
 10
16.8834700323
 20
12.7666360013
 11
16.9162794287
 21
12.7666360013
  0
LWPOLYLINE
  5
261
100
AcDbEntity
  8
0
100
AcDbPolyline
 62
7
  6
CONTINUOUS
 90
5
 70
0
 10
17.0373151081
 20
13.1582995106
 10
17.0453134114
 20
13.1595512865
 10
17.0534502251
 20
13.1638026492
 10
17.059277766
 20
13.1697093228
 10
17.0631300007
 20
13.1760482268
  0
LINE
  5
262
100
AcDbEntity
  8
0
100
AcDbLine
 62
7
  6
CONTINUOUS
 10
16.2822219576
 20
10.8232871919
 11
16.2683401728
 21
10.9714399431
  0
LINE
  5
263
100
AcDbEntity
  8
0
100
AcDbLine
 62
7
  6
CONTINUOUS
 10
17.004503194
 20
13.1582994562
 11
17.0373125904
 21
13.1582994562
  0
LWPOLYLINE
  5
264
100
AcDbEntity
  8
0
100
AcDbPolyline
 62
7
  6
CONTINUOUS
 90
5
 70
0
 10
17.1583482698
 20
13.5499629654
 10
17.1663465731
 20
13.5512147413
 10
17.1744833868
 20
13.555466104
 10
17.1803109277
 20
13.5613727776
 10
17.1841631624
 20
13.5677116816
  0
LINE
  5
265
100
AcDbEntity
  8
0
100
AcDbLine
 62
7
  6
CONTINUOUS
 10
16.3754495134
 20
10.9699760206
 11
16.3751379246
 21
11.0759727776
  0
LWPOLYLINE
  5
266
100
AcDbEntity
  8
0
100
AcDbPolyline
 62
7
  6
CONTINUOUS
 90
6
 70
0
 10
16.375137385
 20
11.0759974089
 10
16.3752862168
 20
11.0840197837
 10
16.3765322433
 20
11.1017090415
 10
16.3790365257
 20
11.1214069364
 10
16.3825685869
 20
11.1410187019
 10
16.3867059438
 20
11.1585369912
  0
LINE
  5
267
100
AcDbEntity
  8
0
100
AcDbLine
 62
7
  6
CONTINUOUS
 10
16.3751552742
 20
10.9616140862
 11
16.3754491453
 21
10.9700386499
  0
LINE
  5
268
100
AcDbEntity
  8
0
100
AcDbLine
 62
7
  6
CONTINUOUS
 10
16.2818878728
 20
10.8199293266
 11
16.2822219576
 21
10.8232871919
  0
LINE
  5
269
100
AcDbEntity
  8
0
100
AcDbLine
 62
7
  6
CONTINUOUS
 10
16.4964826751
 20
11.3616394754
 11
16.4961710863
 21
11.4676362324
  0
LINE
  5
26A
100
AcDbEntity
  8
0
100
AcDbLine
 62
7
  6
CONTINUOUS
 10
16.6175158368
 20
11.7533029302
 11
16.617204248
 21
11.8592996873
  0
LWPOLYLINE
  5
26B
100
AcDbEntity
  8
0
100
AcDbPolyline
 62
7
  6
CONTINUOUS
 90
6
 70
0
 10
16.4961705467
 20
11.4676608637
 10
16.4963193786
 20
11.4756832385
 10
16.497565405
 20
11.4933724963
 10
16.5000696874
 20
11.5130703913
 10
16.5036017487
 20
11.5326821567
 10
16.5077391055
 20
11.550200446
  0
LWPOLYLINE
  5
26C
100
AcDbEntity
  8
0
100
AcDbPolyline
 62
7
  6
CONTINUOUS
 90
6
 70
0
 10
16.6172037084
 20
11.8593243185
 10
16.6173525403
 20
11.8673466933
 10
16.6185985667
 20
11.8850359511
 10
16.6211028491
 20
11.9047338461
 10
16.6246349104
 20
11.9243456115
 10
16.6287722672
 20
11.9418639008
  0
LINE
  5
26D
100
AcDbEntity
  8
0
100
AcDbLine
 62
7
  6
CONTINUOUS
 10
16.4961884359
 20
11.353277541
 11
16.496482307
 21
11.3617021047
  0
LWPOLYLINE
  5
26E
100
AcDbEntity
  8
0
100
AcDbPolyline
 62
7
  6
CONTINUOUS
 90
3
 70
0
 10
17.146657423
 20
13.6169919322
 10
17.1490381919
 20
13.6223734667
 10
17.1499495039
 20
13.6240526163
  0
LWPOLYLINE
  5
26F
100
AcDbEntity
  8
0
100
AcDbPolyline
 62
7
  6
CONTINUOUS
 90
3
 70
0
 10
17.0256242613
 20
13.2253284774
 10
17.0280050302
 20
13.2307100119
 10
17.0289163422
 20
13.2323891615
  0
LINE
  5
270
100
AcDbEntity
  8
0
100
AcDbLine
 62
7
  6
CONTINUOUS
 10
17.1255363557
 20
13.549962911
 11
17.1583457521
 21
13.549962911
  0
LINE
  5
271
100
AcDbEntity
  8
0
100
AcDbLine
 62
7
  6
CONTINUOUS
 10
16.7385489985
 20
12.144966385
 11
16.7382374097
 21
12.2509631421
  0
LWPOLYLINE
  5
272
100
AcDbEntity
  8
0
100
AcDbPolyline
 62
7
  6
CONTINUOUS
 90
6
 70
0
 10
16.7382368701
 20
12.2509877733
 10
16.738385702
 20
12.2590101481
 10
16.7396317284
 20
12.2766994059
 10
16.7421360108
 20
12.2963973009
 10
16.7456680721
 20
12.3160090663
 10
16.7498054289
 20
12.3335273556
  0
LINE
  5
273
100
AcDbEntity
  8
0
100
AcDbLine
 62
7
  6
CONTINUOUS
 10
16.6172215976
 20
11.7449409958
 11
16.6175154687
 21
11.7533655595
  0
LINE
  5
274
100
AcDbEntity
  8
0
100
AcDbLine
 62
7
  6
CONTINUOUS
 10
16.7382547594
 20
12.1366044506
 11
16.7385486304
 21
12.1450290144
  0
LWPOLYLINE
  5
275
100
AcDbEntity
  8
0
100
AcDbPolyline
 62
7
  6
CONTINUOUS
 90
3
 70
0
 10
16.3707372239
 20
10.9334638907
 10
16.3735164992
 20
10.9473437311
 10
16.3751552742
 20
10.9616140862
  0
LWPOLYLINE
  5
276
100
AcDbEntity
  8
0
100
AcDbPolyline
 62
7
  6
CONTINUOUS
 90
3
 70
0
 10
16.4917703857
 20
11.3251273455
 10
16.4945496609
 20
11.339007186
 10
16.4961884359
 20
11.353277541
  0
LWPOLYLINE
  5
277
100
AcDbEntity
  8
0
100
AcDbPolyline
 62
7
  6
CONTINUOUS
 90
3
 70
0
 10
16.6128035474
 20
11.7167908003
 10
16.6155828226
 20
11.7306706408
 10
16.6172215976
 20
11.7449409958
  0
LWPOLYLINE
  5
278
100
AcDbEntity
  8
0
100
AcDbPolyline
 62
7
  6
CONTINUOUS
 90
3
 70
0
 10
16.7338367091
 20
12.1084542551
 10
16.7366159843
 20
12.1223340956
 10
16.7382547594
 20
12.1366044506
  0
LINE
  5
279
100
AcDbEntity
  8
0
100
AcDbLine
 62
7
  6
CONTINUOUS
 10
16.3688095603
 20
10.9264864877
 11
16.3707372239
 21
10.9334638907
  0
LINE
  5
27A
100
AcDbEntity
  8
0
100
AcDbLine
 62
7
  6
CONTINUOUS
 10
16.489842722
 20
11.3181499425
 11
16.4917703857
 21
11.3251273455
  0
LINE
  5
27B
100
AcDbEntity
  8
0
100
AcDbLine
 62
7
  6
CONTINUOUS
 10
16.6108758837
 20
11.7098133973
 11
16.6128035474
 21
11.7167908003
  0
LINE
  5
27C
100
AcDbEntity
  8
0
100
AcDbLine
 62
7
  6
CONTINUOUS
 10
16.7319090454
 20
12.1014768522
 11
16.7338367091
 21
12.1084542551
  0
LINE
  5
27D
100
AcDbEntity
  8
0
100
AcDbLine
 62
7
  6
CONTINUOUS
 10
16.3867059438
 20
11.1585369912
 11
16.3890690699
 21
11.1667580688
  0
LINE
  5
27E
100
AcDbEntity
  8
0
100
AcDbLine
 62
7
  6
CONTINUOUS
 10
16.5077391055
 20
11.550200446
 11
16.5101022316
 21
11.5584215236
  0
LINE
  5
27F
100
AcDbEntity
  8
0
100
AcDbLine
 62
7
  6
CONTINUOUS
 10
16.6287722672
 20
11.9418639008
 11
16.6311353933
 21
11.9500849784
  0
LINE
  5
280
100
AcDbEntity
  8
0
100
AcDbLine
 62
7
  6
CONTINUOUS
 10
16.7498054289
 20
12.3335273556
 11
16.752168555
 21
12.3417484332
  0
LINE
  5
281
100
AcDbEntity
  8
0
100
AcDbLine
 62
7
  6
CONTINUOUS
 10
16.8708385906
 20
12.7251908104
 11
16.8732017167
 21
12.733411888
  0
LINE
  5
282
100
AcDbEntity
  8
0
100
AcDbLine
 62
7
  6
CONTINUOUS
 10
16.9918717523
 20
13.1168542652
 11
16.9942348784
 21
13.1250753429
  0
LINE
  5
283
100
AcDbEntity
  8
0
100
AcDbLine
 62
7
  6
CONTINUOUS
 10
17.112904914
 20
13.50851772
 11
17.1152680401
 21
13.5167387977
  0
LINE
  5
284
100
AcDbEntity
  8
0
100
AcDbLine
 62
7
  6
CONTINUOUS
 10
17.2339380757
 20
13.9001811748
 11
17.2363012018
 21
13.9084022525
  0
LINE
  5
285
100
AcDbEntity
  8
0
100
AcDbLine
 62
7
  6
CONTINUOUS
 10
16.2828681234
 20
10.8230875116
 11
16.2957422188
 21
10.8647480999
  0
LINE
  5
286
100
AcDbEntity
  8
0
100
AcDbLine
 62
7
  6
CONTINUOUS
 10
16.389074539
 20
11.1667715986
 11
16.4167753806
 21
11.2564115547
  0
LINE
  5
287
100
AcDbEntity
  8
0
100
AcDbLine
 62
7
  6
CONTINUOUS
 10
16.5101077007
 20
11.5584350534
 11
16.5378085423
 21
11.6480750095
  0
LINE
  5
288
100
AcDbEntity
  8
0
100
AcDbLine
 62
7
  6
CONTINUOUS
 10
16.6311408624
 20
11.9500985083
 11
16.658841704
 21
12.0397384643
  0
LINE
  5
289
100
AcDbEntity
  8
0
100
AcDbLine
 62
7
  6
CONTINUOUS
 10
16.7521740241
 20
12.3417619631
 11
16.7798748657
 21
12.4314019191
  0
LINE
  5
28A
100
AcDbEntity
  8
0
100
AcDbLine
 62
7
  6
CONTINUOUS
 10
16.8732071858
 20
12.7334254179
 11
16.9009080274
 21
12.8230653739
  0
LINE
  5
28B
100
AcDbEntity
  8
0
100
AcDbLine
 62
7
  6
CONTINUOUS
 10
16.9942403475
 20
13.1250888727
 11
17.0219411891
 21
13.2147288287
  0
LINE
  5
28C
100
AcDbEntity
  8
0
100
AcDbLine
 62
7
  6
CONTINUOUS
 10
17.1152735092
 20
13.5167523275
 11
17.1429743508
 21
13.6063922836
  0
LINE
  5
28D
100
AcDbEntity
  8
0
100
AcDbLine
 62
7
  6
CONTINUOUS
 10
17.2363066709
 20
13.9084157823
 11
17.2501570912
 21
13.9532357586
  0
LINE
  5
28E
100
AcDbEntity
  8
0
100
AcDbLine
 62
7
  6
CONTINUOUS
 10
16.3411193159
 20
10.8368793214
 11
16.3688201577
 21
10.9265192785
  0
LINE
  5
28F
100
AcDbEntity
  8
0
100
AcDbLine
 62
7
  6
CONTINUOUS
 10
16.4621524776
 20
11.2285427762
 11
16.4898533195
 21
11.3181827333
  0
LINE
  5
290
100
AcDbEntity
  8
0
100
AcDbLine
 62
7
  6
CONTINUOUS
 10
16.5831856393
 20
11.620206231
 11
16.6108864812
 21
11.7098461881
  0
LINE
  5
291
100
AcDbEntity
  8
0
100
AcDbLine
 62
7
  6
CONTINUOUS
 10
16.704218801
 20
12.0118696858
 11
16.7319196429
 21
12.1015096429
  0
LINE
  5
292
100
AcDbEntity
  8
0
100
AcDbLine
 62
7
  6
CONTINUOUS
 10
16.8252519627
 20
12.4035331406
 11
16.8529528046
 21
12.4931730978
  0
LINE
  5
293
100
AcDbEntity
  8
0
100
AcDbLine
 62
7
  6
CONTINUOUS
 10
16.9462851244
 20
12.7951965955
 11
16.9739859663
 21
12.8848365526
  0
LINE
  5
294
100
AcDbEntity
  8
0
100
AcDbLine
 62
7
  6
CONTINUOUS
 10
17.0673182861
 20
13.1868600503
 11
17.095019128
 21
13.2765000074
  0
LINE
  5
295
100
AcDbEntity
  8
0
100
AcDbLine
 62
7
  6
CONTINUOUS
 10
17.1883514478
 20
13.5785235051
 11
17.2160522897
 21
13.6681634622
  0
LINE
  5
296
100
AcDbEntity
  8
0
100
AcDbLine
 62
7
  6
CONTINUOUS
 10
17.1429740529
 20
13.6063944057
 11
17.1438208369
 21
13.6090621144
  0
LINE
  5
297
100
AcDbEntity
  8
0
100
AcDbLine
 62
7
  6
CONTINUOUS
 10
17.0219408912
 20
13.2147309509
 11
17.0227876752
 21
13.2173986596
  0
LINE
  5
298
100
AcDbEntity
  8
0
100
AcDbLine
 62
7
  6
CONTINUOUS
 10
16.9009077295
 20
12.8230674961
 11
16.9017545135
 21
12.8257352047
  0
LINE
  5
299
100
AcDbEntity
  8
0
100
AcDbLine
 62
7
  6
CONTINUOUS
 10
16.7798745678
 20
12.4314040413
 11
16.7807213518
 21
12.4340717499
  0
LINE
  5
29A
100
AcDbEntity
  8
0
100
AcDbLine
 62
7
  6
CONTINUOUS
 10
16.6588414061
 20
12.0397405865
 11
16.6596881901
 21
12.0424082951
  0
LINE
  5
29B
100
AcDbEntity
  8
0
100
AcDbLine
 62
7
  6
CONTINUOUS
 10
16.5378082444
 20
11.6480771317
 11
16.5386550284
 21
11.6507448403
  0
LINE
  5
29C
100
AcDbEntity
  8
0
100
AcDbLine
 62
7
  6
CONTINUOUS
 10
16.4167750827
 20
11.2564136769
 11
16.4176218667
 21
11.2590813855
  0
LINE
  5
29D
100
AcDbEntity
  8
0
100
AcDbLine
 62
7
  6
CONTINUOUS
 10
16.295741921
 20
10.864750222
 11
16.296588705
 21
10.8674179307
  0
LINE
  5
29E
100
AcDbEntity
  8
0
100
AcDbLine
 62
7
  6
CONTINUOUS
 10
17.1871058336
 20
13.5747619265
 11
17.1883569002
 21
13.5785422051
  0
LINE
  5
29F
100
AcDbEntity
  8
0
100
AcDbLine
 62
7
  6
CONTINUOUS
 10
17.0660726719
 20
13.1830984717
 11
17.0673237385
 21
13.1868787503
  0
LINE
  5
2A0
100
AcDbEntity
  8
0
100
AcDbLine
 62
7
  6
CONTINUOUS
 10
16.9450395102
 20
12.7914350169
 11
16.9462905768
 21
12.7952152954
  0
LINE
  5
2A1
100
AcDbEntity
  8
0
100
AcDbLine
 62
7
  6
CONTINUOUS
 10
16.8240063485
 20
12.3997715621
 11
16.8252574151
 21
12.4035518406
  0
LINE
  5
2A2
100
AcDbEntity
  8
0
100
AcDbLine
 62
7
  6
CONTINUOUS
 10
16.7029731868
 20
12.0081081073
 11
16.7042242534
 21
12.0118883858
  0
LINE
  5
2A3
100
AcDbEntity
  8
0
100
AcDbLine
 62
7
  6
CONTINUOUS
 10
17.1438208369
 20
13.6090621144
 11
17.146657423
 21
13.6169919322
  0
LINE
  5
2A4
100
AcDbEntity
  8
0
100
AcDbLine
 62
7
  6
CONTINUOUS
 10
17.0227876752
 20
13.2173986596
 11
17.0256242613
 21
13.2253284774
  0
LINE
  5
2A5
100
AcDbEntity
  8
0
100
AcDbLine
 62
7
  6
CONTINUOUS
 10
16.9017545135
 20
12.8257352047
 11
16.9045910996
 21
12.8336650226
  0
LINE
  5
2A6
100
AcDbEntity
  8
0
100
AcDbLine
 62
7
  6
CONTINUOUS
 10
16.7807213518
 20
12.4340717499
 11
16.7835579379
 21
12.4420015678
  0
LINE
  5
2A7
100
AcDbEntity
  8
0
100
AcDbLine
 62
7
  6
CONTINUOUS
 10
16.6596881901
 20
12.0424082951
 11
16.6625247762
 21
12.0503381129
  0
LINE
  5
2A8
100
AcDbEntity
  8
0
100
AcDbLine
 62
7
  6
CONTINUOUS
 10
16.5386550284
 20
11.6507448403
 11
16.5414916145
 21
11.6586746581
  0
LINE
  5
2A9
100
AcDbEntity
  8
0
100
AcDbLine
 62
7
  6
CONTINUOUS
 10
16.4176218667
 20
11.2590813855
 11
16.4204584528
 21
11.2670112033
  0
LINE
  5
2AA
100
AcDbEntity
  8
0
100
AcDbLine
 62
7
  6
CONTINUOUS
 10
16.296588705
 20
10.8674179307
 11
16.2994252911
 21
10.8753477485
  0
LINE
  5
2AB
100
AcDbEntity
  8
0
100
AcDbLine
 62
7
  6
CONTINUOUS
 10
17.1841631624
 20
13.5677116816
 11
17.1871058336
 21
13.5747619265
  0
LINE
  5
2AC
100
AcDbEntity
  8
0
100
AcDbLine
 62
7
  6
CONTINUOUS
 10
17.0631300007
 20
13.1760482268
 11
17.0660726719
 21
13.1830984717
  0
LINE
  5
2AD
100
AcDbEntity
  8
0
100
AcDbLine
 62
7
  6
CONTINUOUS
 10
16.942096839
 20
12.784384772
 11
16.9450395102
 21
12.7914350169
  0
LINE
  5
2AE
100
AcDbEntity
  8
0
100
AcDbLine
 62
7
  6
CONTINUOUS
 10
16.8210636773
 20
12.3927213171
 11
16.8240063485
 21
12.3997715621
  0
LINE
  5
2AF
100
AcDbEntity
  8
0
100
AcDbLine
 62
7
  6
CONTINUOUS
 10
16.7000305156
 20
12.0010578623
 11
16.7029731868
 21
12.0081081073
  0
LWPOLYLINE
  5
2B0
100
AcDbEntity
  8
0
100
AcDbPolyline
 62
7
  6
CONTINUOUS
 90
3
 70
0
 10
16.9045910996
 20
12.8336650226
 10
16.9069718685
 20
12.839046557
 10
16.9078831805
 20
12.8407257066
  0
LWPOLYLINE
  5
2B1
100
AcDbEntity
  8
0
100
AcDbPolyline
 62
7
  6
CONTINUOUS
 90
3
 70
0
 10
16.7835579379
 20
12.4420015678
 10
16.7859387068
 20
12.4473831022
 10
16.7868500188
 20
12.4490622518
  0
LWPOLYLINE
  5
2B2
100
AcDbEntity
  8
0
100
AcDbPolyline
 62
7
  6
CONTINUOUS
 90
3
 70
0
 10
16.6625247762
 20
12.0503381129
 10
16.6649055451
 20
12.0557196474
 10
16.6658168571
 20
12.057398797
  0
LWPOLYLINE
  5
2B3
100
AcDbEntity
  8
0
100
AcDbPolyline
 62
7
  6
CONTINUOUS
 90
3
 70
0
 10
16.5414916145
 20
11.6586746581
 10
16.5438723834
 20
11.6640561926
 10
16.5447836954
 20
11.6657353422
  0
LINE
  5
2B4
100
AcDbEntity
  8
0
100
AcDbLine
 62
7
  6
CONTINUOUS
 10
16.8595821602
 20
12.5366298398
 11
16.8592705714
 21
12.6426265969
  0
LWPOLYLINE
  5
2B5
100
AcDbEntity
  8
0
100
AcDbPolyline
 62
7
  6
CONTINUOUS
 90
6
 70
0
 10
16.8592700318
 20
12.6426512281
 10
16.8594188637
 20
12.6506736029
 10
16.8606648901
 20
12.6683628608
 10
16.8631691725
 20
12.6880607557
 10
16.8667012338
 20
12.7076725211
 10
16.8708385906
 20
12.7251908104
  0
LWPOLYLINE
  5
2B6
100
AcDbEntity
  8
0
100
AcDbPolyline
 62
7
  6
CONTINUOUS
 90
6
 70
0
 10
16.9803031936
 20
13.034314683
 10
16.9804520254
 20
13.0423370578
 10
16.9816980518
 20
13.0600263156
 10
16.9842023342
 20
13.0797242105
 10
16.9877343955
 20
13.099335976
 10
16.9918717523
 20
13.1168542652
  0
LINE
  5
2B7
100
AcDbEntity
  8
0
100
AcDbLine
 62
7
  6
CONTINUOUS
 10
16.8592879211
 20
12.5282679054
 11
16.8595817921
 21
12.5366924692
  0
LINE
  5
2B8
100
AcDbEntity
  8
0
100
AcDbLine
 62
7
  6
CONTINUOUS
 10
16.9803210828
 20
12.9199313602
 11
16.9806149538
 21
12.928355924
  0
LWPOLYLINE
  5
2B9
100
AcDbEntity
  8
0
100
AcDbPolyline
 62
7
  6
CONTINUOUS
 90
3
 70
0
 10
16.8548698708
 20
12.5001177099
 10
16.857649146
 20
12.5139975504
 10
16.8592879211
 20
12.5282679054
  0
LWPOLYLINE
  5
2BA
100
AcDbEntity
  8
0
100
AcDbPolyline
 62
7
  6
CONTINUOUS
 90
3
 70
0
 10
16.9759030325
 20
12.8917811647
 10
16.9786823077
 20
12.9056610052
 10
16.9803210828
 20
12.9199313602
  0
LWPOLYLINE
  5
2BB
100
AcDbEntity
  8
0
100
AcDbPolyline
 62
7
  6
CONTINUOUS
 90
3
 70
0
 10
17.0969361942
 20
13.2834446195
 10
17.0997154694
 20
13.29732446
 10
17.1013542445
 20
13.311594815
  0
LWPOLYLINE
  5
2BC
100
AcDbEntity
  8
0
100
AcDbPolyline
 62
7
  6
CONTINUOUS
 90
3
 70
0
 10
17.2179693559
 20
13.6751080744
 10
17.2207486311
 20
13.6889879148
 10
17.2223874062
 20
13.7032582699
  0
LINE
  5
2BD
100
AcDbEntity
  8
0
100
AcDbLine
 62
7
  6
CONTINUOUS
 10
16.8529422071
 20
12.493140307
 11
16.8548698708
 21
12.5001177099
  0
LINE
  5
2BE
100
AcDbEntity
  8
0
100
AcDbLine
 62
7
  6
CONTINUOUS
 10
16.9739753688
 20
12.8848037618
 11
16.9759030325
 21
12.8917811647
  0
LINE
  5
2BF
100
AcDbEntity
  8
0
100
AcDbLine
 62
7
  6
CONTINUOUS
 10
17.0950085305
 20
13.2764672166
 11
17.0969361942
 21
13.2834446195
  0
LINE
  5
2C0
100
AcDbEntity
  8
0
100
AcDbLine
 62
7
  6
CONTINUOUS
 10
17.2160416922
 20
13.6681306714
 11
17.2179693559
 21
13.6751080744
  0
LINE
  5
2C1
100
AcDbEntity
  8
0
100
AcDbLine
 62
7
  6
CONTINUOUS
 10
16.5819400251
 20
11.6164446525
 11
16.5831910917
 21
11.620224931
  0
LINE
  5
2C2
100
AcDbEntity
  8
0
100
AcDbLine
 62
7
  6
CONTINUOUS
 10
16.4609068634
 20
11.2247811976
 11
16.46215793
 21
11.2285614762
  0
LINE
  5
2C3
100
AcDbEntity
  8
0
100
AcDbLine
 62
7
  6
CONTINUOUS
 10
16.3398737017
 20
10.8331177428
 11
16.3411247683
 21
10.8368980214
  0
LINE
  5
2C4
100
AcDbEntity
  8
0
100
AcDbLine
 62
7
  6
CONTINUOUS
 10
16.5789973539
 20
11.6093944075
 11
16.5819400251
 21
11.6164446525
  0
LINE
  5
2C5
100
AcDbEntity
  8
0
100
AcDbLine
 62
7
  6
CONTINUOUS
 10
16.4579641922
 20
11.2177309527
 11
16.4609068634
 21
11.2247811976
  0
LINE
  5
2C6
100
AcDbEntity
  8
0
100
AcDbLine
 62
7
  6
CONTINUOUS
 10
16.3369310305
 20
10.8260674979
 11
16.3398737017
 21
10.8331177428
  0
LWPOLYLINE
  5
2C7
100
AcDbEntity
  8
0
100
AcDbPolyline
 62
7
  6
CONTINUOUS
 90
3
 70
0
 10
16.4204584528
 20
11.2670112033
 10
16.4228392217
 20
11.2723927378
 10
16.4237505337
 20
11.2740718874
  0
LWPOLYLINE
  5
2C8
100
AcDbEntity
  8
0
100
AcDbPolyline
 62
7
  6
CONTINUOUS
 90
3
 70
0
 10
16.2994252911
 20
10.8753477485
 10
16.30180606
 20
10.880729283
 10
16.302717372
 20
10.8824084326
  0
LINE
  5
2C9
100
AcDbEntity
  8
0
100
AcDbLine
 62
7
  6
CONTINUOUS
 10
16.9806153219
 20
12.9282932946
 11
16.9803037331
 21
13.0342900517
  0
LINE
  5
2CA
100
AcDbEntity
  8
0
100
AcDbLine
 62
7
  6
CONTINUOUS
 10
17.1016484836
 20
13.3199567495
 11
17.1013368948
 21
13.4259535065
  0
LWPOLYLINE
  5
2CB
100
AcDbEntity
  8
0
100
AcDbPolyline
 62
7
  6
CONTINUOUS
 90
6
 70
0
 10
17.1013363553
 20
13.4259781378
 10
17.1014851871
 20
13.4340005126
 10
17.1027312135
 20
13.4516897704
 10
17.1052354959
 20
13.4713876653
 10
17.1087675572
 20
13.4909994308
 10
17.112904914
 20
13.50851772
  0
LINE
  5
2CC
100
AcDbEntity
  8
0
100
AcDbLine
 62
7
  6
CONTINUOUS
 10
17.1013542445
 20
13.311594815
 11
17.1016481155
 21
13.3200193788
  0
LINE
  5
2CD
100
AcDbEntity
  8
0
100
AcDbLine
 62
7
  6
CONTINUOUS
 10
17.2504872512
 20
13.9565948304
 11
17.2501531664
 21
13.9532369651
  0
LINE
  5
2CE
100
AcDbEntity
  8
0
100
AcDbLine
 62
7
  6
CONTINUOUS
 10
17.2226816453
 20
13.7116202043
 11
17.2223700565
 21
13.8176169613
  0
LWPOLYLINE
  5
2CF
100
AcDbEntity
  8
0
100
AcDbPolyline
 62
7
  6
CONTINUOUS
 90
6
 70
0
 10
17.222369517
 20
13.8176415926
 10
17.2225183488
 20
13.8256639674
 10
17.2237643752
 20
13.8433532252
 10
17.2262686576
 20
13.8630511201
 10
17.2298007189
 20
13.8826628856
 10
17.2339380757
 20
13.9001811748
  0
LINE
  5
2D0
100
AcDbEntity
  8
0
100
AcDbLine
 62
7
  6
CONTINUOUS
 10
17.2223874062
 20
13.7032582699
 11
17.2226812772
 21
13.7116828336
  0
LINE
  5
2D1
100
AcDbEntity
  8
0
100
AcDbLine
 62
7
  6
CONTINUOUS
 10
17.1634977468
 20
14.2131977933
 11
14.6766330629
 21
14.2131977933
  0
LINE
  5
2D2
100
AcDbEntity
  8
0
100
AcDbLine
 62
7
  6
CONTINUOUS
 10
17.2504872512
 20
13.9565948304
 11
17.2366054664
 21
14.1047475816
  0
LINE
  5
2D3
100
AcDbEntity
  8
0
100
AcDbLine
 62
7
  6
CONTINUOUS
 10
17.2318488412
 20
14.1208360315
 11
17.1941503183
 21
14.1976575441
  0
ARC
  5
2D4
100
AcDbEntity
  8
0
100
AcDbCircle
 62
7
  6
CONTINUOUS
 10
4.8467850873
 20
5.4372865634
 40
0.025
100
AcDbArc
 50
195.0
 51
270.0
  0
ARC
  5
2D5
100
AcDbEntity
  8
0
100
AcDbCircle
 62
7
  6
CONTINUOUS
 10
4.9045725319
 20
5.2216208842
 40
0.025
100
AcDbArc
 50
195.0023429321
 51
270.0006062381
  0
ARC
  5
2D6
100
AcDbEntity
  8
0
100
AcDbCircle
 62
7
  6
CONTINUOUS
 10
4.8553672762
 20
5.6950351465
 40
0.1
100
AcDbArc
 50
180.0
 51
195.0
  0
ARC
  5
2D7
100
AcDbEntity
  8
0
100
AcDbCircle
 62
7
  6
CONTINUOUS
 10
4.7803672762
 20
5.8186198968
 40
0.025
100
AcDbArc
 50
90.0
 51
180.0
  0
ARC
  5
2D8
100
AcDbEntity
  8
0
100
AcDbCircle
 62
7
  6
CONTINUOUS
 10
7.3561617558
 20
5.2216198968
 40
0.025
100
AcDbArc
 50
270.0
 51
345.0
  0
ARC
  5
2D9
100
AcDbEntity
  8
0
100
AcDbCircle
 62
7
  6
CONTINUOUS
 10
7.413949465
 20
5.4372865634
 40
0.025
100
AcDbArc
 50
270.0
 51
345.0
  0
ARC
  5
2DA
100
AcDbEntity
  8
0
100
AcDbCircle
 62
7
  6
CONTINUOUS
 10
7.4053672762
 20
5.6950351465
 40
0.1
100
AcDbArc
 50
345.0
 51
360.0
  0
ARC
  5
2DB
100
AcDbEntity
  8
0
100
AcDbCircle
 62
7
  6
CONTINUOUS
 10
7.4803672762
 20
5.8186198968
 40
0.025
100
AcDbArc
 50
0.0
 51
90.0
  0
ARC
  5
2DC
100
AcDbEntity
  8
0
100
AcDbCircle
 62
7
  6
CONTINUOUS
 10
13.7531377967
 20
5.1910413711
 40
0.0539166667
100
AcDbArc
 50
193.0
 51
270.0
  0
ARC
  5
2DD
100
AcDbEntity
  8
0
100
AcDbCircle
 62
7
  6
CONTINUOUS
 10
13.8675727172
 20
5.1910413711
 40
0.0539166667
100
AcDbArc
 50
270.0
 51
347.0
  0
ARC
  5
2DE
100
AcDbEntity
  8
0
100
AcDbCircle
 62
7
  6
CONTINUOUS
 10
14.2531377967
 20
5.1910413711
 40
0.0539166667
100
AcDbArc
 50
193.0
 51
270.0
  0
ARC
  5
2DF
100
AcDbEntity
  8
0
100
AcDbCircle
 62
7
  6
CONTINUOUS
 10
14.3675727172
 20
5.1910413711
 40
0.0539166667
100
AcDbArc
 50
270.0
 51
347.0
  0
ARC
  5
2E0
100
AcDbEntity
  8
0
100
AcDbCircle
 62
7
  6
CONTINUOUS
 10
14.7531377967
 20
5.1910413711
 40
0.0539166667
100
AcDbArc
 50
193.0
 51
270.0
  0
ARC
  5
2E1
100
AcDbEntity
  8
0
100
AcDbCircle
 62
7
  6
CONTINUOUS
 10
14.8675727172
 20
5.1910413711
 40
0.0539166667
100
AcDbArc
 50
270.0
 51
347.0
  0
ARC
  5
2E2
100
AcDbEntity
  8
0
100
AcDbCircle
 62
7
  6
CONTINUOUS
 10
15.2531377967
 20
5.1910413711
 40
0.0539166667
100
AcDbArc
 50
193.0
 51
270.0
  0
ARC
  5
2E3
100
AcDbEntity
  8
0
100
AcDbCircle
 62
7
  6
CONTINUOUS
 10
15.3675727172
 20
5.1910413711
 40
0.0539166667
100
AcDbArc
 50
270.0
 51
347.0
  0
ARC
  5
2E4
100
AcDbEntity
  8
0
100
AcDbCircle
 62
7
  6
CONTINUOUS
 10
13.6175727172
 20
5.2988747044
 40
0.0539166667
100
AcDbArc
 50
13.0
 51
90.0
  0
ARC
  5
2E5
100
AcDbEntity
  8
0
100
AcDbCircle
 62
7
  6
CONTINUOUS
 10
14.0031377967
 20
5.2988747044
 40
0.0539166667
100
AcDbArc
 50
90.0
 51
167.0
  0
ARC
  5
2E6
100
AcDbEntity
  8
0
100
AcDbCircle
 62
7
  6
CONTINUOUS
 10
14.1175727172
 20
5.2988747044
 40
0.0539166667
100
AcDbArc
 50
13.0
 51
90.0
  0
ARC
  5
2E7
100
AcDbEntity
  8
0
100
AcDbCircle
 62
7
  6
CONTINUOUS
 10
14.5031377967
 20
5.2988747044
 40
0.0539166667
100
AcDbArc
 50
90.0
 51
167.0
  0
ARC
  5
2E8
100
AcDbEntity
  8
0
100
AcDbCircle
 62
7
  6
CONTINUOUS
 10
14.6175727172
 20
5.2988747044
 40
0.0539166667
100
AcDbArc
 50
13.0
 51
90.0
  0
ARC
  5
2E9
100
AcDbEntity
  8
0
100
AcDbCircle
 62
7
  6
CONTINUOUS
 10
15.0031377967
 20
5.2988747044
 40
0.0539166667
100
AcDbArc
 50
90.0
 51
167.0
  0
ARC
  5
2EA
100
AcDbEntity
  8
0
100
AcDbCircle
 62
7
  6
CONTINUOUS
 10
15.1175727172
 20
5.2988747044
 40
0.0539166667
100
AcDbArc
 50
13.0
 51
90.0
  0
ARC
  5
2EB
100
AcDbEntity
  8
0
100
AcDbCircle
 62
7
  6
CONTINUOUS
 10
15.5031377967
 20
5.2988747044
 40
0.0539166667
100
AcDbArc
 50
90.0
 51
167.0
  0
ARC
  5
2EC
100
AcDbEntity
  8
0
100
AcDbCircle
 62
7
  6
CONTINUOUS
 10
17.3675727172
 20
5.1910413711
 40
0.0539166667
100
AcDbArc
 50
270.0
 51
347.0
  0
ARC
  5
2ED
100
AcDbEntity
  8
0
100
AcDbCircle
 62
7
  6
CONTINUOUS
 10
17.2531377967
 20
5.1910413711
 40
0.0539166667
100
AcDbArc
 50
193.0
 51
270.0
  0
ARC
  5
2EE
100
AcDbEntity
  8
0
100
AcDbCircle
 62
7
  6
CONTINUOUS
 10
16.8675727172
 20
5.1910413711
 40
0.0539166667
100
AcDbArc
 50
270.0
 51
347.0
  0
ARC
  5
2EF
100
AcDbEntity
  8
0
100
AcDbCircle
 62
7
  6
CONTINUOUS
 10
16.7531377967
 20
5.1910413711
 40
0.0539166667
100
AcDbArc
 50
193.0
 51
270.0
  0
ARC
  5
2F0
100
AcDbEntity
  8
0
100
AcDbCircle
 62
7
  6
CONTINUOUS
 10
16.3675727172
 20
5.1910413711
 40
0.0539166667
100
AcDbArc
 50
270.0
 51
347.0
  0
ARC
  5
2F1
100
AcDbEntity
  8
0
100
AcDbCircle
 62
7
  6
CONTINUOUS
 10
16.2531377967
 20
5.1910413711
 40
0.0539166667
100
AcDbArc
 50
193.0
 51
270.0
  0
ARC
  5
2F2
100
AcDbEntity
  8
0
100
AcDbCircle
 62
7
  6
CONTINUOUS
 10
15.8675727172
 20
5.1910413711
 40
0.0539166667
100
AcDbArc
 50
270.0
 51
347.0
  0
ARC
  5
2F3
100
AcDbEntity
  8
0
100
AcDbCircle
 62
7
  6
CONTINUOUS
 10
15.7531377967
 20
5.1910413711
 40
0.0539166667
100
AcDbArc
 50
193.0
 51
270.0
  0
ARC
  5
2F4
100
AcDbEntity
  8
0
100
AcDbCircle
 62
7
  6
CONTINUOUS
 10
17.5031377967
 20
5.2988747044
 40
0.0539166667
100
AcDbArc
 50
90.0
 51
167.0
  0
ARC
  5
2F5
100
AcDbEntity
  8
0
100
AcDbCircle
 62
7
  6
CONTINUOUS
 10
17.1175727172
 20
5.2988747044
 40
0.0539166667
100
AcDbArc
 50
13.0
 51
90.0
  0
ARC
  5
2F6
100
AcDbEntity
  8
0
100
AcDbCircle
 62
7
  6
CONTINUOUS
 10
17.0031377967
 20
5.2988747044
 40
0.0539166667
100
AcDbArc
 50
90.0
 51
167.0
  0
ARC
  5
2F7
100
AcDbEntity
  8
0
100
AcDbCircle
 62
7
  6
CONTINUOUS
 10
16.6175727172
 20
5.2988747044
 40
0.0539166667
100
AcDbArc
 50
13.0
 51
90.0
  0
ARC
  5
2F8
100
AcDbEntity
  8
0
100
AcDbCircle
 62
7
  6
CONTINUOUS
 10
16.5031377967
 20
5.2988747044
 40
0.0539166667
100
AcDbArc
 50
90.0
 51
167.0
  0
ARC
  5
2F9
100
AcDbEntity
  8
0
100
AcDbCircle
 62
7
  6
CONTINUOUS
 10
16.1175727172
 20
5.2988747044
 40
0.0539166667
100
AcDbArc
 50
13.0
 51
90.0
  0
ARC
  5
2FA
100
AcDbEntity
  8
0
100
AcDbCircle
 62
7
  6
CONTINUOUS
 10
16.0031377967
 20
5.2988747044
 40
0.0539166667
100
AcDbArc
 50
90.0
 51
167.0
  0
ARC
  5
2FB
100
AcDbEntity
  8
0
100
AcDbCircle
 62
7
  6
CONTINUOUS
 10
15.6175727172
 20
5.2988747044
 40
0.0539166667
100
AcDbArc
 50
13.0
 51
90.0
  0
SPLINE
  5
2FC
100
AcDbEntity
  8
0
100
AcDbSpline
 62
7
  6
CONTINUOUS
 70
0
 71
3
 72
15
 73
11
 74
0
 42
0.0000001
 43
0.0000001
 44
0.0000000001
 40
0.0
 40
0.0
 40
0.0
 40
0.0
 40
0.1295697933
 40
0.2645776683
 40
0.4012662534
 40
0.5362714839
 40
0.666215165
 40
0.788098957
 40
0.8998129661
 40
1.0
 40
1.0
 40
1.0
 40
1.0
 10
17.1634977468
 20
14.2131977933
 30
0.0
 10
17.1650460204
 20
14.2131977933
 30
0.0
 10
17.168209994
 20
14.2129825411
 30
0.0
 10
17.1729325165
 20
14.2120986768
 30
0.0
 10
17.1775888044
 20
14.2106712165
 30
0.0
 10
17.1820006344
 20
14.2087558918
 30
0.0
 10
17.1860068065
 20
14.2064272392
 30
0.0
 10
17.1894588957
 20
14.2037659327
 30
0.0
 10
17.1922247208
 20
14.2008698546
 30
0.0
 10
17.1936229142
 20
14.1987322807
 30
0.0
 10
17.1941503183
 20
14.1976575441
 30
0.0
  0
SPLINE
  5
2FD
100
AcDbEntity
  8
0
100
AcDbSpline
 62
7
  6
CONTINUOUS
 70
0
 71
3
 72
15
 73
11
 74
0
 42
0.0000001
 43
0.0000001
 44
0.0000000001
 40
0.0
 40
0.0
 40
0.0
 40
0.0
 40
0.0996450323
 40
0.2028710619
 40
0.3125932892
 40
0.4308545577
 40
0.5588107246
 40
0.6968277439
 40
0.8443971423
 40
1.0
 40
1.0
 40
1.0
 40
1.0
 10
14.6603735572
 20
14.2050387406
 30
0.0
 10
14.6605636725
 20
14.2056539749
 30
0.0
 10
14.6611023223
 20
14.2068649071
 30
0.0
 10
14.6623333139
 20
14.2084858395
 30
0.0
 10
14.6639566832
 20
14.2099010093
 30
0.0
 10
14.6659408137
 20
14.2110850794
 30
0.0
 10
14.6682483373
 20
14.2120237166
 30
0.0
 10
14.6708399672
 20
14.2127024196
 30
0.0
 10
14.6736668693
 20
14.2131100983
 30
0.0
 10
14.6756275065
 20
14.2131977933
 30
0.0
 10
14.6766330629
 20
14.2131977933
 30
0.0
  0
SPLINE
  5
2FE
100
AcDbEntity
  8
0
100
AcDbSpline
 62
7
  6
CONTINUOUS
 70
0
 71
3
 72
11
 73
7
 74
0
 42
0.0000001
 43
0.0000001
 44
0.0000000001
 40
0.0
 40
0.0
 40
0.0
 40
0.0
 40
0.2336912178
 40
0.4747256628
 40
0.7289541255
 40
1.0
 40
1.0
 40
1.0
 40
1.0
 10
13.6921082636
 20
11.0717311021
 30
0.0
 10
13.6919334095
 20
11.0711652548
 30
0.0
 10
13.6917031023
 20
11.0699731111
 30
0.0
 10
13.691745423
 20
11.0681138355
 30
0.0
 10
13.6921632174
 20
11.0662066518
 30
0.0
 10
13.6926646753
 20
11.0649665719
 30
0.0
 10
13.6929672911
 20
11.0643499056
 30
0.0
  0
SPLINE
  5
2FF
100
AcDbEntity
  8
0
100
AcDbSpline
 62
7
  6
CONTINUOUS
 70
0
 71
3
 72
9
 73
5
 74
0
 42
0.0000001
 43
0.0000001
 44
0.0000000001
 40
0.0
 40
0.0
 40
0.0
 40
0.0
 40
0.5176005376
 40
1.0
 40
1.0
 40
1.0
 40
1.0
 10
17.2318488412
 20
14.1208360315
 30
0.0
 10
17.233129284
 20
14.1182267634
 30
0.0
 10
17.2352310299
 20
14.1129888286
 30
0.0
 10
17.2363527568
 20
14.1074446138
 30
0.0
 10
17.2366054664
 20
14.1047475816
 30
0.0
  0
SPLINE
  5
300
100
AcDbEntity
  8
0
100
AcDbSpline
 62
7
  6
CONTINUOUS
 70
0
 71
3
 72
14
 73
10
 74
0
 42
0.0000001
 43
0.0000001
 44
0.0000000001
 40
0.0
 40
0.0
 40
0.0
 40
0.0
 40
0.1556306661
 40
0.3032681188
 40
0.5688265567
 40
0.6871323841
 40
0.7968667034
 40
0.900161425
 40
1.0
 40
1.0
 40
1.0
 40
1.0
 10
16.2656323231
 20
10.8117690552
 30
0.0
 10
16.2666374823
 20
10.8117690552
 30
0.0
 10
16.268598491
 20
10.81185688
 30
0.0
 10
16.2722363566
 20
10.8123815794
 30
0.0
 10
16.2755569605
 20
10.8134256496
 30
0.0
 10
16.2783071593
 20
10.8150642914
 30
0.0
 10
16.279930993
 20
10.8164786117
 30
0.0
 10
16.2811624258
 20
10.8181000297
 30
0.0
 10
16.2817007157
 20
10.8193122575
 30
0.0
 10
16.2818905849
 20
10.8199284893
 30
0.0
  0
SPLINE
  5
301
100
AcDbEntity
  8
0
100
AcDbSpline
 62
7
  6
CONTINUOUS
 70
0
 71
3
 72
15
 73
11
 74
0
 42
0.0000001
 43
0.0000001
 44
0.0000000001
 40
0.0
 40
0.0
 40
0.0
 40
0.0
 40
0.1102082505
 40
0.2287251271
 40
0.3536340169
 40
0.4829520643
 40
0.6145636629
 40
0.7462220277
 40
0.8755856931
 40
1.0
 40
1.0
 40
1.0
 40
1.0
 10
13.873223154
 20
10.8232871919
 30
0.0
 10
13.8739784956
 20
10.8224363505
 30
0.0
 10
13.8756811514
 20
10.820788222
 30
0.0
 10
13.8785985304
 20
10.8185812527
 30
0.0
 10
13.8819095936
 20
10.8166064721
 30
0.0
 10
13.885521321
 20
10.8149122012
 30
0.0
 10
13.8893427036
 20
10.8135443986
 30
0.0
 10
13.893274781
 20
10.8125353637
 30
0.0
 10
13.8972115795
 20
10.8119180836
 30
0.0
 10
13.8998329429
 20
10.8117690552
 30
0.0
 10
13.9011173496
 20
10.8117690552
 30
0.0
  0
SPLINE
  5
302
100
AcDbEntity
  8
0
100
AcDbSpline
 62
7
  6
CONTINUOUS
 70
0
 71
3
 72
9
 73
5
 74
0
 42
0.0000001
 43
0.0000001
 44
0.0000000001
 40
0.0
 40
0.0
 40
0.0
 40
0.0
 40
0.4813567995
 40
1.0
 40
1.0
 40
1.0
 40
1.0
 10
13.730665814
 20
10.9875283929
 30
0.0
 10
13.7320478982
 20
10.9847120016
 30
0.0
 10
13.7353949235
 20
10.9790886549
 30
0.0
 10
13.7394552028
 20
10.9739677875
 30
0.0
 10
13.7416993177
 20
10.9714399431
 30
0.0
  0
SPLINE
  5
303
100
AcDbEntity
  8
0
100
AcDbSpline
 62
7
  6
CONTINUOUS
 70
0
 71
3
 72
15
 73
11
 74
0
 42
0.0000001
 43
0.0000001
 44
0.0000000001
 40
0.0
 40
0.0
 40
0.0
 40
0.0
 40
0.1001870339
 40
0.211901043
 40
0.333784835
 40
0.4637285161
 40
0.5987337466
 40
0.7354223317
 40
0.8704302067
 40
1.0
 40
1.0
 40
1.0
 40
1.0
 10
16.2258850246
 20
11.0643499056
 30
0.0
 10
16.2253576205
 20
11.0654246422
 30
0.0
 10
16.2239594272
 20
11.0675622161
 30
0.0
 10
16.2211936021
 20
11.0704582942
 30
0.0
 10
16.2177415129
 20
11.0731196007
 30
0.0
 10
16.2137353408
 20
11.0754482533
 30
0.0
 10
16.2093235108
 20
11.077363578
 30
0.0
 10
16.2046672229
 20
11.0787910383
 30
0.0
 10
16.1999447004
 20
11.0796749026
 30
0.0
 10
16.1967807268
 20
11.0798901548
 30
0.0
 10
16.1952324531
 20
11.0798901548
 30
0.0
  0
SPLINE
  5
304
100
AcDbEntity
  8
0
100
AcDbSpline
 62
7
  6
CONTINUOUS
 70
0
 71
3
 72
15
 73
11
 74
0
 42
0.0000001
 43
0.0000001
 44
0.0000000001
 40
0.0
 40
0.0
 40
0.0
 40
0.0
 40
0.1556028577
 40
0.3031722561
 40
0.4411892754
 40
0.5691454423
 40
0.6874067108
 40
0.7971289381
 40
0.9003549677
 40
1.0
 40
1.0
 40
1.0
 40
1.0
 10
13.7083677693
 20
11.0798901548
 30
0.0
 10
13.7073622129
 20
11.0798901548
 30
0.0
 10
13.7054015757
 20
11.0798024597
 30
0.0
 10
13.7025746735
 20
11.0793947811
 30
0.0
 10
13.6999830437
 20
11.0787160781
 30
0.0
 10
13.6976755201
 20
11.0777774408
 30
0.0
 10
13.6956913895
 20
11.0765933708
 30
0.0
 10
13.6940680203
 20
11.075178201
 30
0.0
 10
13.6928370286
 20
11.0735572686
 30
0.0
 10
13.6922983788
 20
11.0723463364
 30
0.0
 10
13.6921082636
 20
11.0717311021
 30
0.0
  0
SPLINE
  5
305
100
AcDbEntity
  8
0
100
AcDbSpline
 62
7
  6
CONTINUOUS
 70
0
 71
3
 72
9
 73
5
 74
0
 42
0.0000001
 43
0.0000001
 44
0.0000000001
 40
0.0
 40
0.0
 40
0.0
 40
0.0
 40
0.4823994624
 40
1.0
 40
1.0
 40
1.0
 40
1.0
 10
16.2683401728
 20
10.9714399431
 30
0.0
 10
16.2680874632
 20
10.9741369753
 30
0.0
 10
16.2669657363
 20
10.9796811901
 30
0.0
 10
16.2648639903
 20
10.9849191249
 30
0.0
 10
16.2635835475
 20
10.9875283929
 30
0.0
  0
ENDSEC
  0
SECTION
  2
OBJECTS
  0
DICTIONARY
  5
C
100
AcDbDictionary
280
0
281
1
  3
ACAD_GROUP
350
D
  3
ACAD_MLINESTYLE
350
17
  3
ACAD_LAYOUT
350
1A
  3
ACAD_PLOTSETTINGS
350
19
  3
ACAD_PLOTSTYLENAME
350
E
  0
DICTIONARY
  5
D
102
{ACAD_REACTORS
330
C
102
}
100
AcDbDictionary
280
0
281
1
  0
ACDBDICTIONARYWDFLT
  5
E
102
{ACAD_REACTORS
330
C
102
}
100
AcDbDictionary
281
1
  3
Normal
350
F
100
AcDbDictionaryWithDefault
340
F
  0
DICTIONARY
  5
17
102
{ACAD_REACTORS
330
C
102
}
100
AcDbDictionary
280
0
281
1
  3
Standard
350
18
  0
DICTIONARY
  5
19
102
{ACAD_REACTORS
330
C
102
}
100
AcDbDictionary
281
1
  0
DICTIONARY
  5
1A
102
{ACAD_REACTORS
330
C
102
}
100
AcDbDictionary
281
1
  3
Model
350
306
  3
Layout1
350
307
  0
ACDBPLACEHOLDER
  5
F
102
{ACAD_REACTORS
330
E
102
}
  0
MLINESTYLE
  5
18
102
{ACAD_REACTORS
330
17
102
}
100
AcDbMlineStyle
  2
STANDARD
 70
0
  3

 62
256
 51
90.0
 52
90.0
 71
2
 49
0.5
 62
256
  6
BYLAYER
 49
-0.5
 62
256
  6
BYLAYER
  0
LAYOUT
  5
306
102
{ACAD_REACTORS
330
1A
102
}
100
AcDbPlotSettings
  1

  2
none_device
  4
ANSI_C_(22.00_x_17.00_Inches)
  6

 40
0.0
 41
0.0
 42
0.0
 43
0.0
 44
558.8
 45
431.8
 46
0.0
 47
0.0
 48
0.0
 49
0.0
140
0.0
141
0.0
142
1.0
143
1.0
 70
1024
 72
0
 73
0
 74
0
  7

 75
0
147
1.0
148
0.0
149
0.0
100
AcDbLayout
  1
Model
 70
0
 71
0
 10
0.0
 20
0.0
 11
22.0
 21
17.0
 12
0.0
 22
0.0
 32
0.0
 14
0.0
 24
0.0
 34
0.0
 15
0.0
 25
0.0
 35
0.0
146
0.0
 13
0.0
 23
0.0
 33
0.0
 16
1.0
 26
0.0
 36
0.0
 17
0.0
 27
1.0
 37
0.0
 76
0
330
216
345
0
346
0
  0
LAYOUT
  5
307
102
{ACAD_REACTORS
330
1A
102
}
100
AcDbPlotSettings
  1

  2
none_device
  4
ANSI_C_(22.00_x_17.00_Inches)
  6

 40
0.0
 41
0.0
 42
0.0
 43
0.0
 44
558.8
 45
431.8
 46
0.0
 47
0.0
 48
0.0
 49
0.0
140
0.0
141
0.0
142
1.0
143
1.0
 70
0
 72
0
 73
0
 74
0
  7

 75
0
147
1.0
148
0.0
149
0.0
100
AcDbLayout
  1
Layout1
 70
0
 71
1
 10
0.0
 20
0.0
 11
22.0
 21
17.0
 12
0.0
 22
0.0
 32
0.0
 14
0.0
 24
0.0
 34
0.0
 15
0.0
 25
0.0
 35
0.0
146
0.0
 13
0.0
 23
0.0
 33
0.0
 16
1.0
 26
0.0
 36
0.0
 17
0.0
 27
1.0
 37
0.0
 76
0
330
217
345
0
346
0
  0
ENDSEC
  0
EOF