999
DXF file: _cgs_temp_output.dxf
999
Pro/ENGINEER 2016360 by Parametric Technology Corporation
  0
SECTION
  2
HEADER
  9
$ACADVER
  1
AC1021
  9
$DWGCODEPAGE
  3
ANSI_1252
  9
$EXTMAX
 10
22.0
 20
17.0
 30
0.0
  9
$EXTMIN
 10
0.0
 20
0.0
 30
0.0
  9
$LIMMIN
 10
0.0
 20
0.0
  9
$LIMMAX
 10
22.0
 20
17.0
  9
$VIEWCTR
 10
11.0
 20
8.5
  9
$VIEWSIZE
 40
17.0
  9
$CLAYER
  8
0
  9
$LTSCALE
 40
1.21
  9
$CELTYPE
  6
BYLAYER
  9
$DIMSCALE
 40
1.0
  9
$DIMASZ
 40
0.1875
  9
$DIMEXO
 40
0.0625
  9
$DIMDLI
 40
0.836
  9
$DIMEXE
 40
0.125
  9
$DIMCEN
 40
0.198
  9
$DIMLFAC
 40
1.0
  9
$DIMBLK
  1
_CLOSED
  9
$DIMALT
 70
0
  9
$DIMALTF
 40
25.4
  9
$DIMTXT
 40
0.15625
  9
$DIMTOL
 70
0
  9
$DIMLIM
 70
0
  9
$DIMTFAC
 40
1.0
  9
$DIMGAP
 40
0.09
  9
$DIMDSEP
 70
46
  9
$AUNITS
 70
0
  9
$PDMODE
 70
3
  9
$PDSIZE
 40
0.3125
  9
$HANDSEED
  5
2F7
  9
$TILEMODE
 70
1
  9
$MEASUREMENT
 70
0
  9
$INSUNITS
 70
1
  0
ENDSEC
  0
SECTION
  2
CLASSES
  0
CLASS
  1
ACDBDICTIONARYWDFLT
  2
AcDbDictionaryWithDefault
  3
AutoCAD 2000
 90
0
 91
1
280
0
281
0
  0
CLASS
  1
ACDBPLACEHOLDER
  2
AcDbPlaceHolder
  3
AutoCAD 2000
 90
0
 91
1
280
0
281
0
  0
CLASS
  1
LAYOUT
  2
AcDbLayout
  3
AutoCAD 2000
 90
0
 91
0
280
0
281
0
  0
ENDSEC
  0
SECTION
  2
TABLES
  0
TABLE
  2
VPORT
  5
8
100
AcDbSymbolTable
 70
2
  0
VPORT
  5
1F4
100
AcDbSymbolTableRecord
100
AcDbViewportTableRecord
  2
*ACTIVE
 70
0
 10
0.0
 20
0.0
 11
1.0
 21
1.0
 12
11.0
 22
8.5
 13
0.0
 23
0.0
 14
1.0
 24
1.0
 15
0.0
 25
0.0
 16
0.0
 26
0.0
 36
1.0
 17
0.0
 27
0.0
 37
0.0
 40
17.0
 41
1.2941176471
 42
50.0
 43
0.0
 44
0.0
 50
0.0
 51
0.0
 71
0
 72
100
 73
1
 74
1
 75
0
 76
0
 77
0
 78
0
  0
ENDTAB
  0
TABLE
  2
LTYPE
  5
5
100
AcDbSymbolTable
 70
6
  0
LTYPE
  5
14
100
AcDbSymbolTableRecord
100
AcDbLinetypeTableRecord
  2
BYBLOCK
 70
0
  3

 72
65
 73
0
 40
0.0
  0
LTYPE
  5
15
100
AcDbSymbolTableRecord
100
AcDbLinetypeTableRecord
  2
BYLAYER
 70
0
  3

 72
65
 73
0
 40
0.0
  0
LTYPE
  5
16
100
AcDbSymbolTableRecord
100
AcDbLinetypeTableRecord
  2
CONTINUOUS
 70
64
  3
Solid line
 72
65
 73
0
 40
0.0
  0
LTYPE
  5
1F5
100
AcDbSymbolTableRecord
100
AcDbLinetypeTableRecord
  2
CENTER
 70
64
  3
____ _ ____ _ ____ _ ____ _ ____ _ ____ _ ____
 72
65
 73
4
 40
0.6
 49
0.375
 74
0
 49
-0.075
 74
0
 49
0.075
 74
0
 49
-0.075
 74
0
  0
LTYPE
  5
1F6
100
AcDbSymbolTableRecord
100
AcDbLinetypeTableRecord
  2
HIDDEN
 70
64
  3
- - - - - - - - - - - - - - - - - - - -
 72
65
 73
2
 40
0.2
 49
0.1
 74
0
 49
-0.1
 74
0
  0
LTYPE
  5
1F7
100
AcDbSymbolTableRecord
100
AcDbLinetypeTableRecord
  2
PHANTOM
 70
64
  3
_____ _ _ _____ _ _ _____ _ _ _____
 72
65
 73
6
 40
0.8
 49
0.45
 74
0
 49
-0.05
 74
0
 49
0.1
 74
0
 49
-0.05
 74
0
 49
0.1
 74
0
 49
-0.05
 74
0
  0
LTYPE
  5
1F8
100
AcDbSymbolTableRecord
100
AcDbLinetypeTableRecord
  2
DOT
 70
64
  3
. . . . . . . . . . . . . . . . . . . .
 72
65
 73
2
 40
0.2
 49
0.1
 74
0
 49
-0.1
 74
0
  0
LTYPE
  5
1F9
100
AcDbSymbolTableRecord
100
AcDbLinetypeTableRecord
  2
DASHED
 70
64
  3
- - - - - - - - - - - - - - - - - - - -
 72
65
 73
2
 40
0.2
 49
0.1
 74
0
 49
-0.1
 74
0
  0
ENDTAB
  0
TABLE
  2
LAYER
  5
2
100
AcDbSymbolTable
 70
36
  0
LAYER
  5
10
100
AcDbSymbolTableRecord
100
AcDbLayerTableRecord
  2
0
 70
0
 62
7
  6
CONTINUOUS
370
-3
390
F
  0
LAYER
  5
1FA
100
AcDbSymbolTableRecord
100
AcDbLayerTableRecord
  2
DEFAULT_1
 70
0
 62
7
  6
CENTER
370
-3
390
F
  0
LAYER
  5
1FB
100
AcDbSymbolTableRecord
100
AcDbLayerTableRecord
  2
DEFAULT_2
 70
0
 62
8
  6
HIDDEN
370
-3
390
F
  0
LAYER
  5
1FC
100
AcDbSymbolTableRecord
100
AcDbLayerTableRecord
  2
DEFAULT_3
 70
0
 62
7
  6
PHANTOM
370
-3
390
F
  0
LAYER
  5
1FD
100
AcDbSymbolTableRecord
100
AcDbLayerTableRecord
  2
01_ALL_DTM_PLN
 70
0
 62
7
  6
CONTINUOUS
370
-3
390
F
  0
LAYER
  5
1FE
100
AcDbSymbolTableRecord
100
AcDbLayerTableRecord
  2
01__ASM_ALL_DTM_PLN
 70
0
 62
7
  6
CONTINUOUS
370
-3
390
F
  0
LAYER
  5
1FF
100
AcDbSymbolTableRecord
100
AcDbLayerTableRecord
  2
01__ASM_DEF_DTM_PLN
 70
0
 62
7
  6
CONTINUOUS
370
-3
390
F
  0
LAYER
  5
200
100
AcDbSymbolTableRecord
100
AcDbLayerTableRecord
  2
01___PRT_ALL_DTM_PLN
 70
0
 62
7
  6
CONTINUOUS
370
-3
390
F
  0
LAYER
  5
201
100
AcDbSymbolTableRecord
100
AcDbLayerTableRecord
  2
01___PRT_DEF_DTM_PLN
 70
0
 62
7
  6
CONTINUOUS
370
-3
390
F
  0
LAYER
  5
202
100
AcDbSymbolTableRecord
100
AcDbLayerTableRecord
  2
02_ALL_AXES
 70
0
 62
7
  6
CONTINUOUS
370
-3
390
F
  0
LAYER
  5
203
100
AcDbSymbolTableRecord
100
AcDbLayerTableRecord
  2
02__ASM_ALL_AXES
 70
0
 62
7
  6
CONTINUOUS
370
-3
390
F
  0
LAYER
  5
204
100
AcDbSymbolTableRecord
100
AcDbLayerTableRecord
  2
02___PRT_ALL_AXES
 70
0
 62
7
  6
CONTINUOUS
370
-3
390
F
  0
LAYER
  5
205
100
AcDbSymbolTableRecord
100
AcDbLayerTableRecord
  2
03_ALL_CURVES
 70
0
 62
7
  6
CONTINUOUS
370
-3
390
F
  0
LAYER
  5
206
100
AcDbSymbolTableRecord
100
AcDbLayerTableRecord
  2
03__ASM_ALL_CURVES
 70
0
 62
7
  6
CONTINUOUS
370
-3
390
F
  0
LAYER
  5
207
100
AcDbSymbolTableRecord
100
AcDbLayerTableRecord
  2
03___PRT_ALL_CURVES
 70
0
 62
7
  6
CONTINUOUS
370
-3
390
F
  0
LAYER
  5
208
100
AcDbSymbolTableRecord
100
AcDbLayerTableRecord
  2
04_ALL_DTM_PNT
 70
0
 62
7
  6
CONTINUOUS
370
-3
390
F
  0
LAYER
  5
209
100
AcDbSymbolTableRecord
100
AcDbLayerTableRecord
  2
04__ASM_ALL_DTM_PNT
 70
0
 62
7
  6
CONTINUOUS
370
-3
390
F
  0
LAYER
  5
20A
100
AcDbSymbolTableRecord
100
AcDbLayerTableRecord
  2
04___PRT_ALL_DTM_PNT
 70
0
 62
7
  6
CONTINUOUS
370
-3
390
F
  0
LAYER
  5
20B
100
AcDbSymbolTableRecord
100
AcDbLayerTableRecord
  2
05_ALL_DTM_CSYS
 70
0
 62
7
  6
CONTINUOUS
370
-3
390
F
  0
LAYER
  5
20C
100
AcDbSymbolTableRecord
100
AcDbLayerTableRecord
  2
05__ASM_ALL_DTM_CSYS
 70
0
 62
7
  6
CONTINUOUS
370
-3
390
F
  0
LAYER
  5
20D
100
AcDbSymbolTableRecord
100
AcDbLayerTableRecord
  2
05__ASM_DEF_DTM_CSYS
 70
0
 62
7
  6
CONTINUOUS
370
-3
390
F
  0
LAYER
  5
20E
100
AcDbSymbolTableRecord
100
AcDbLayerTableRecord
  2
05___PRT_ALL_DTM_CSYS
 70
0
 62
7
  6
CONTINUOUS
370
-3
390
F
  0
LAYER
  5
20F
100
AcDbSymbolTableRecord
100
AcDbLayerTableRecord
  2
05___PRT_DEF_DTM_CSYS
 70
0
 62
7
  6
CONTINUOUS
370
-3
390
F
  0
LAYER
  5
210
100
AcDbSymbolTableRecord
100
AcDbLayerTableRecord
  2
06_ALL_SURFS
 70
0
 62
7
  6
CONTINUOUS
370
-3
390
F
  0
LAYER
  5
211
100
AcDbSymbolTableRecord
100
AcDbLayerTableRecord
  2
06__ASM_ALL_SURFS
 70
0
 62
7
  6
CONTINUOUS
370
-3
390
F
  0
LAYER
  5
212
100
AcDbSymbolTableRecord
100
AcDbLayerTableRecord
  2
06___PRT_ALL_SURFS
 70
0
 62
7
  6
CONTINUOUS
370
-3
390
F
  0
LAYER
  5
213
100
AcDbSymbolTableRecord
100
AcDbLayerTableRecord
  2
07__ASM_ALL_SKELETONS
 70
0
 62
7
  6
CONTINUOUS
370
-3
390
F
  0
ENDTAB
  0
TABLE
  2
STYLE
  5
3
100
AcDbSymbolTable
 70
1
  0
STYLE
  5
11
100
AcDbSymbolTableRecord
100
AcDbTextStyleTableRecord
  2
STANDARD
 70
0
 40
0.0
 41
0.8
 50
0.0
 71
0
 42
0.2
  3
txt
  4

  0
STYLE
  5
214
100
AcDbSymbolTableRecord
100
AcDbTextStyleTableRecord
  2
TEXTSTYLE_1
 70
0
 40
0.0
 41
0.8
 50
0.0
 71
0
 42
0.2
  3
gdt
  4

  0
ENDTAB
  0
TABLE
  2
VIEW
  5
6
100
AcDbSymbolTable
 70
0
  0
ENDTAB
  0
TABLE
  2
UCS
  5
7
100
AcDbSymbolTable
 70
0
  0
ENDTAB
  0
TABLE
  2
APPID
  5
9
100
AcDbSymbolTable
 70
1
  0
APPID
  5
215
100
AcDbSymbolTableRecord
100
AcDbRegAppTableRecord
  2
ACAD
 70
0
  0
ENDTAB
  0
TABLE
  2
BLOCK_RECORD
  5
1
100
AcDbSymbolTable
 70
0
  0
BLOCK_RECORD
  5
216
100
AcDbSymbolTableRecord
100
AcDbBlockTableRecord
  2
*Model_Space
  0
BLOCK_RECORD
  5
217
100
AcDbSymbolTableRecord
100
AcDbBlockTableRecord
  2
*Paper_Space
  0
ENDTAB
  0
TABLE
  2
DIMSTYLE
  5
A
100
AcDbSymbolTable
 70
1
100
AcDbDimStyleTable
 71
0
  0
DIMSTYLE
105
218
100
AcDbSymbolTableRecord
100
AcDbDimStyleTableRecord
  2
STANDARD
 70
0
  3

  4

 40
1.0
 41
0.1875
 42
0.0625
 43
0.38
 44
0.125
 45
0.0
 46
0.0
 47
0.0001
 48
0.0001
140
0.15625
141
0.09
142
0.0
143
25.4
144
1.0
145
0.0
146
1.0
147
0.09
 71
0.0
 72
0.0
 73
1
 74
1
 75
0
 76
0
 77
0
 78
4
 79
1
170
0
171
3
172
0
173
0
174
0
175
0
176
0
177
0
178
0
270
2
179
4
271
4
272
4
273
2
274
2
275
0
280
0
281
0
282
0
283
1
284
4
285
0
286
0
287
3
288
0
340
11
278
46
  0
ENDTAB
  0
ENDSEC
  0
SECTION
  2
BLOCKS
  0
BLOCK
  5
20
100
AcDbEntity
  8
0
100
AcDbBlockBegin
  2
*Model_Space
 70
0
 10
0.0
 20
0.0
 30
0.0
  3
*Model_Space
  1

  0
ENDBLK
  5
21
100
AcDbEntity
  8
0
100
AcDbBlockEnd
  0
BLOCK
  5
1C
100
AcDbEntity
  8
0
100
AcDbBlockBegin
  2
*Paper_Space
 70
0
 10
0.0
 20
0.0
 30
0.0
  3
*Paper_Space
  1

  0
ENDBLK
  5
1D
100
AcDbEntity
  8
0
100
AcDbBlockEnd
  0
ENDSEC
  0
SECTION
  2
ENTITIES
  0
MTEXT
  5
219
100
AcDbEntity
  8
0
100
AcDbMText
 62
7
  6
CONTINUOUS
  7
STANDARD
 71
1
 72
1
 10
15.9560215477
 20
0.9479130325
 30
0.0
 11
1.0
 21
0.0
 31
0.0
 44
0.9
  1
SCALE: 1:1.000
 40
0.3
 41
3.36
  0
LINE
  5
21A
100
AcDbEntity
  8
0
100
AcDbLine
 62
7
  6
CONTINUOUS
 10
0.0
 20
0.0
 11
0.0
 21
17.0
  0
LINE
  5
21B
100
AcDbEntity
  8
0
100
AcDbLine
 62
7
  6
CONTINUOUS
 10
0.0
 20
0.0
 11
22.0
 21
0.0
  0
LINE
  5
21C
100
AcDbEntity
  8
0
100
AcDbLine
 62
7
  6
CONTINUOUS
 10
0.0
 20
17.0
 11
22.0
 21
17.0
  0
LINE
  5
21D
100
AcDbEntity
  8
0
100
AcDbLine
 62
7
  6
CONTINUOUS
 10
22.0
 20
0.0
 11
22.0
 21
17.0
  0
LINE
  5
21E
100
AcDbEntity
  8
0
100
AcDbLine
 62
7
  6
CONTINUOUS
 10
4.7553672762
 20
5.8181198968
 11
4.7553672762
 21
5.6974583408
  0
LINE
  5
21F
100
AcDbEntity
  8
0
100
AcDbLine
 62
7
  6
CONTINUOUS
 10
4.9071780193
 20
5.2143944719
 11
4.7602616245
 21
5.6665566413
  0
LINE
  5
220
100
AcDbEntity
  8
0
100
AcDbLine
 62
7
  6
CONTINUOUS
 10
4.9309544322
 20
5.1971198968
 11
7.3297801201
 21
5.1971198968
  0
LINE
  5
221
100
AcDbEntity
  8
0
100
AcDbLine
 62
7
  6
CONTINUOUS
 10
4.8609883909
 20
5.4124532301
 11
7.3997461614
 21
5.4124532301
  0
LINE
  5
222
100
AcDbEntity
  8
0
100
AcDbLine
 62
7
  6
CONTINUOUS
 10
7.4803672762
 20
5.8431198968
 11
4.7803672762
 21
5.8431198968
  0
LINE
  5
223
100
AcDbEntity
  8
0
100
AcDbLine
 62
7
  6
CONTINUOUS
 10
7.5053672762
 20
5.6974583408
 11
7.5053672762
 21
5.8181198968
  0
LINE
  5
224
100
AcDbEntity
  8
0
100
AcDbLine
 62
7
  6
CONTINUOUS
 10
7.353556533
 20
5.2143944719
 11
7.5004729278
 21
5.6665566413
  0
LINE
  5
225
100
AcDbEntity
  8
0
100
AcDbLine
 62
7
  6
CONTINUOUS
 10
7.4458720839
 20
10.6000477814
 11
4.6958720839
 21
10.6000477814
  0
LINE
  5
226
100
AcDbEntity
  8
0
100
AcDbLine
 62
7
  6
CONTINUOUS
 10
4.6958720839
 20
10.6000477814
 11
4.6958720839
 21
14.6000477814
  0
LINE
  5
227
100
AcDbEntity
  8
0
100
AcDbLine
 62
7
  6
CONTINUOUS
 10
7.4458720839
 20
10.6000477814
 11
7.4458720839
 21
14.6000477814
  0
LINE
  5
228
100
AcDbEntity
  8
0
100
AcDbLine
 62
7
  6
CONTINUOUS
 10
4.6958720839
 20
14.6000477814
 11
7.4458720839
 21
14.6000477814
  0
LINE
  5
229
100
AcDbEntity
  8
0
100
AcDbLine
 62
7
  6
CONTINUOUS
 10
13.5603552569
 20
5.3529580378
 11
13.5603552569
 21
5.7836247044
  0
LINE
  5
22A
100
AcDbEntity
  8
0
100
AcDbLine
 62
7
  6
CONTINUOUS
 10
13.67013107
 20
5.3112345695
 11
13.7005794439
 21
5.1793481727
  0
LINE
  5
22B
100
AcDbEntity
  8
0
100
AcDbLine
 62
7
  6
CONTINUOUS
 10
13.92013107
 20
5.1793481727
 11
13.9505794439
 21
5.3112345695
  0
LINE
  5
22C
100
AcDbEntity
  8
0
100
AcDbLine
 62
7
  6
CONTINUOUS
 10
14.17013107
 20
5.3112345695
 11
14.2005794439
 21
5.1793481727
  0
LINE
  5
22D
100
AcDbEntity
  8
0
100
AcDbLine
 62
7
  6
CONTINUOUS
 10
14.42013107
 20
5.1793481727
 11
14.4505794439
 21
5.3112345695
  0
LINE
  5
22E
100
AcDbEntity
  8
0
100
AcDbLine
 62
7
  6
CONTINUOUS
 10
14.67013107
 20
5.3112345695
 11
14.7005794439
 21
5.1793481727
  0
LINE
  5
22F
100
AcDbEntity
  8
0
100
AcDbLine
 62
7
  6
CONTINUOUS
 10
14.92013107
 20
5.1793481727
 11
14.9505794439
 21
5.3112345695
  0
LINE
  5
230
100
AcDbEntity
  8
0
100
AcDbLine
 62
7
  6
CONTINUOUS
 10
15.17013107
 20
5.3112345695
 11
15.2005794439
 21
5.1793481727
  0
LINE
  5
231
100
AcDbEntity
  8
0
100
AcDbLine
 62
7
  6
CONTINUOUS
 10
13.7530330324
 20
5.1376247044
 11
13.8676774815
 21
5.1376247044
  0
LINE
  5
232
100
AcDbEntity
  8
0
100
AcDbLine
 62
7
  6
CONTINUOUS
 10
14.2530330324
 20
5.1376247044
 11
14.3676774815
 21
5.1376247044
  0
LINE
  5
233
100
AcDbEntity
  8
0
100
AcDbLine
 62
7
  6
CONTINUOUS
 10
14.7530330324
 20
5.1376247044
 11
14.8676774815
 21
5.1376247044
  0
LINE
  5
234
100
AcDbEntity
  8
0
100
AcDbLine
 62
7
  6
CONTINUOUS
 10
15.2530330324
 20
5.1376247044
 11
15.3676774815
 21
5.1376247044
  0
LINE
  5
235
100
AcDbEntity
  8
0
100
AcDbLine
 62
7
  6
CONTINUOUS
 10
15.7530330324
 20
5.1376247044
 11
15.8676774815
 21
5.1376247044
  0
LINE
  5
236
100
AcDbEntity
  8
0
100
AcDbLine
 62
7
  6
CONTINUOUS
 10
16.2530330324
 20
5.1376247044
 11
16.3676774815
 21
5.1376247044
  0
LINE
  5
237
100
AcDbEntity
  8
0
100
AcDbLine
 62
7
  6
CONTINUOUS
 10
16.7530330324
 20
5.1376247044
 11
16.8676774815
 21
5.1376247044
  0
LINE
  5
238
100
AcDbEntity
  8
0
100
AcDbLine
 62
7
  6
CONTINUOUS
 10
17.2530330324
 20
5.1376247044
 11
17.3676774815
 21
5.1376247044
  0
LINE
  5
239
100
AcDbEntity
  8
0
100
AcDbLine
 62
7
  6
CONTINUOUS
 10
15.42013107
 20
5.1793481727
 11
15.4505794439
 21
5.3112345695
  0
LINE
  5
23A
100
AcDbEntity
  8
0
100
AcDbLine
 62
7
  6
CONTINUOUS
 10
13.5603552569
 20
5.3529580378
 11
13.6176774815
 21
5.3529580378
  0
LINE
  5
23B
100
AcDbEntity
  8
0
100
AcDbLine
 62
7
  6
CONTINUOUS
 10
14.0030330324
 20
5.3529580378
 11
14.1176774815
 21
5.3529580378
  0
LINE
  5
23C
100
AcDbEntity
  8
0
100
AcDbLine
 62
7
  6
CONTINUOUS
 10
14.5030330324
 20
5.3529580378
 11
14.6176774815
 21
5.3529580378
  0
LINE
  5
23D
100
AcDbEntity
  8
0
100
AcDbLine
 62
7
  6
CONTINUOUS
 10
15.0030330324
 20
5.3529580378
 11
15.1176774815
 21
5.3529580378
  0
LINE
  5
23E
100
AcDbEntity
  8
0
100
AcDbLine
 62
7
  6
CONTINUOUS
 10
15.5030330324
 20
5.3529580378
 11
15.6176774815
 21
5.3529580378
  0
LINE
  5
23F
100
AcDbEntity
  8
0
100
AcDbLine
 62
7
  6
CONTINUOUS
 10
16.0030330324
 20
5.3529580378
 11
16.1176774815
 21
5.3529580378
  0
LINE
  5
240
100
AcDbEntity
  8
0
100
AcDbLine
 62
7
  6
CONTINUOUS
 10
16.5030330324
 20
5.3529580378
 11
16.6176774815
 21
5.3529580378
  0
LINE
  5
241
100
AcDbEntity
  8
0
100
AcDbLine
 62
7
  6
CONTINUOUS
 10
17.0030330324
 20
5.3529580378
 11
17.1176774815
 21
5.3529580378
  0
LINE
  5
242
100
AcDbEntity
  8
0
100
AcDbLine
 62
7
  6
CONTINUOUS
 10
17.5030330324
 20
5.3529580378
 11
17.5603552569
 21
5.3529580378
  0
LINE
  5
243
100
AcDbEntity
  8
0
100
AcDbLine
 62
7
  6
CONTINUOUS
 10
15.67013107
 20
5.3112345695
 11
15.7005794439
 21
5.1793481727
  0
LINE
  5
244
100
AcDbEntity
  8
0
100
AcDbLine
 62
7
  6
CONTINUOUS
 10
15.92013107
 20
5.1793481727
 11
15.9505794439
 21
5.3112345695
  0
LINE
  5
245
100
AcDbEntity
  8
0
100
AcDbLine
 62
7
  6
CONTINUOUS
 10
13.5603552569
 20
5.7836247044
 11
17.5603552569
 21
5.7836247044
  0
LINE
  5
246
100
AcDbEntity
  8
0
100
AcDbLine
 62
7
  6
CONTINUOUS
 10
16.17013107
 20
5.3112345695
 11
16.2005794439
 21
5.1793481727
  0
LINE
  5
247
100
AcDbEntity
  8
0
100
AcDbLine
 62
7
  6
CONTINUOUS
 10
16.42013107
 20
5.1793481727
 11
16.4505794439
 21
5.3112345695
  0
LINE
  5
248
100
AcDbEntity
  8
0
100
AcDbLine
 62
7
  6
CONTINUOUS
 10
16.67013107
 20
5.3112345695
 11
16.7005794439
 21
5.1793481727
  0
LINE
  5
249
100
AcDbEntity
  8
0
100
AcDbLine
 62
7
  6
CONTINUOUS
 10
16.92013107
 20
5.1793481727
 11
16.9505794439
 21
5.3112345695
  0
LINE
  5
24A
100
AcDbEntity
  8
0
100
AcDbLine
 62
7
  6
CONTINUOUS
 10
17.17013107
 20
5.3112345695
 11
17.2005794439
 21
5.1793481727
  0
LINE
  5
24B
100
AcDbEntity
  8
0
100
AcDbLine
 62
7
  6
CONTINUOUS
 10
17.5603552569
 20
5.3529580378
 11
17.5603552569
 21
5.7836247044
  0
LINE
  5
24C
100
AcDbEntity
  8
0
100
AcDbLine
 62
7
  6
CONTINUOUS
 10
17.42013107
 20
5.1793481727
 11
17.4505794439
 21
5.3112345695
  0
LINE
  5
24D
100
AcDbEntity
  8
0
100
AcDbLine
 62
7
  6
CONTINUOUS
 10
13.7503309463
 20
10.9698970182
 11
13.8934496256
 21
10.8226818529
  0
LINE
  5
24E
100
AcDbEntity
  8
0
100
AcDbLine
 62
7
  6
CONTINUOUS
 10
13.6995898145
 20
11.0641102486
 11
13.7363966408
 21
10.9891058226
  0
LINE
  5
24F
100
AcDbEntity
  8
0
100
AcDbLine
 62
7
  6
CONTINUOUS
 10
14.0647514494
 20
10.8113362747
 11
14.0777240526
 21
10.8086502377
  0
LWPOLYLINE
  5
250
100
AcDbEntity
  8
0
100
AcDbPolyline
 62
7
  6
CONTINUOUS
 90
6
 70
0
 10
16.2937006336
 20
10.8086502248
 10
16.3024374503
 20
10.8101781419
 10
16.3105582876
 20
10.8148766079
 10
16.3158921194
 20
10.8208247943
 10
16.3191985471
 20
10.8267109845
 10
16.3218461275
 20
10.833320626
  0
LINE
  5
251
100
AcDbEntity
  8
0
100
AcDbLine
 62
7
  6
CONTINUOUS
 10
14.0777022264
 20
10.808650148
 11
16.2936963937
 21
10.808650148
  0
LINE
  5
252
100
AcDbEntity
  8
0
100
AcDbLine
 62
7
  6
CONTINUOUS
 10
13.9206186207
 20
10.8119438048
 11
16.2589693763
 21
10.8119438048
  0
LWPOLYLINE
  5
253
100
AcDbEntity
  8
0
100
AcDbPolyline
 62
7
  6
CONTINUOUS
 90
6
 70
0
 10
16.4147337953
 20
11.2003136796
 10
16.423470612
 20
11.2018415968
 10
16.4315914493
 20
11.2065400627
 10
16.4369252811
 20
11.2124882491
 10
16.4402317088
 20
11.2183744393
 10
16.4428792892
 20
11.2249840809
  0
LINE
  5
254
100
AcDbEntity
  8
0
100
AcDbLine
 62
7
  6
CONTINUOUS
 10
16.2018549765
 20
11.0796504978
 11
13.7149902927
 21
11.0796504978
  0
LINE
  5
255
100
AcDbEntity
  8
0
100
AcDbLine
 62
7
  6
CONTINUOUS
 10
16.3927228538
 20
11.2003136028
 11
16.4147295554
 21
11.2003136028
  0
LINE
  5
256
100
AcDbEntity
  8
0
100
AcDbLine
 62
7
  6
CONTINUOUS
 10
13.6987308183
 20
11.0714914329
 11
14.6669961119
 21
14.2047990714
  0
LWPOLYLINE
  5
257
100
AcDbEntity
  8
0
100
AcDbPolyline
 62
7
  6
CONTINUOUS
 90
6
 70
0
 10
16.535766957
 20
11.5919771344
 10
16.5445037737
 20
11.5935050516
 10
16.552624611
 20
11.5982035175
 10
16.5579584428
 20
11.6041517039
 10
16.5612648705
 20
11.6100378941
 10
16.5639124509
 20
11.6166475357
  0
LINE
  5
258
100
AcDbEntity
  8
0
100
AcDbLine
 62
7
  6
CONTINUOUS
 10
16.5137560155
 20
11.5919770576
 11
16.5357627171
 21
11.5919770576
  0
LWPOLYLINE
  5
259
100
AcDbEntity
  8
0
100
AcDbPolyline
 62
7
  6
CONTINUOUS
 90
6
 70
0
 10
16.6568001187
 20
11.9836405892
 10
16.6655369354
 20
11.9851685064
 10
16.6736577727
 20
11.9898669723
 10
16.6789916045
 20
11.9958151587
 10
16.6822980322
 20
12.0017013489
 10
16.6849456126
 20
12.0083109905
  0
LINE
  5
25A
100
AcDbEntity
  8
0
100
AcDbLine
 62
7
  6
CONTINUOUS
 10
16.6347891772
 20
11.9836405124
 11
16.6567958788
 21
11.9836405124
  0
LWPOLYLINE
  5
25B
100
AcDbEntity
  8
0
100
AcDbPolyline
 62
7
  6
CONTINUOUS
 90
6
 70
0
 10
16.7778332804
 20
12.375304044
 10
16.7865700971
 20
12.3768319612
 10
16.7946909344
 20
12.3815304271
 10
16.8000247662
 20
12.3874786135
 10
16.8033311939
 20
12.3933648037
 10
16.8059787743
 20
12.3999744453
  0
LWPOLYLINE
  5
25C
100
AcDbEntity
  8
0
100
AcDbPolyline
 62
7
  6
CONTINUOUS
 90
6
 70
0
 10
16.8988664421
 20
12.7669674988
 10
16.9076032588
 20
12.768495416
 10
16.9157240961
 20
12.7731938819
 10
16.9210579279
 20
12.7791420683
 10
16.9243643556
 20
12.7850282585
 10
16.927011936
 20
12.7916379001
  0
LINE
  5
25D
100
AcDbEntity
  8
0
100
AcDbLine
 62
7
  6
CONTINUOUS
 10
16.7558223389
 20
12.3753039672
 11
16.7778290405
 21
12.3753039672
  0
LINE
  5
25E
100
AcDbEntity
  8
0
100
AcDbLine
 62
7
  6
CONTINUOUS
 10
16.2693143743
 20
10.9891058226
 11
16.232507548
 21
11.0641102486
  0
LINE
  5
25F
100
AcDbEntity
  8
0
100
AcDbLine
 62
7
  6
CONTINUOUS
 10
16.8768555006
 20
12.766967422
 11
16.8988622023
 21
12.766967422
  0
LWPOLYLINE
  5
260
100
AcDbEntity
  8
0
100
AcDbPolyline
 62
7
  6
CONTINUOUS
 90
6
 70
0
 10
17.0198996038
 20
13.1586309537
 10
17.0286364205
 20
13.1601588708
 10
17.0367572578
 20
13.1648573368
 10
17.0420910896
 20
13.1708055232
 10
17.0453975173
 20
13.1766917133
 10
17.0480450977
 20
13.1833013549
  0
LINE
  5
261
100
AcDbEntity
  8
0
100
AcDbLine
 62
7
  6
CONTINUOUS
 10
16.9978886623
 20
13.1586308768
 11
17.019895364
 21
13.1586308768
  0
LINE
  5
262
100
AcDbEntity
  8
0
100
AcDbLine
 62
7
  6
CONTINUOUS
 10
16.2755994342
 20
10.8226818529
 11
16.274232693
 21
10.9698970182
  0
LWPOLYLINE
  5
263
100
AcDbEntity
  8
0
100
AcDbPolyline
 62
7
  6
CONTINUOUS
 90
6
 70
0
 10
17.1409327655
 20
13.5502944085
 10
17.1496695822
 20
13.5518223256
 10
17.1577904195
 20
13.5565207916
 10
17.1631242513
 20
13.562468978
 10
17.166430679
 20
13.5683551682
 10
17.1690782594
 20
13.5749648097
  0
LINE
  5
264
100
AcDbEntity
  8
0
100
AcDbLine
 62
7
  6
CONTINUOUS
 10
16.3586014978
 20
10.9687045482
 11
16.3652109062
 21
11.0745374772
  0
LINE
  5
265
100
AcDbEntity
  8
0
100
AcDbLine
 62
7
  6
CONTINUOUS
 10
16.4796346595
 20
11.360368003
 11
16.4862440679
 21
11.466200932
  0
LWPOLYLINE
  5
266
100
AcDbEntity
  8
0
100
AcDbPolyline
 62
7
  6
CONTINUOUS
 90
6
 70
0
 10
16.3652121329
 20
11.0745598655
 10
16.3659097659
 20
11.0832553561
 10
16.368116697
 20
11.1013748597
 10
16.3714219223
 20
11.1212419652
 10
16.3755031288
 20
11.1408743499
 10
16.3799251009
 20
11.1584393111
  0
LWPOLYLINE
  5
267
100
AcDbEntity
  8
0
100
AcDbPolyline
 62
7
  6
CONTINUOUS
 90
6
 70
0
 10
16.4862452946
 20
11.4662233203
 10
16.4869429276
 20
11.4749188109
 10
16.4891498587
 20
11.4930383145
 10
16.492455084
 20
11.51290542
 10
16.4965362905
 20
11.5325378047
 10
16.5009582626
 20
11.550102766
  0
LINE
  5
268
100
AcDbEntity
  8
0
100
AcDbLine
 62
7
  6
CONTINUOUS
 10
16.3578451648
 20
10.960589761
 11
16.3586047474
 21
10.968758715
  0
LINE
  5
269
100
AcDbEntity
  8
0
100
AcDbLine
 62
7
  6
CONTINUOUS
 10
16.4788783265
 20
11.3522532158
 11
16.4796379091
 21
11.3604221699
  0
LINE
  5
26A
100
AcDbEntity
  8
0
100
AcDbLine
 62
7
  6
CONTINUOUS
 10
16.2752227296
 20
10.8201047522
 11
16.2755994342
 21
10.8226818529
  0
LWPOLYLINE
  5
26B
100
AcDbEntity
  8
0
100
AcDbPolyline
 62
7
  6
CONTINUOUS
 90
3
 70
0
 10
17.1412374195
 20
13.6205949517
 10
17.1429457868
 20
13.6244102434
 10
17.1435841674
 20
13.6256302904
  0
LWPOLYLINE
  5
26C
100
AcDbEntity
  8
0
100
AcDbPolyline
 62
7
  6
CONTINUOUS
 90
3
 70
0
 10
17.0202042578
 20
13.2289314969
 10
17.0219126251
 20
13.2327467886
 10
17.0225510057
 20
13.2339668356
  0
LINE
  5
26D
100
AcDbEntity
  8
0
100
AcDbLine
 62
7
  6
CONTINUOUS
 10
17.118921824
 20
13.5502943317
 11
17.1409285257
 21
13.5502943317
  0
LINE
  5
26E
100
AcDbEntity
  8
0
100
AcDbLine
 62
7
  6
CONTINUOUS
 10
16.6006678212
 20
11.7520314579
 11
16.6072772296
 21
11.8578643869
  0
LINE
  5
26F
100
AcDbEntity
  8
0
100
AcDbLine
 62
7
  6
CONTINUOUS
 10
16.7217009829
 20
12.1436949127
 11
16.7283103913
 21
12.2495278417
  0
LWPOLYLINE
  5
270
100
AcDbEntity
  8
0
100
AcDbPolyline
 62
7
  6
CONTINUOUS
 90
6
 70
0
 10
16.6072784564
 20
11.8578867751
 10
16.6079760893
 20
11.8665822657
 10
16.6101830204
 20
11.8847017693
 10
16.6134882457
 20
11.9045688748
 10
16.6175694522
 20
11.9242012596
 10
16.6219914243
 20
11.9417662208
  0
LWPOLYLINE
  5
271
100
AcDbEntity
  8
0
100
AcDbPolyline
 62
7
  6
CONTINUOUS
 90
6
 70
0
 10
16.7283116181
 20
12.24955023
 10
16.729009251
 20
12.2582457205
 10
16.7312161821
 20
12.2763652241
 10
16.7345214074
 20
12.2962323296
 10
16.7386026139
 20
12.3158647144
 10
16.743024586
 20
12.3334296756
  0
LINE
  5
272
100
AcDbEntity
  8
0
100
AcDbLine
 62
7
  6
CONTINUOUS
 10
16.5999114882
 20
11.7439166706
 11
16.6006710708
 21
11.7520856247
  0
LINE
  5
273
100
AcDbEntity
  8
0
100
AcDbLine
 62
7
  6
CONTINUOUS
 10
16.7209446499
 20
12.1355801255
 11
16.7217042325
 21
12.1437490795
  0
LWPOLYLINE
  5
274
100
AcDbEntity
  8
0
100
AcDbPolyline
 62
7
  6
CONTINUOUS
 90
3
 70
0
 10
16.3527238807
 20
10.9335525955
 10
16.3556987385
 20
10.9468620139
 10
16.3578451648
 20
10.960589761
  0
LWPOLYLINE
  5
275
100
AcDbEntity
  8
0
100
AcDbPolyline
 62
7
  6
CONTINUOUS
 90
3
 70
0
 10
16.4737570424
 20
11.3252160503
 10
16.4767319002
 20
11.3385254687
 10
16.4788783265
 20
11.3522532158
  0
LWPOLYLINE
  5
276
100
AcDbEntity
  8
0
100
AcDbPolyline
 62
7
  6
CONTINUOUS
 90
3
 70
0
 10
16.5947902041
 20
11.7168795051
 10
16.597765062
 20
11.7301889235
 10
16.5999114882
 20
11.7439166706
  0
LWPOLYLINE
  5
277
100
AcDbEntity
  8
0
100
AcDbPolyline
 62
7
  6
CONTINUOUS
 90
3
 70
0
 10
16.7158233658
 20
12.1085429599
 10
16.7187982237
 20
12.1218523783
 10
16.7209446499
 20
12.1355801255
  0
LINE
  5
278
100
AcDbEntity
  8
0
100
AcDbLine
 62
7
  6
CONTINUOUS
 10
16.350855232
 20
10.9269567249
 11
16.3527238807
 21
10.9335525955
  0
LINE
  5
279
100
AcDbEntity
  8
0
100
AcDbLine
 62
7
  6
CONTINUOUS
 10
16.4718883937
 20
11.3186201797
 11
16.4737570424
 21
11.3252160503
  0
LINE
  5
27A
100
AcDbEntity
  8
0
100
AcDbLine
 62
7
  6
CONTINUOUS
 10
16.5929215554
 20
11.7102836345
 11
16.5947902041
 21
11.7168795051
  0
LINE
  5
27B
100
AcDbEntity
  8
0
100
AcDbLine
 62
7
  6
CONTINUOUS
 10
16.7139547171
 20
12.1019470893
 11
16.7158233658
 21
12.1085429599
  0
LINE
  5
27C
100
AcDbEntity
  8
0
100
AcDbLine
 62
7
  6
CONTINUOUS
 10
16.8349878788
 20
12.4936105441
 11
16.8368565275
 21
12.5002064147
  0
LINE
  5
27D
100
AcDbEntity
  8
0
100
AcDbLine
 62
7
  6
CONTINUOUS
 10
16.9560210405
 20
12.8852739989
 11
16.9578896892
 21
12.8918698695
  0
LINE
  5
27E
100
AcDbEntity
  8
0
100
AcDbLine
 62
7
  6
CONTINUOUS
 10
16.3799251009
 20
11.1584393111
 11
16.3823807059
 21
11.1668522192
  0
LINE
  5
27F
100
AcDbEntity
  8
0
100
AcDbLine
 62
7
  6
CONTINUOUS
 10
16.5009582626
 20
11.550102766
 11
16.5034138676
 21
11.558515674
  0
LINE
  5
280
100
AcDbEntity
  8
0
100
AcDbLine
 62
7
  6
CONTINUOUS
 10
16.6219914243
 20
11.9417662208
 11
16.6244470293
 21
11.9501791288
  0
LINE
  5
281
100
AcDbEntity
  8
0
100
AcDbLine
 62
7
  6
CONTINUOUS
 10
16.743024586
 20
12.3334296756
 11
16.745480191
 21
12.3418425836
  0
LINE
  5
282
100
AcDbEntity
  8
0
100
AcDbLine
 62
7
  6
CONTINUOUS
 10
16.8640577477
 20
12.7250931304
 11
16.8665133527
 21
12.7335060384
  0
LINE
  5
283
100
AcDbEntity
  8
0
100
AcDbLine
 62
7
  6
CONTINUOUS
 10
16.9850909094
 20
13.1167565852
 11
16.9875465144
 21
13.1251694933
  0
LINE
  5
284
100
AcDbEntity
  8
0
100
AcDbLine
 62
7
  6
CONTINUOUS
 10
17.1061240711
 20
13.50842004
 11
17.1085796761
 21
13.5168329481
  0
LINE
  5
285
100
AcDbEntity
  8
0
100
AcDbLine
 62
7
  6
CONTINUOUS
 10
17.2271572328
 20
13.9000834948
 11
17.2296128378
 21
13.9084964029
  0
LINE
  5
286
100
AcDbEntity
  8
0
100
AcDbLine
 62
7
  6
CONTINUOUS
 10
17.2296183642
 20
13.9085084672
 11
17.2434941444
 21
13.9534105082
  0
LINE
  5
287
100
AcDbEntity
  8
0
100
AcDbLine
 62
7
  6
CONTINUOUS
 10
16.3231123419
 20
10.8371792096
 11
16.3508639041
 21
10.9269832978
  0
LINE
  5
288
100
AcDbEntity
  8
0
100
AcDbLine
 62
7
  6
CONTINUOUS
 10
16.4441455036
 20
11.2288426644
 11
16.4718970658
 21
11.3186467526
  0
LINE
  5
289
100
AcDbEntity
  8
0
100
AcDbLine
 62
7
  6
CONTINUOUS
 10
16.5651786653
 20
11.6205061192
 11
16.5929302275
 21
11.7103102075
  0
LINE
  5
28A
100
AcDbEntity
  8
0
100
AcDbLine
 62
7
  6
CONTINUOUS
 10
16.686211827
 20
12.012169574
 11
16.7139633892
 21
12.1019736623
  0
LINE
  5
28B
100
AcDbEntity
  8
0
100
AcDbLine
 62
7
  6
CONTINUOUS
 10
16.8072449887
 20
12.4038330288
 11
16.8349965509
 21
12.4936371171
  0
LINE
  5
28C
100
AcDbEntity
  8
0
100
AcDbLine
 62
7
  6
CONTINUOUS
 10
16.9282781504
 20
12.7954964836
 11
16.9560297126
 21
12.8853005719
  0
LINE
  5
28D
100
AcDbEntity
  8
0
100
AcDbLine
 62
7
  6
CONTINUOUS
 10
17.0493113121
 20
13.1871599385
 11
17.0770628743
 21
13.2769640267
  0
LINE
  5
28E
100
AcDbEntity
  8
0
100
AcDbLine
 62
7
  6
CONTINUOUS
 10
17.1703444738
 20
13.5788233933
 11
17.198096036
 21
13.6686274815
  0
LINE
  5
28F
100
AcDbEntity
  8
0
100
AcDbLine
 62
7
  6
CONTINUOUS
 10
17.1085852025
 20
13.5168450124
 11
17.1366920225
 21
13.6077897319
  0
LINE
  5
290
100
AcDbEntity
  8
0
100
AcDbLine
 62
7
  6
CONTINUOUS
 10
16.9875520408
 20
13.1251815576
 11
17.0156588608
 21
13.2161262771
  0
LINE
  5
291
100
AcDbEntity
  8
0
100
AcDbLine
 62
7
  6
CONTINUOUS
 10
16.8665188791
 20
12.7335181027
 11
16.8946256991
 21
12.8244628223
  0
LINE
  5
292
100
AcDbEntity
  8
0
100
AcDbLine
 62
7
  6
CONTINUOUS
 10
16.7454857174
 20
12.3418546479
 11
16.7735925374
 21
12.4327993674
  0
LINE
  5
293
100
AcDbEntity
  8
0
100
AcDbLine
 62
7
  6
CONTINUOUS
 10
16.6244525557
 20
11.9501911931
 11
16.6525593757
 21
12.0411359126
  0
LINE
  5
294
100
AcDbEntity
  8
0
100
AcDbLine
 62
7
  6
CONTINUOUS
 10
16.503419394
 20
11.5585277383
 11
16.531526214
 21
11.6494724578
  0
LINE
  5
295
100
AcDbEntity
  8
0
100
AcDbLine
 62
7
  6
CONTINUOUS
 10
16.3823862323
 20
11.1668642835
 11
16.4104930523
 21
11.257809003
  0
LINE
  5
296
100
AcDbEntity
  8
0
100
AcDbLine
 62
7
  6
CONTINUOUS
 10
16.2759886486
 20
10.8225615765
 11
16.2894598906
 21
10.8661455482
  0
LINE
  5
297
100
AcDbEntity
  8
0
100
AcDbLine
 62
7
  6
CONTINUOUS
 10
17.1690782594
 20
13.5749648097
 11
17.1703494004
 21
13.5788406062
  0
LINE
  5
298
100
AcDbEntity
  8
0
100
AcDbLine
 62
7
  6
CONTINUOUS
 10
17.0480450977
 20
13.1833013549
 11
17.0493162387
 21
13.1871771514
  0
LINE
  5
299
100
AcDbEntity
  8
0
100
AcDbLine
 62
7
  6
CONTINUOUS
 10
16.927011936
 20
12.7916379001
 11
16.928283077
 21
12.7955136966
  0
LINE
  5
29A
100
AcDbEntity
  8
0
100
AcDbLine
 62
7
  6
CONTINUOUS
 10
16.8059787743
 20
12.3999744453
 11
16.8072499153
 21
12.4038502418
  0
LINE
  5
29B
100
AcDbEntity
  8
0
100
AcDbLine
 62
7
  6
CONTINUOUS
 10
16.6849456126
 20
12.0083109905
 11
16.6862167536
 21
12.012186787
  0
LINE
  5
29C
100
AcDbEntity
  8
0
100
AcDbLine
 62
7
  6
CONTINUOUS
 10
16.5639124509
 20
11.6166475357
 11
16.5651835919
 21
11.6205233322
  0
LINE
  5
29D
100
AcDbEntity
  8
0
100
AcDbLine
 62
7
  6
CONTINUOUS
 10
16.4428792892
 20
11.2249840809
 11
16.4441504302
 21
11.2288598773
  0
LINE
  5
29E
100
AcDbEntity
  8
0
100
AcDbLine
 62
7
  6
CONTINUOUS
 10
16.3218461275
 20
10.833320626
 11
16.3231172685
 21
10.8371964225
  0
LWPOLYLINE
  5
29F
100
AcDbEntity
  8
0
100
AcDbPolyline
 62
7
  6
CONTINUOUS
 90
3
 70
0
 10
17.1366920225
 20
13.6077897319
 10
17.1390833038
 20
13.6149548296
 10
17.1412374195
 20
13.6205949517
  0
LWPOLYLINE
  5
2A0
100
AcDbEntity
  8
0
100
AcDbPolyline
 62
7
  6
CONTINUOUS
 90
3
 70
0
 10
17.0156588608
 20
13.2161262771
 10
17.0180501421
 20
13.2232913748
 10
17.0202042578
 20
13.2289314969
  0
LWPOLYLINE
  5
2A1
100
AcDbEntity
  8
0
100
AcDbPolyline
 62
7
  6
CONTINUOUS
 90
3
 70
0
 10
16.8946256991
 20
12.8244628223
 10
16.8970169804
 20
12.8316279199
 10
16.8991710961
 20
12.8372680421
  0
LWPOLYLINE
  5
2A2
100
AcDbEntity
  8
0
100
AcDbPolyline
 62
7
  6
CONTINUOUS
 90
3
 70
0
 10
16.7735925374
 20
12.4327993674
 10
16.7759838187
 20
12.4399644651
 10
16.7781379344
 20
12.4456045873
  0
LWPOLYLINE
  5
2A3
100
AcDbEntity
  8
0
100
AcDbPolyline
 62
7
  6
CONTINUOUS
 90
3
 70
0
 10
16.6525593757
 20
12.0411359126
 10
16.654950657
 20
12.0483010103
 10
16.6571047727
 20
12.0539411325
  0
LWPOLYLINE
  5
2A4
100
AcDbEntity
  8
0
100
AcDbPolyline
 62
7
  6
CONTINUOUS
 90
3
 70
0
 10
16.531526214
 20
11.6494724578
 10
16.5339174953
 20
11.6566375555
 10
16.536071611
 20
11.6622776777
  0
LWPOLYLINE
  5
2A5
100
AcDbEntity
  8
0
100
AcDbPolyline
 62
7
  6
CONTINUOUS
 90
3
 70
0
 10
16.4104930523
 20
11.257809003
 10
16.4128843336
 20
11.2649741007
 10
16.4150384493
 20
11.2706142229
  0
LWPOLYLINE
  5
2A6
100
AcDbEntity
  8
0
100
AcDbPolyline
 62
7
  6
CONTINUOUS
 90
3
 70
0
 10
16.2894598906
 20
10.8661455482
 10
16.2918511719
 20
10.8733106459
 10
16.2940052876
 20
10.878950768
  0
LWPOLYLINE
  5
2A7
100
AcDbEntity
  8
0
100
AcDbPolyline
 62
7
  6
CONTINUOUS
 90
3
 70
0
 10
16.8991710961
 20
12.8372680421
 10
16.9008794634
 20
12.8410833338
 10
16.901517844
 20
12.8423033808
  0
LWPOLYLINE
  5
2A8
100
AcDbEntity
  8
0
100
AcDbPolyline
 62
7
  6
CONTINUOUS
 90
3
 70
0
 10
16.7781379344
 20
12.4456045873
 10
16.7798463017
 20
12.4494198789
 10
16.7804846823
 20
12.450639926
  0
LWPOLYLINE
  5
2A9
100
AcDbEntity
  8
0
100
AcDbPolyline
 62
7
  6
CONTINUOUS
 90
3
 70
0
 10
16.6571047727
 20
12.0539411325
 10
16.65881314
 20
12.0577564241
 10
16.6594515206
 20
12.0589764712
  0
LWPOLYLINE
  5
2AA
100
AcDbEntity
  8
0
100
AcDbPolyline
 62
7
  6
CONTINUOUS
 90
3
 70
0
 10
16.536071611
 20
11.6622776777
 10
16.5377799783
 20
11.6660929693
 10
16.5384183589
 20
11.6673130164
  0
LINE
  5
2AB
100
AcDbEntity
  8
0
100
AcDbLine
 62
7
  6
CONTINUOUS
 10
16.8427341446
 20
12.5353583675
 11
16.849343553
 21
12.6411912965
  0
LINE
  5
2AC
100
AcDbEntity
  8
0
100
AcDbLine
 62
7
  6
CONTINUOUS
 10
16.9637673063
 20
12.9270218223
 11
16.9703767147
 21
13.0328547513
  0
LWPOLYLINE
  5
2AD
100
AcDbEntity
  8
0
100
AcDbPolyline
 62
7
  6
CONTINUOUS
 90
6
 70
0
 10
16.8493447798
 20
12.6412136848
 10
16.8500424127
 20
12.6499091753
 10
16.8522493439
 20
12.6680286789
 10
16.8555545691
 20
12.6878957844
 10
16.8596357756
 20
12.7075281692
 10
16.8640577477
 20
12.7250931304
  0
LWPOLYLINE
  5
2AE
100
AcDbEntity
  8
0
100
AcDbPolyline
 62
7
  6
CONTINUOUS
 90
6
 70
0
 10
16.9703779415
 20
13.0328771396
 10
16.9710755744
 20
13.0415726302
 10
16.9732825056
 20
13.0596921337
 10
16.9765877308
 20
13.0795592392
 10
16.9806689373
 20
13.099191624
 10
16.9850909094
 20
13.1167565852
  0
LINE
  5
2AF
100
AcDbEntity
  8
0
100
AcDbLine
 62
7
  6
CONTINUOUS
 10
16.8419778116
 20
12.5272435803
 11
16.8427373942
 21
12.5354125343
  0
LINE
  5
2B0
100
AcDbEntity
  8
0
100
AcDbLine
 62
7
  6
CONTINUOUS
 10
16.9630109733
 20
12.9189070351
 11
16.9637705559
 21
12.9270759891
  0
LWPOLYLINE
  5
2B1
100
AcDbEntity
  8
0
100
AcDbPolyline
 62
7
  6
CONTINUOUS
 90
3
 70
0
 10
16.8368565275
 20
12.5002064147
 10
16.8398313854
 20
12.5135158332
 10
16.8419778116
 20
12.5272435803
  0
LWPOLYLINE
  5
2B2
100
AcDbEntity
  8
0
100
AcDbPolyline
 62
7
  6
CONTINUOUS
 90
3
 70
0
 10
16.9578896892
 20
12.8918698695
 10
16.9608645471
 20
12.905179288
 10
16.9630109733
 20
12.9189070351
  0
LWPOLYLINE
  5
2B3
100
AcDbEntity
  8
0
100
AcDbPolyline
 62
7
  6
CONTINUOUS
 90
3
 70
0
 10
17.0789228509
 20
13.2835333243
 10
17.0818977088
 20
13.2968427428
 10
17.084044135
 20
13.3105704899
  0
LWPOLYLINE
  5
2B4
100
AcDbEntity
  8
0
100
AcDbPolyline
 62
7
  6
CONTINUOUS
 90
3
 70
0
 10
17.1999560126
 20
13.6751967792
 10
17.2029308705
 20
13.6885061976
 10
17.2050772967
 20
13.7022339447
  0
LINE
  5
2B5
100
AcDbEntity
  8
0
100
AcDbLine
 62
7
  6
CONTINUOUS
 10
17.0770542023
 20
13.2769374537
 11
17.0789228509
 21
13.2835333243
  0
LINE
  5
2B6
100
AcDbEntity
  8
0
100
AcDbLine
 62
7
  6
CONTINUOUS
 10
17.198087364
 20
13.6686009086
 11
17.1999560126
 21
13.6751967792
  0
LWPOLYLINE
  5
2B7
100
AcDbEntity
  8
0
100
AcDbPolyline
 62
7
  6
CONTINUOUS
 90
3
 70
0
 10
16.4150384493
 20
11.2706142229
 10
16.4167468166
 20
11.2744295145
 10
16.4173851972
 20
11.2756495615
  0
LWPOLYLINE
  5
2B8
100
AcDbEntity
  8
0
100
AcDbPolyline
 62
7
  6
CONTINUOUS
 90
3
 70
0
 10
16.2940052876
 20
10.878950768
 10
16.2957136549
 20
10.8827660597
 10
16.2963520355
 20
10.8839861067
  0
LINE
  5
2B9
100
AcDbEntity
  8
0
100
AcDbLine
 62
7
  6
CONTINUOUS
 10
17.084800468
 20
13.3186852771
 11
17.0914098764
 21
13.4245182061
  0
LINE
  5
2BA
100
AcDbEntity
  8
0
100
AcDbLine
 62
7
  6
CONTINUOUS
 10
17.2058336297
 20
13.7103487319
 11
17.2124430381
 21
13.8161816609
  0
LWPOLYLINE
  5
2BB
100
AcDbEntity
  8
0
100
AcDbPolyline
 62
7
  6
CONTINUOUS
 90
6
 70
0
 10
17.0914111032
 20
13.4245405944
 10
17.0921087361
 20
13.433236085
 10
17.0943156673
 20
13.4513555886
 10
17.0976208925
 20
13.471222694
 10
17.101702099
 20
13.4908550788
 10
17.1061240711
 20
13.50842004
  0
LWPOLYLINE
  5
2BC
100
AcDbEntity
  8
0
100
AcDbPolyline
 62
7
  6
CONTINUOUS
 90
6
 70
0
 10
17.2124442649
 20
13.8162040492
 10
17.2131418978
 20
13.8248995398
 10
17.215348829
 20
13.8430190434
 10
17.2186540543
 20
13.8628861489
 10
17.2227352607
 20
13.8825185336
 10
17.2271572328
 20
13.9000834948
  0
LINE
  5
2BD
100
AcDbEntity
  8
0
100
AcDbLine
 62
7
  6
CONTINUOUS
 10
17.084044135
 20
13.3105704899
 11
17.0848037176
 21
13.3187394439
  0
LINE
  5
2BE
100
AcDbEntity
  8
0
100
AcDbLine
 62
7
  6
CONTINUOUS
 10
17.2050772967
 20
13.7022339447
 11
17.2058368793
 21
13.7104028987
  0
LINE
  5
2BF
100
AcDbEntity
  8
0
100
AcDbLine
 62
7
  6
CONTINUOUS
 10
17.2438647278
 20
13.9559894914
 11
17.2434880232
 21
13.9534123907
  0
LINE
  5
2C0
100
AcDbEntity
  8
0
100
AcDbLine
 62
7
  6
CONTINUOUS
 10
17.2438647278
 20
13.9559894914
 11
17.2424979866
 21
14.1032046567
  0
LINE
  5
2C1
100
AcDbEntity
  8
0
100
AcDbLine
 62
7
  6
CONTINUOUS
 10
17.1701202702
 20
14.2129581363
 11
14.6832555864
 21
14.2129581363
  0
LINE
  5
2C2
100
AcDbEntity
  8
0
100
AcDbLine
 62
7
  6
CONTINUOUS
 10
17.2375796679
 20
14.1224134611
 11
17.2007728417
 21
14.1974178871
  0
ARC
  5
2C3
100
AcDbEntity
  8
0
100
AcDbCircle
 62
7
  6
CONTINUOUS
 10
4.8609883909
 20
5.4374532301
 40
0.025
100
AcDbArc
 50
198.0
 51
270.0
  0
ARC
  5
2C4
100
AcDbEntity
  8
0
100
AcDbCircle
 62
7
  6
CONTINUOUS
 10
4.9309539192
 20
5.2221214755
 40
0.025
100
AcDbArc
 50
198.0038043687
 51
270.0011750741
  0
ARC
  5
2C5
100
AcDbEntity
  8
0
100
AcDbCircle
 62
7
  6
CONTINUOUS
 10
4.8553672762
 20
5.6974583408
 40
0.1
100
AcDbArc
 50
180.0
 51
198.0
  0
ARC
  5
2C6
100
AcDbEntity
  8
0
100
AcDbCircle
 62
7
  6
CONTINUOUS
 10
4.7803672762
 20
5.8181198968
 40
0.025
100
AcDbArc
 50
90.0
 51
180.0
  0
ARC
  5
2C7
100
AcDbEntity
  8
0
100
AcDbCircle
 62
7
  6
CONTINUOUS
 10
7.3297801201
 20
5.2221198968
 40
0.025
100
AcDbArc
 50
270.0
 51
342.0
  0
ARC
  5
2C8
100
AcDbEntity
  8
0
100
AcDbCircle
 62
7
  6
CONTINUOUS
 10
7.3997461614
 20
5.4374532301
 40
0.025
100
AcDbArc
 50
270.0
 51
342.0
  0
ARC
  5
2C9
100
AcDbEntity
  8
0
100
AcDbCircle
 62
7
  6
CONTINUOUS
 10
7.4053672762
 20
5.6974583408
 40
0.1
100
AcDbArc
 50
342.0
 51
360.0
  0
ARC
  5
2CA
100
AcDbEntity
  8
0
100
AcDbCircle
 62
7
  6
CONTINUOUS
 10
7.4803672762
 20
5.8181198968
 40
0.025
100
AcDbArc
 50
0.0
 51
90.0
  0
ARC
  5
2CB
100
AcDbEntity
  8
0
100
AcDbCircle
 62
7
  6
CONTINUOUS
 10
13.7530330324
 20
5.1914580378
 40
0.0538333333
100
AcDbArc
 50
193.0
 51
270.0
  0
ARC
  5
2CC
100
AcDbEntity
  8
0
100
AcDbCircle
 62
7
  6
CONTINUOUS
 10
13.8676774815
 20
5.1914580378
 40
0.0538333333
100
AcDbArc
 50
270.0
 51
347.0
  0
ARC
  5
2CD
100
AcDbEntity
  8
0
100
AcDbCircle
 62
7
  6
CONTINUOUS
 10
14.2530330324
 20
5.1914580378
 40
0.0538333333
100
AcDbArc
 50
193.0
 51
270.0
  0
ARC
  5
2CE
100
AcDbEntity
  8
0
100
AcDbCircle
 62
7
  6
CONTINUOUS
 10
14.3676774815
 20
5.1914580378
 40
0.0538333333
100
AcDbArc
 50
270.0
 51
347.0
  0
ARC
  5
2CF
100
AcDbEntity
  8
0
100
AcDbCircle
 62
7
  6
CONTINUOUS
 10
14.7530330324
 20
5.1914580378
 40
0.0538333333
100
AcDbArc
 50
193.0
 51
270.0
  0
ARC
  5
2D0
100
AcDbEntity
  8
0
100
AcDbCircle
 62
7
  6
CONTINUOUS
 10
14.8676774815
 20
5.1914580378
 40
0.0538333333
100
AcDbArc
 50
270.0
 51
347.0
  0
ARC
  5
2D1
100
AcDbEntity
  8
0
100
AcDbCircle
 62
7
  6
CONTINUOUS
 10
15.2530330324
 20
5.1914580378
 40
0.0538333333
100
AcDbArc
 50
193.0
 51
270.0
  0
ARC
  5
2D2
100
AcDbEntity
  8
0
100
AcDbCircle
 62
7
  6
CONTINUOUS
 10
15.3676774815
 20
5.1914580378
 40
0.0538333333
100
AcDbArc
 50
270.0
 51
347.0
  0
ARC
  5
2D3
100
AcDbEntity
  8
0
100
AcDbCircle
 62
7
  6
CONTINUOUS
 10
13.6176774815
 20
5.2991247044
 40
0.0538333333
100
AcDbArc
 50
13.0
 51
90.0
  0
ARC
  5
2D4
100
AcDbEntity
  8
0
100
AcDbCircle
 62
7
  6
CONTINUOUS
 10
14.0030330324
 20
5.2991247044
 40
0.0538333333
100
AcDbArc
 50
90.0
 51
167.0
  0
ARC
  5
2D5
100
AcDbEntity
  8
0
100
AcDbCircle
 62
7
  6
CONTINUOUS
 10
14.1176774815
 20
5.2991247044
 40
0.0538333333
100
AcDbArc
 50
13.0
 51
90.0
  0
ARC
  5
2D6
100
AcDbEntity
  8
0
100
AcDbCircle
 62
7
  6
CONTINUOUS
 10
14.5030330324
 20
5.2991247044
 40
0.0538333333
100
AcDbArc
 50
90.0
 51
167.0
  0
ARC
  5
2D7
100
AcDbEntity
  8
0
100
AcDbCircle
 62
7
  6
CONTINUOUS
 10
14.6176774815
 20
5.2991247044
 40
0.0538333333
100
AcDbArc
 50
13.0
 51
90.0
  0
ARC
  5
2D8
100
AcDbEntity
  8
0
100
AcDbCircle
 62
7
  6
CONTINUOUS
 10
15.0030330324
 20
5.2991247044
 40
0.0538333333
100
AcDbArc
 50
90.0
 51
167.0
  0
ARC
  5
2D9
100
AcDbEntity
  8
0
100
AcDbCircle
 62
7
  6
CONTINUOUS
 10
15.1176774815
 20
5.2991247044
 40
0.0538333333
100
AcDbArc
 50
13.0
 51
90.0
  0
ARC
  5
2DA
100
AcDbEntity
  8
0
100
AcDbCircle
 62
7
  6
CONTINUOUS
 10
15.5030330324
 20
5.2991247044
 40
0.0538333333
100
AcDbArc
 50
90.0
 51
167.0
  0
ARC
  5
2DB
100
AcDbEntity
  8
0
100
AcDbCircle
 62
7
  6
CONTINUOUS
 10
17.3676774815
 20
5.1914580378
 40
0.0538333333
100
AcDbArc
 50
270.0
 51
347.0
  0
ARC
  5
2DC
100
AcDbEntity
  8
0
100
AcDbCircle
 62
7
  6
CONTINUOUS
 10
17.2530330324
 20
5.1914580378
 40
0.0538333333
100
AcDbArc
 50
193.0
 51
270.0
  0
ARC
  5
2DD
100
AcDbEntity
  8
0
100
AcDbCircle
 62
7
  6
CONTINUOUS
 10
16.8676774815
 20
5.1914580378
 40
0.0538333333
100
AcDbArc
 50
270.0
 51
347.0
  0
ARC
  5
2DE
100
AcDbEntity
  8
0
100
AcDbCircle
 62
7
  6
CONTINUOUS
 10
16.7530330324
 20
5.1914580378
 40
0.0538333333
100
AcDbArc
 50
193.0
 51
270.0
  0
ARC
  5
2DF
100
AcDbEntity
  8
0
100
AcDbCircle
 62
7
  6
CONTINUOUS
 10
16.3676774815
 20
5.1914580378
 40
0.0538333333
100
AcDbArc
 50
270.0
 51
347.0
  0
ARC
  5
2E0
100
AcDbEntity
  8
0
100
AcDbCircle
 62
7
  6
CONTINUOUS
 10
16.2530330324
 20
5.1914580378
 40
0.0538333333
100
AcDbArc
 50
193.0
 51
270.0
  0
ARC
  5
2E1
100
AcDbEntity
  8
0
100
AcDbCircle
 62
7
  6
CONTINUOUS
 10
15.8676774815
 20
5.1914580378
 40
0.0538333333
100
AcDbArc
 50
270.0
 51
347.0
  0
ARC
  5
2E2
100
AcDbEntity
  8
0
100
AcDbCircle
 62
7
  6
CONTINUOUS
 10
15.7530330324
 20
5.1914580378
 40
0.0538333333
100
AcDbArc
 50
193.0
 51
270.0
  0
ARC
  5
2E3
100
AcDbEntity
  8
0
100
AcDbCircle
 62
7
  6
CONTINUOUS
 10
17.5030330324
 20
5.2991247044
 40
0.0538333333
100
AcDbArc
 50
90.0
 51
167.0
  0
ARC
  5
2E4
100
AcDbEntity
  8
0
100
AcDbCircle
 62
7
  6
CONTINUOUS
 10
17.1176774815
 20
5.2991247044
 40
0.0538333333
100
AcDbArc
 50
13.0
 51
90.0
  0
ARC
  5
2E5
100
AcDbEntity
  8
0
100
AcDbCircle
 62
7
  6
CONTINUOUS
 10
17.0030330324
 20
5.2991247044
 40
0.0538333333
100
AcDbArc
 50
90.0
 51
167.0
  0
ARC
  5
2E6
100
AcDbEntity
  8
0
100
AcDbCircle
 62
7
  6
CONTINUOUS
 10
16.6176774815
 20
5.2991247044
 40
0.0538333333
100
AcDbArc
 50
13.0
 51
90.0
  0
ARC
  5
2E7
100
AcDbEntity
  8
0
100
AcDbCircle
 62
7
  6
CONTINUOUS
 10
16.5030330324
 20
5.2991247044
 40
0.0538333333
100
AcDbArc
 50
90.0
 51
167.0
  0
ARC
  5
2E8
100
AcDbEntity
  8
0
100
AcDbCircle
 62
7
  6
CONTINUOUS
 10
16.1176774815
 20
5.2991247044
 40
0.0538333333
100
AcDbArc
 50
13.0
 51
90.0
  0
ARC
  5
2E9
100
AcDbEntity
  8
0
100
AcDbCircle
 62
7
  6
CONTINUOUS
 10
16.0030330324
 20
5.2991247044
 40
0.0538333333
100
AcDbArc
 50
90.0
 51
167.0
  0
ARC
  5
2EA
100
AcDbEntity
  8
0
100
AcDbCircle
 62
7
  6
CONTINUOUS
 10
15.6176774815
 20
5.2991247044
 40
0.0538333333
100
AcDbArc
 50
13.0
 51
90.0
  0
SPLINE
  5
2EB
100
AcDbEntity
  8
0
100
AcDbSpline
 62
7
  6
CONTINUOUS
 70
0
 71
3
 72
15
 73
11
 74
0
 42
0.0000001
 43
0.0000001
 44
0.0000000001
 40
0.0
 40
0.0
 40
0.0
 40
0.0
 40
0.129569793
 40
0.264577668
 40
0.4012662533
 40
0.5362714839
 40
0.6662151652
 40
0.7880989574
 40
0.8998129663
 40
1.0
 40
1.0
 40
1.0
 40
1.0
 10
17.1701202702
 20
14.2129581363
 30
0.0
 10
17.1716685438
 20
14.2129581363
 30
0.0
 10
17.1748325174
 20
14.2127428841
 30
0.0
 10
17.1795550399
 20
14.2118590198
 30
0.0
 10
17.1842113278
 20
14.2104315595
 30
0.0
 10
17.1886231578
 20
14.2085162348
 30
0.0
 10
17.1926293299
 20
14.2061875821
 30
0.0
 10
17.1960814191
 20
14.2035262756
 30
0.0
 10
17.1988472442
 20
14.2006301976
 30
0.0
 10
17.2002454376
 20
14.1984926236
 30
0.0
 10
17.2007728417
 20
14.1974178871
 30
0.0
  0
SPLINE
  5
2EC
100
AcDbEntity
  8
0
100
AcDbSpline
 62
7
  6
CONTINUOUS
 70
0
 71
3
 72
15
 73
11
 74
0
 42
0.0000001
 43
0.0000001
 44
0.0000000001
 40
0.0
 40
0.0
 40
0.0
 40
0.0
 40
0.0996450325
 40
0.2028710621
 40
0.3125932895
 40
0.4308545583
 40
0.5588107256
 40
0.6968277447
 40
0.8443971425
 40
1.0
 40
1.0
 40
1.0
 40
1.0
 10
14.6669960806
 20
14.2047990836
 30
0.0
 10
14.6671861959
 20
14.2054143179
 30
0.0
 10
14.6677248457
 20
14.2066252501
 30
0.0
 10
14.6689558373
 20
14.2082461825
 30
0.0
 10
14.6705792066
 20
14.2096613523
 30
0.0
 10
14.6725633371
 20
14.2108454223
 30
0.0
 10
14.6748708607
 20
14.2117840595
 30
0.0
 10
14.6774624906
 20
14.2124627626
 30
0.0
 10
14.6802893927
 20
14.2128704412
 30
0.0
 10
14.6822500299
 20
14.2129581363
 30
0.0
 10
14.6832555864
 20
14.2129581363
 30
0.0
  0
SPLINE
  5
2ED
100
AcDbEntity
  8
0
100
AcDbSpline
 62
7
  6
CONTINUOUS
 70
0
 71
3
 72
11
 73
7
 74
0
 42
0.0000001
 43
0.0000001
 44
0.0000000001
 40
0.0
 40
0.0
 40
0.0
 40
0.0
 40
0.2336912184
 40
0.4747256633
 40
0.7289541255
 40
1.0
 40
1.0
 40
1.0
 40
1.0
 10
13.698730787
 20
11.0714914451
 30
0.0
 10
13.6985559329
 20
11.0709255978
 30
0.0
 10
13.6983256257
 20
11.069733454
 30
0.0
 10
13.6983679464
 20
11.0678741785
 30
0.0
 10
13.6987857408
 20
11.0659669947
 30
0.0
 10
13.6992871987
 20
11.0647269148
 30
0.0
 10
13.6995898145
 20
11.0641102486
 30
0.0
  0
SPLINE
  5
2EE
100
AcDbEntity
  8
0
100
AcDbSpline
 62
7
  6
CONTINUOUS
 70
0
 71
3
 72
10
 73
6
 74
0
 42
0.0000001
 43
0.0000001
 44
0.0000000001
 40
0.0
 40
0.0
 40
0.0
 40
0.0
 40
0.5198834828
 40
0.7641608802
 40
1.0
 40
1.0
 40
1.0
 40
1.0
 10
17.2375796679
 20
14.1224134611
 30
0.0
 10
17.2391042918
 20
14.1193066043
 30
0.0
 10
17.2409472851
 20
14.1145129976
 30
0.0
 10
17.2422440799
 20
14.1079720038
 30
0.0
 10
17.2424834119
 20
14.1047745344
 30
0.0
 10
17.2424979866
 20
14.1032046567
 30
0.0
  0
SPLINE
  5
2EF
100
AcDbEntity
  8
0
100
AcDbSpline
 62
7
  6
CONTINUOUS
 70
0
 71
3
 72
14
 73
10
 74
0
 42
0.0000001
 43
0.0000001
 44
0.0000000001
 40
0.0
 40
0.0
 40
0.0
 40
0.0
 40
0.1556617018
 40
0.3032888668
 40
0.5688000869
 40
0.6870994226
 40
0.7968474422
 40
0.9001596438
 40
1.0
 40
1.0
 40
1.0
 40
1.0
 10
16.2589693763
 20
10.8119438048
 30
0.0
 10
16.2599747378
 20
10.8119438048
 30
0.0
 10
16.2619358927
 20
10.8120314993
 30
0.0
 10
16.2655735851
 20
10.8125562204
 30
0.0
 10
16.2688938497
 20
10.8136001175
 30
0.0
 10
16.2716436562
 20
10.8152388625
 30
0.0
 10
16.2732679395
 20
10.8166528921
 30
0.0
 10
16.2744993954
 20
10.8182746988
 30
0.0
 10
16.2750372742
 20
10.8194871433
 30
0.0
 10
16.2752275289
 20
10.8201032695
 30
0.0
  0
SPLINE
  5
2F0
100
AcDbEntity
  8
0
100
AcDbSpline
 62
7
  6
CONTINUOUS
 70
0
 71
3
 72
15
 73
11
 74
0
 42
0.0000001
 43
0.0000001
 44
0.0000000001
 40
0.0
 40
0.0
 40
0.0
 40
0.0
 40
0.1121032776
 40
0.231771912
 40
0.3571213729
 40
0.4862728584
 40
0.6172593192
 40
0.7480172259
 40
0.8764053167
 40
1.0
 40
1.0
 40
1.0
 40
1.0
 10
13.8934496256
 20
10.8226818529
 30
0.0
 10
13.8942286483
 20
10.8218805322
 30
0.0
 10
13.8959542669
 20
10.8203335877
 30
0.0
 10
13.8988603228
 20
10.8182660926
 30
0.0
 10
13.902111239
 20
10.8164243993
 30
0.0
 10
13.9056229496
 20
10.8148502669
 30
0.0
 10
13.9093135839
 20
10.8135831107
 30
0.0
 10
13.9130950141
 20
10.8126505847
 30
0.0
 10
13.9168730885
 20
10.8120808117
 30
0.0
 10
13.9193864776
 20
10.8119438048
 30
0.0
 10
13.9206186207
 20
10.8119438048
 30
0.0
  0
SPLINE
  5
2F1
100
AcDbEntity
  8
0
100
AcDbSpline
 62
7
  6
CONTINUOUS
 70
0
 71
3
 72
9
 73
5
 74
0
 42
0.0000001
 43
0.0000001
 44
0.0000000001
 40
0.0
 40
0.0
 40
0.0
 40
0.0
 40
0.4779587883
 40
1.0
 40
1.0
 40
1.0
 40
1.0
 10
13.7363966408
 20
10.9891058226
 30
0.0
 10
13.7380673363
 20
10.9857013032
 30
0.0
 10
13.7422618881
 20
10.9789127666
 30
0.0
 10
13.7474436321
 20
10.9728669759
 30
0.0
 10
13.7503309463
 20
10.9698970182
 30
0.0
  0
SPLINE
  5
2F2
100
AcDbEntity
  8
0
100
AcDbSpline
 62
7
  6
CONTINUOUS
 70
0
 71
3
 72
15
 73
11
 74
0
 42
0.0000001
 43
0.0000001
 44
0.0000000001
 40
0.0
 40
0.0
 40
0.0
 40
0.0
 40
0.1001870337
 40
0.2119010426
 40
0.3337848348
 40
0.4637285161
 40
0.5987337467
 40
0.735422332
 40
0.870430207
 40
1.0
 40
1.0
 40
1.0
 40
1.0
 10
16.232507548
 20
11.0641102486
 30
0.0
 10
16.231980144
 20
11.0651849851
 30
0.0
 10
16.2305819506
 20
11.0673225591
 30
0.0
 10
16.2278161255
 20
11.0702186371
 30
0.0
 10
16.2243640363
 20
11.0728799436
 30
0.0
 10
16.2203578642
 20
11.0752085963
 30
0.0
 10
16.2159460342
 20
11.0771239209
 30
0.0
 10
16.2112897463
 20
11.0785513813
 30
0.0
 10
16.2065672238
 20
11.0794352456
 30
0.0
 10
16.2034032502
 20
11.0796504978
 30
0.0
 10
16.2018549765
 20
11.0796504978
 30
0.0
  0
SPLINE
  5
2F3
100
AcDbEntity
  8
0
100
AcDbSpline
 62
7
  6
CONTINUOUS
 70
0
 71
3
 72
15
 73
11
 74
0
 42
0.0000001
 43
0.0000001
 44
0.0000000001
 40
0.0
 40
0.0
 40
0.0
 40
0.0
 40
0.1556028575
 40
0.3031722553
 40
0.4411892744
 40
0.5691454417
 40
0.6874067105
 40
0.7971289379
 40
0.9003549675
 40
1.0
 40
1.0
 40
1.0
 40
1.0
 10
13.7149902927
 20
11.0796504978
 30
0.0
 10
13.7139847363
 20
11.0796504978
 30
0.0
 10
13.7120240991
 20
11.0795628027
 30
0.0
 10
13.709197197
 20
11.0791551241
 30
0.0
 10
13.7066055671
 20
11.078476421
 30
0.0
 10
13.7042980435
 20
11.0775377838
 30
0.0
 10
13.7023139129
 20
11.0763537138
 30
0.0
 10
13.7006905437
 20
11.074938544
 30
0.0
 10
13.6994595521
 20
11.0733176115
 30
0.0
 10
13.6989209022
 20
11.0721066794
 30
0.0
 10
13.698730787
 20
11.0714914451
 30
0.0
  0
SPLINE
  5
2F4
100
AcDbEntity
  8
0
100
AcDbSpline
 62
7
  6
CONTINUOUS
 70
0
 71
3
 72
10
 73
6
 74
0
 42
0.0000001
 43
0.0000001
 44
0.0000000001
 40
0.0
 40
0.0
 40
0.0
 40
0.0
 40
0.2358391198
 40
0.4801165172
 40
1.0
 40
1.0
 40
1.0
 40
1.0
 10
16.274232693
 20
10.9698970182
 30
0.0
 10
16.2742181183
 20
10.9714668958
 30
0.0
 10
16.2739787863
 20
10.9746643653
 30
0.0
 10
16.2726819915
 20
10.9812053591
 30
0.0
 10
16.2708389982
 20
10.9859989658
 30
0.0
 10
16.2693143743
 20
10.9891058226
 30
0.0
  0
ENDSEC
  0
SECTION
  2
OBJECTS
  0
DICTIONARY
  5
C
100
AcDbDictionary
280
0
281
1
  3
ACAD_GROUP
350
D
  3
ACAD_MLINESTYLE
350
17
  3
ACAD_LAYOUT
350
1A
  3
ACAD_PLOTSETTINGS
350
19
  3
ACAD_PLOTSTYLENAME
350
E
  0
DICTIONARY
  5
D
102
{ACAD_REACTORS
330
C
102
}
100
AcDbDictionary
280
0
281
1
  0
ACDBDICTIONARYWDFLT
  5
E
102
{ACAD_REACTORS
330
C
102
}
100
AcDbDictionary
281
1
  3
Normal
350
F
100
AcDbDictionaryWithDefault
340
F
  0
DICTIONARY
  5
17
102
{ACAD_REACTORS
330
C
102
}
100
AcDbDictionary
280
0
281
1
  3
Standard
350
18
  0
DICTIONARY
  5
19
102
{ACAD_REACTORS
330
C
102
}
100
AcDbDictionary
281
1
  0
DICTIONARY
  5
1A
102
{ACAD_REACTORS
330
C
102
}
100
AcDbDictionary
281
1
  3
Model
350
2F5
  3
Layout1
350
2F6
  0
ACDBPLACEHOLDER
  5
F
102
{ACAD_REACTORS
330
E
102
}
  0
MLINESTYLE
  5
18
102
{ACAD_REACTORS
330
17
102
}
100
AcDbMlineStyle
  2
STANDARD
 70
0
  3

 62
256
 51
90.0
 52
90.0
 71
2
 49
0.5
 62
256
  6
BYLAYER
 49
-0.5
 62
256
  6
BYLAYER
  0
LAYOUT
  5
2F5
102
{ACAD_REACTORS
330
1A
102
}
100
AcDbPlotSettings
  1

  2
none_device
  4
ANSI_C_(22.00_x_17.00_Inches)
  6

 40
0.0
 41
0.0
 42
0.0
 43
0.0
 44
558.8
 45
431.8
 46
0.0
 47
0.0
 48
0.0
 49
0.0
140
0.0
141
0.0
142
1.0
143
1.0
 70
1024
 72
0
 73
0
 74
0
  7

 75
0
147
1.0
148
0.0
149
0.0
100
AcDbLayout
  1
Model
 70
0
 71
0
 10
0.0
 20
0.0
 11
22.0
 21
17.0
 12
0.0
 22
0.0
 32
0.0
 14
0.0
 24
0.0
 34
0.0
 15
0.0
 25
0.0
 35
0.0
146
0.0
 13
0.0
 23
0.0
 33
0.0
 16
1.0
 26
0.0
 36
0.0
 17
0.0
 27
1.0
 37
0.0
 76
0
330
216
345
0
346
0
  0
LAYOUT
  5
2F6
102
{ACAD_REACTORS
330
1A
102
}
100
AcDbPlotSettings
  1

  2
none_device
  4
ANSI_C_(22.00_x_17.00_Inches)
  6

 40
0.0
 41
0.0
 42
0.0
 43
0.0
 44
558.8
 45
431.8
 46
0.0
 47
0.0
 48
0.0
 49
0.0
140
0.0
141
0.0
142
1.0
143
1.0
 70
0
 72
0
 73
0
 74
0
  7

 75
0
147
1.0
148
0.0
149
0.0
100
AcDbLayout
  1
Layout1
 70
0
 71
1
 10
0.0
 20
0.0
 11
22.0
 21
17.0
 12
0.0
 22
0.0
 32
0.0
 14
0.0
 24
0.0
 34
0.0
 15
0.0
 25
0.0
 35
0.0
146
0.0
 13
0.0
 23
0.0
 33
0.0
 16
1.0
 26
0.0
 36
0.0
 17
0.0
 27
1.0
 37
0.0
 76
0
330
217
345
0
346
0
  0
ENDSEC
  0
EOF