999
DXF file: _cgs_temp_output.dxf
999
Pro/ENGINEER 2015110 by Parametric Technology Corporation
  0
SECTION
  2
HEADER
  9
$ACADVER
  1
AC1021
  9
$DWGCODEPAGE
  3
ANSI_1252
  9
$EXTMAX
 10
22.0
 20
17.0
 30
0.0
  9
$EXTMIN
 10
0.0
 20
0.0
 30
0.0
  9
$LIMMIN
 10
0.0
 20
0.0
  9
$LIMMAX
 10
22.0
 20
17.0
  9
$VIEWCTR
 10
11.0
 20
8.5
  9
$VIEWSIZE
 40
17.0
  9
$CLAYER
  8
0
  9
$LTSCALE
 40
1.21
  9
$CELTYPE
  6
BYLAYER
  9
$DIMSCALE
 40
1.0
  9
$DIMASZ
 40
0.1875
  9
$DIMEXO
 40
0.0625
  9
$DIMDLI
 40
0.836
  9
$DIMEXE
 40
0.125
  9
$DIMCEN
 40
0.198
  9
$DIMLFAC
 40
1.0
  9
$DIMBLK
  1
_CLOSED
  9
$DIMALT
 70
0
  9
$DIMALTF
 40
25.4
  9
$DIMTXT
 40
0.15625
  9
$DIMTOL
 70
0
  9
$DIMLIM
 70
0
  9
$DIMTFAC
 40
1.0
  9
$DIMGAP
 40
0.09
  9
$DIMDSEP
 70
46
  9
$AUNITS
 70
0
  9
$PDMODE
 70
3
  9
$PDSIZE
 40
0.3125
  9
$HANDSEED
  5
2AE
  9
$TILEMODE
 70
1
  9
$MEASUREMENT
 70
0
  9
$INSUNITS
 70
1
  0
ENDSEC
  0
SECTION
  2
CLASSES
  0
CLASS
  1
ACDBDICTIONARYWDFLT
  2
AcDbDictionaryWithDefault
  3
AutoCAD 2000
 90
0
 91
1
280
0
281
0
  0
CLASS
  1
ACDBPLACEHOLDER
  2
AcDbPlaceHolder
  3
AutoCAD 2000
 90
0
 91
1
280
0
281
0
  0
CLASS
  1
LAYOUT
  2
AcDbLayout
  3
AutoCAD 2000
 90
0
 91
0
280
0
281
0
  0
ENDSEC
  0
SECTION
  2
TABLES
  0
TABLE
  2
VPORT
  5
8
100
AcDbSymbolTable
 70
2
  0
VPORT
  5
1F4
100
AcDbSymbolTableRecord
100
AcDbViewportTableRecord
  2
*ACTIVE
 70
0
 10
0.0
 20
0.0
 11
1.0
 21
1.0
 12
11.0
 22
8.5
 13
0.0
 23
0.0
 14
1.0
 24
1.0
 15
0.0
 25
0.0
 16
0.0
 26
0.0
 36
1.0
 17
0.0
 27
0.0
 37
0.0
 40
17.0
 41
1.2941176471
 42
50.0
 43
0.0
 44
0.0
 50
0.0
 51
0.0
 71
0
 72
100
 73
1
 74
1
 75
0
 76
0
 77
0
 78
0
  0
ENDTAB
  0
TABLE
  2
LTYPE
  5
5
100
AcDbSymbolTable
 70
6
  0
LTYPE
  5
14
100
AcDbSymbolTableRecord
100
AcDbLinetypeTableRecord
  2
BYBLOCK
 70
0
  3

 72
65
 73
0
 40
0.0
  0
LTYPE
  5
15
100
AcDbSymbolTableRecord
100
AcDbLinetypeTableRecord
  2
BYLAYER
 70
0
  3

 72
65
 73
0
 40
0.0
  0
LTYPE
  5
16
100
AcDbSymbolTableRecord
100
AcDbLinetypeTableRecord
  2
CONTINUOUS
 70
64
  3
Solid line
 72
65
 73
0
 40
0.0
  0
LTYPE
  5
1F5
100
AcDbSymbolTableRecord
100
AcDbLinetypeTableRecord
  2
CENTER
 70
64
  3
____ _ ____ _ ____ _ ____ _ ____ _ ____ _ ____
 72
65
 73
4
 40
0.6
 49
0.375
 74
0
 49
-0.075
 74
0
 49
0.075
 74
0
 49
-0.075
 74
0
  0
LTYPE
  5
1F6
100
AcDbSymbolTableRecord
100
AcDbLinetypeTableRecord
  2
HIDDEN
 70
64
  3
- - - - - - - - - - - - - - - - - - - -
 72
65
 73
2
 40
0.2
 49
0.1
 74
0
 49
-0.1
 74
0
  0
LTYPE
  5
1F7
100
AcDbSymbolTableRecord
100
AcDbLinetypeTableRecord
  2
PHANTOM
 70
64
  3
_____ _ _ _____ _ _ _____ _ _ _____
 72
65
 73
6
 40
0.8
 49
0.45
 74
0
 49
-0.05
 74
0
 49
0.1
 74
0
 49
-0.05
 74
0
 49
0.1
 74
0
 49
-0.05
 74
0
  0
LTYPE
  5
1F8
100
AcDbSymbolTableRecord
100
AcDbLinetypeTableRecord
  2
DOT
 70
64
  3
. . . . . . . . . . . . . . . . . . . .
 72
65
 73
2
 40
0.2
 49
0.1
 74
0
 49
-0.1
 74
0
  0
LTYPE
  5
1F9
100
AcDbSymbolTableRecord
100
AcDbLinetypeTableRecord
  2
DASHED
 70
64
  3
- - - - - - - - - - - - - - - - - - - -
 72
65
 73
2
 40
0.2
 49
0.1
 74
0
 49
-0.1
 74
0
  0
ENDTAB
  0
TABLE
  2
LAYER
  5
2
100
AcDbSymbolTable
 70
36
  0
LAYER
  5
10
100
AcDbSymbolTableRecord
100
AcDbLayerTableRecord
  2
0
 70
0
 62
7
  6
CONTINUOUS
370
-3
390
F
  0
LAYER
  5
1FA
100
AcDbSymbolTableRecord
100
AcDbLayerTableRecord
  2
DEFAULT_1
 70
0
 62
7
  6
CENTER
370
-3
390
F
  0
LAYER
  5
1FB
100
AcDbSymbolTableRecord
100
AcDbLayerTableRecord
  2
DEFAULT_2
 70
0
 62
8
  6
HIDDEN
370
-3
390
F
  0
LAYER
  5
1FC
100
AcDbSymbolTableRecord
100
AcDbLayerTableRecord
  2
DEFAULT_3
 70
0
 62
7
  6
PHANTOM
370
-3
390
F
  0
LAYER
  5
1FD
100
AcDbSymbolTableRecord
100
AcDbLayerTableRecord
  2
01_ALL_DTM_PLN
 70
0
 62
7
  6
CONTINUOUS
370
-3
390
F
  0
LAYER
  5
1FE
100
AcDbSymbolTableRecord
100
AcDbLayerTableRecord
  2
01__ASM_ALL_DTM_PLN
 70
0
 62
7
  6
CONTINUOUS
370
-3
390
F
  0
LAYER
  5
1FF
100
AcDbSymbolTableRecord
100
AcDbLayerTableRecord
  2
01__ASM_DEF_DTM_PLN
 70
0
 62
7
  6
CONTINUOUS
370
-3
390
F
  0
LAYER
  5
200
100
AcDbSymbolTableRecord
100
AcDbLayerTableRecord
  2
01___PRT_ALL_DTM_PLN
 70
0
 62
7
  6
CONTINUOUS
370
-3
390
F
  0
LAYER
  5
201
100
AcDbSymbolTableRecord
100
AcDbLayerTableRecord
  2
01___PRT_DEF_DTM_PLN
 70
0
 62
7
  6
CONTINUOUS
370
-3
390
F
  0
LAYER
  5
202
100
AcDbSymbolTableRecord
100
AcDbLayerTableRecord
  2
02_ALL_AXES
 70
0
 62
7
  6
CONTINUOUS
370
-3
390
F
  0
LAYER
  5
203
100
AcDbSymbolTableRecord
100
AcDbLayerTableRecord
  2
02__ASM_ALL_AXES
 70
0
 62
7
  6
CONTINUOUS
370
-3
390
F
  0
LAYER
  5
204
100
AcDbSymbolTableRecord
100
AcDbLayerTableRecord
  2
02___PRT_ALL_AXES
 70
0
 62
7
  6
CONTINUOUS
370
-3
390
F
  0
LAYER
  5
205
100
AcDbSymbolTableRecord
100
AcDbLayerTableRecord
  2
03_ALL_CURVES
 70
0
 62
7
  6
CONTINUOUS
370
-3
390
F
  0
LAYER
  5
206
100
AcDbSymbolTableRecord
100
AcDbLayerTableRecord
  2
03__ASM_ALL_CURVES
 70
0
 62
7
  6
CONTINUOUS
370
-3
390
F
  0
LAYER
  5
207
100
AcDbSymbolTableRecord
100
AcDbLayerTableRecord
  2
03___PRT_ALL_CURVES
 70
0
 62
7
  6
CONTINUOUS
370
-3
390
F
  0
LAYER
  5
208
100
AcDbSymbolTableRecord
100
AcDbLayerTableRecord
  2
04_ALL_DTM_PNT
 70
0
 62
7
  6
CONTINUOUS
370
-3
390
F
  0
LAYER
  5
209
100
AcDbSymbolTableRecord
100
AcDbLayerTableRecord
  2
04__ASM_ALL_DTM_PNT
 70
0
 62
7
  6
CONTINUOUS
370
-3
390
F
  0
LAYER
  5
20A
100
AcDbSymbolTableRecord
100
AcDbLayerTableRecord
  2
04___PRT_ALL_DTM_PNT
 70
0
 62
7
  6
CONTINUOUS
370
-3
390
F
  0
LAYER
  5
20B
100
AcDbSymbolTableRecord
100
AcDbLayerTableRecord
  2
05_ALL_DTM_CSYS
 70
0
 62
7
  6
CONTINUOUS
370
-3
390
F
  0
LAYER
  5
20C
100
AcDbSymbolTableRecord
100
AcDbLayerTableRecord
  2
05__ASM_ALL_DTM_CSYS
 70
0
 62
7
  6
CONTINUOUS
370
-3
390
F
  0
LAYER
  5
20D
100
AcDbSymbolTableRecord
100
AcDbLayerTableRecord
  2
05__ASM_DEF_DTM_CSYS
 70
0
 62
7
  6
CONTINUOUS
370
-3
390
F
  0
LAYER
  5
20E
100
AcDbSymbolTableRecord
100
AcDbLayerTableRecord
  2
05___PRT_ALL_DTM_CSYS
 70
0
 62
7
  6
CONTINUOUS
370
-3
390
F
  0
LAYER
  5
20F
100
AcDbSymbolTableRecord
100
AcDbLayerTableRecord
  2
05___PRT_DEF_DTM_CSYS
 70
0
 62
7
  6
CONTINUOUS
370
-3
390
F
  0
LAYER
  5
210
100
AcDbSymbolTableRecord
100
AcDbLayerTableRecord
  2
06_ALL_SURFS
 70
0
 62
7
  6
CONTINUOUS
370
-3
390
F
  0
LAYER
  5
211
100
AcDbSymbolTableRecord
100
AcDbLayerTableRecord
  2
06__ASM_ALL_SURFS
 70
0
 62
7
  6
CONTINUOUS
370
-3
390
F
  0
LAYER
  5
212
100
AcDbSymbolTableRecord
100
AcDbLayerTableRecord
  2
06___PRT_ALL_SURFS
 70
0
 62
7
  6
CONTINUOUS
370
-3
390
F
  0
LAYER
  5
213
100
AcDbSymbolTableRecord
100
AcDbLayerTableRecord
  2
07__ASM_ALL_SKELETONS
 70
0
 62
7
  6
CONTINUOUS
370
-3
390
F
  0
ENDTAB
  0
TABLE
  2
STYLE
  5
3
100
AcDbSymbolTable
 70
1
  0
STYLE
  5
11
100
AcDbSymbolTableRecord
100
AcDbTextStyleTableRecord
  2
STANDARD
 70
0
 40
0.0
 41
0.8
 50
0.0
 71
0
 42
0.2
  3
txt
  4

  0
STYLE
  5
214
100
AcDbSymbolTableRecord
100
AcDbTextStyleTableRecord
  2
TEXTSTYLE_1
 70
0
 40
0.0
 41
0.8
 50
0.0
 71
0
 42
0.2
  3
gdt
  4

  0
ENDTAB
  0
TABLE
  2
VIEW
  5
6
100
AcDbSymbolTable
 70
0
  0
ENDTAB
  0
TABLE
  2
UCS
  5
7
100
AcDbSymbolTable
 70
0
  0
ENDTAB
  0
TABLE
  2
APPID
  5
9
100
AcDbSymbolTable
 70
1
  0
APPID
  5
215
100
AcDbSymbolTableRecord
100
AcDbRegAppTableRecord
  2
ACAD
 70
0
  0
ENDTAB
  0
TABLE
  2
BLOCK_RECORD
  5
1
100
AcDbSymbolTable
 70
0
  0
BLOCK_RECORD
  5
216
100
AcDbSymbolTableRecord
100
AcDbBlockTableRecord
  2
*Model_Space
  0
BLOCK_RECORD
  5
217
100
AcDbSymbolTableRecord
100
AcDbBlockTableRecord
  2
*Paper_Space
  0
ENDTAB
  0
TABLE
  2
DIMSTYLE
  5
A
100
AcDbSymbolTable
 70
1
100
AcDbDimStyleTable
 71
0
  0
DIMSTYLE
105
218
100
AcDbSymbolTableRecord
100
AcDbDimStyleTableRecord
  2
STANDARD
 70
0
  3

  4

 40
1.0
 41
0.1875
 42
0.0625
 43
0.38
 44
0.125
 45
0.0
 46
0.0
 47
0.0001
 48
0.0001
140
0.15625
141
0.09
142
0.0
143
25.4
144
1.0
145
0.0
146
1.0
147
0.09
 71
0.0
 72
0.0
 73
1
 74
1
 75
0
 76
0
 77
0
 78
4
170
0
171
2
172
0
173
0
174
0
175
0
176
0
177
0
178
0
270
2
271
4
272
4
273
2
274
2
275
0
280
0
281
0
282
0
283
1
284
4
285
0
286
0
287
3
288
0
340
11
278
46
  0
ENDTAB
  0
ENDSEC
  0
SECTION
  2
BLOCKS
  0
BLOCK
  5
20
100
AcDbEntity
  8
0
100
AcDbBlockBegin
  2
*Model_Space
 70
0
 10
0.0
 20
0.0
 30
0.0
  3
*Model_Space
  1

  0
ENDBLK
  5
21
100
AcDbEntity
  8
0
100
AcDbBlockEnd
  0
BLOCK
  5
1C
100
AcDbEntity
  8
0
100
AcDbBlockBegin
  2
*Paper_Space
 70
0
 10
0.0
 20
0.0
 30
0.0
  3
*Paper_Space
  1

  0
ENDBLK
  5
1D
100
AcDbEntity
  8
0
100
AcDbBlockEnd
  0
ENDSEC
  0
SECTION
  2
ENTITIES
  0
MTEXT
  5
219
100
AcDbEntity
  8
0
100
AcDbMText
 62
7
  6
CONTINUOUS
  7
STANDARD
 71
1
 72
1
 10
15.9560215477
 20
0.9479130325
 30
0.0
 11
1.0
 21
0.0
 31
0.0
 44
0.9
  1
SCALE: 1:8.000
 40
0.3
 41
3.36
  0
LINE
  5
21A
100
AcDbEntity
  8
0
100
AcDbLine
 62
7
  6
CONTINUOUS
 10
0.0
 20
0.0
 11
0.0
 21
17.0
  0
LINE
  5
21B
100
AcDbEntity
  8
0
100
AcDbLine
 62
7
  6
CONTINUOUS
 10
0.0
 20
0.0
 11
22.0
 21
0.0
  0
LINE
  5
21C
100
AcDbEntity
  8
0
100
AcDbLine
 62
7
  6
CONTINUOUS
 10
0.0
 20
17.0
 11
22.0
 21
17.0
  0
LINE
  5
21D
100
AcDbEntity
  8
0
100
AcDbLine
 62
7
  6
CONTINUOUS
 10
22.0
 20
0.0
 11
22.0
 21
17.0
  0
LINE
  5
21E
100
AcDbEntity
  8
0
100
AcDbLine
 62
7
  6
CONTINUOUS
 10
4.2103672762
 20
5.7001198968
 11
4.2103672762
 21
5.5001198968
  0
LINE
  5
21F
100
AcDbEntity
  8
0
100
AcDbLine
 62
7
  6
CONTINUOUS
 10
4.3394588635
 20
5.4781708632
 11
4.3830040651
 21
5.373043447
  0
LINE
  5
220
100
AcDbEntity
  8
0
100
AcDbLine
 62
7
  6
CONTINUOUS
 10
4.6777304872
 20
5.373043447
 11
4.7212756888
 21
5.4781708632
  0
LINE
  5
221
100
AcDbEntity
  8
0
100
AcDbLine
 62
7
  6
CONTINUOUS
 10
4.9794588635
 20
5.4781708632
 11
5.0230040651
 21
5.373043447
  0
LINE
  5
222
100
AcDbEntity
  8
0
100
AcDbLine
 62
7
  6
CONTINUOUS
 10
5.3177304872
 20
5.373043447
 11
5.3612756888
 21
5.4781708632
  0
LINE
  5
223
100
AcDbEntity
  8
0
100
AcDbLine
 62
7
  6
CONTINUOUS
 10
5.6194588635
 20
5.4781708632
 11
5.6630040651
 21
5.373043447
  0
LINE
  5
224
100
AcDbEntity
  8
0
100
AcDbLine
 62
7
  6
CONTINUOUS
 10
4.4322776402
 20
5.3401198968
 11
4.6284569122
 21
5.3401198968
  0
LINE
  5
225
100
AcDbEntity
  8
0
100
AcDbLine
 62
7
  6
CONTINUOUS
 10
5.0722776402
 20
5.3401198968
 11
5.2684569122
 21
5.3401198968
  0
LINE
  5
226
100
AcDbEntity
  8
0
100
AcDbLine
 62
7
  6
CONTINUOUS
 10
5.7122776402
 20
5.3401198968
 11
5.9084569122
 21
5.3401198968
  0
LINE
  5
227
100
AcDbEntity
  8
0
100
AcDbLine
 62
7
  6
CONTINUOUS
 10
6.3522776402
 20
5.3401198968
 11
6.5484569122
 21
5.3401198968
  0
LINE
  5
228
100
AcDbEntity
  8
0
100
AcDbLine
 62
7
  6
CONTINUOUS
 10
6.9922776402
 20
5.3401198968
 11
7.1884569122
 21
5.3401198968
  0
LINE
  5
229
100
AcDbEntity
  8
0
100
AcDbLine
 62
7
  6
CONTINUOUS
 10
7.6322776402
 20
5.3401198968
 11
7.8284569122
 21
5.3401198968
  0
LINE
  5
22A
100
AcDbEntity
  8
0
100
AcDbLine
 62
7
  6
CONTINUOUS
 10
5.9577304872
 20
5.373043447
 11
6.0012756888
 21
5.4781708632
  0
LINE
  5
22B
100
AcDbEntity
  8
0
100
AcDbLine
 62
7
  6
CONTINUOUS
 10
4.2103672762
 20
5.5001198968
 11
4.3066098135
 21
5.5001198968
  0
LINE
  5
22C
100
AcDbEntity
  8
0
100
AcDbLine
 62
7
  6
CONTINUOUS
 10
4.7541247388
 20
5.5001198968
 11
4.9466098135
 21
5.5001198968
  0
LINE
  5
22D
100
AcDbEntity
  8
0
100
AcDbLine
 62
7
  6
CONTINUOUS
 10
5.3941247388
 20
5.5001198968
 11
5.5866098135
 21
5.5001198968
  0
LINE
  5
22E
100
AcDbEntity
  8
0
100
AcDbLine
 62
7
  6
CONTINUOUS
 10
6.0341247388
 20
5.5001198968
 11
6.2266098135
 21
5.5001198968
  0
LINE
  5
22F
100
AcDbEntity
  8
0
100
AcDbLine
 62
7
  6
CONTINUOUS
 10
6.6741247388
 20
5.5001198968
 11
6.8666098135
 21
5.5001198968
  0
LINE
  5
230
100
AcDbEntity
  8
0
100
AcDbLine
 62
7
  6
CONTINUOUS
 10
7.3141247388
 20
5.5001198968
 11
7.5066098135
 21
5.5001198968
  0
LINE
  5
231
100
AcDbEntity
  8
0
100
AcDbLine
 62
7
  6
CONTINUOUS
 10
7.9541247388
 20
5.5001198968
 11
8.0503672762
 21
5.5001198968
  0
LINE
  5
232
100
AcDbEntity
  8
0
100
AcDbLine
 62
7
  6
CONTINUOUS
 10
6.2594588635
 20
5.4781708632
 11
6.3030040651
 21
5.373043447
  0
LINE
  5
233
100
AcDbEntity
  8
0
100
AcDbLine
 62
7
  6
CONTINUOUS
 10
8.0503672762
 20
5.7001198968
 11
4.2103672762
 21
5.7001198968
  0
LINE
  5
234
100
AcDbEntity
  8
0
100
AcDbLine
 62
7
  6
CONTINUOUS
 10
6.5977304872
 20
5.373043447
 11
6.6412756888
 21
5.4781708632
  0
LINE
  5
235
100
AcDbEntity
  8
0
100
AcDbLine
 62
7
  6
CONTINUOUS
 10
6.8994588635
 20
5.4781708632
 11
6.9430040651
 21
5.373043447
  0
LINE
  5
236
100
AcDbEntity
  8
0
100
AcDbLine
 62
7
  6
CONTINUOUS
 10
7.2377304872
 20
5.373043447
 11
7.2812756888
 21
5.4781708632
  0
LINE
  5
237
100
AcDbEntity
  8
0
100
AcDbLine
 62
7
  6
CONTINUOUS
 10
7.5394588635
 20
5.4781708632
 11
7.5830040651
 21
5.373043447
  0
LINE
  5
238
100
AcDbEntity
  8
0
100
AcDbLine
 62
7
  6
CONTINUOUS
 10
7.8777304872
 20
5.373043447
 11
7.9212756888
 21
5.4781708632
  0
LINE
  5
239
100
AcDbEntity
  8
0
100
AcDbLine
 62
7
  6
CONTINUOUS
 10
8.0503672762
 20
5.5001198968
 11
8.0503672762
 21
5.7001198968
  0
LINE
  5
23A
100
AcDbEntity
  8
0
100
AcDbLine
 62
7
  6
CONTINUOUS
 10
4.1508720839
 20
13.3520477814
 11
4.1508720839
 21
11.8480477814
  0
LINE
  5
23B
100
AcDbEntity
  8
0
100
AcDbLine
 62
7
  6
CONTINUOUS
 10
7.9908720839
 20
11.8480477814
 11
4.1508720839
 21
11.8480477814
  0
LINE
  5
23C
100
AcDbEntity
  8
0
100
AcDbLine
 62
7
  6
CONTINUOUS
 10
4.1508720839
 20
13.3520477814
 11
7.9908720839
 21
13.3520477814
  0
LINE
  5
23D
100
AcDbEntity
  8
0
100
AcDbLine
 62
7
  6
CONTINUOUS
 10
7.9908720839
 20
13.3520477814
 11
7.9908720839
 21
11.8480477814
  0
LINE
  5
23E
100
AcDbEntity
  8
0
100
AcDbLine
 62
7
  6
CONTINUOUS
 10
14.8083552569
 20
5.2806247044
 11
14.8083552569
 21
5.6406247044
  0
LINE
  5
23F
100
AcDbEntity
  8
0
100
AcDbLine
 62
7
  6
CONTINUOUS
 10
14.8083552569
 20
5.2806247044
 11
16.3123552569
 21
5.2806247044
  0
LINE
  5
240
100
AcDbEntity
  8
0
100
AcDbLine
 62
7
  6
CONTINUOUS
 10
16.3123552569
 20
5.4406247044
 11
14.8083552569
 21
5.4406247044
  0
LINE
  5
241
100
AcDbEntity
  8
0
100
AcDbLine
 62
7
  6
CONTINUOUS
 10
16.3123552569
 20
5.6406247044
 11
14.8083552569
 21
5.6406247044
  0
LINE
  5
242
100
AcDbEntity
  8
0
100
AcDbLine
 62
7
  6
CONTINUOUS
 10
16.3123552569
 20
5.2806247044
 11
16.3123552569
 21
5.6406247044
  0
LINE
  5
243
100
AcDbEntity
  8
0
100
AcDbLine
 62
7
  6
CONTINUOUS
 10
13.4901372981
 20
12.0336329512
 11
13.5511456715
 21
11.9093109575
  0
LINE
  5
244
100
AcDbEntity
  8
0
100
AcDbLine
 62
7
  6
CONTINUOUS
 10
13.8542050485
 20
13.2117566232
 11
13.4901372981
 21
12.0336329512
  0
LINE
  5
245
100
AcDbEntity
  8
0
100
AcDbLine
 62
7
  6
CONTINUOUS
 10
13.6767422714
 20
11.8956672195
 11
13.7489183213
 21
11.8303189696
  0
LINE
  5
246
100
AcDbEntity
  8
0
100
AcDbLine
 62
7
  6
CONTINUOUS
 10
14.0203793326
 20
11.8303189696
 11
14.028418856
 21
11.8956672195
  0
LINE
  5
247
100
AcDbEntity
  8
0
100
AcDbLine
 62
7
  6
CONTINUOUS
 10
14.0197298633
 20
11.8272579607
 11
14.0203793326
 21
11.8303189696
  0
LINE
  5
248
100
AcDbEntity
  8
0
100
AcDbLine
 62
7
  6
CONTINUOUS
 10
14.028418856
 20
11.8956672195
 11
14.0288594955
 21
11.8977055285
  0
LINE
  5
249
100
AcDbEntity
  8
0
100
AcDbLine
 62
7
  6
CONTINUOUS
 10
14.2662213075
 20
11.8956672195
 11
14.3383973575
 21
11.8303189696
  0
LINE
  5
24A
100
AcDbEntity
  8
0
100
AcDbLine
 62
7
  6
CONTINUOUS
 10
14.0206453862
 20
11.8302367528
 11
14.0448496809
 21
11.9085618791
  0
LINE
  5
24B
100
AcDbEntity
  8
0
100
AcDbLine
 62
7
  6
CONTINUOUS
 10
14.8557003437
 20
11.8956672195
 11
14.9278763936
 21
11.8303189696
  0
LINE
  5
24C
100
AcDbEntity
  8
0
100
AcDbLine
 62
7
  6
CONTINUOUS
 10
14.6098583688
 20
11.8303189696
 11
14.6178978922
 21
11.8956672195
  0
LINE
  5
24D
100
AcDbEntity
  8
0
100
AcDbLine
 62
7
  6
CONTINUOUS
 10
14.6092088995
 20
11.8272579607
 11
14.6098583688
 21
11.8303189696
  0
LINE
  5
24E
100
AcDbEntity
  8
0
100
AcDbLine
 62
7
  6
CONTINUOUS
 10
14.6178978922
 20
11.8956672195
 11
14.6183385317
 21
11.8977055285
  0
LINE
  5
24F
100
AcDbEntity
  8
0
100
AcDbLine
 62
7
  6
CONTINUOUS
 10
13.8043453506
 20
11.8098533626
 11
13.9850384258
 21
11.8098533626
  0
LINE
  5
250
100
AcDbEntity
  8
0
100
AcDbLine
 62
7
  6
CONTINUOUS
 10
14.3938243867
 20
11.8098533626
 11
14.574517462
 21
11.8098533626
  0
LINE
  5
251
100
AcDbEntity
  8
0
100
AcDbLine
 62
7
  6
CONTINUOUS
 10
14.9833034229
 20
11.8098533626
 11
15.1639964981
 21
11.8098533626
  0
LINE
  5
252
100
AcDbEntity
  8
0
100
AcDbLine
 62
7
  6
CONTINUOUS
 10
15.572782459
 20
11.8098533626
 11
15.7534755343
 21
11.8098533626
  0
LINE
  5
253
100
AcDbEntity
  8
0
100
AcDbLine
 62
7
  6
CONTINUOUS
 10
16.1622614952
 20
11.8098533626
 11
16.3429545705
 21
11.8098533626
  0
LINE
  5
254
100
AcDbEntity
  8
0
100
AcDbLine
 62
7
  6
CONTINUOUS
 10
16.7517405314
 20
11.8098533626
 11
16.9324336066
 21
11.8098533626
  0
LINE
  5
255
100
AcDbEntity
  8
0
100
AcDbLine
 62
7
  6
CONTINUOUS
 10
14.6101244224
 20
11.8302367528
 11
14.6343287171
 21
11.9085618791
  0
LINE
  5
256
100
AcDbEntity
  8
0
100
AcDbLine
 62
7
  6
CONTINUOUS
 10
13.5511456715
 20
11.9093109575
 11
13.6397909185
 21
11.9093109575
  0
LINE
  5
257
100
AcDbEntity
  8
0
100
AcDbLine
 62
7
  6
CONTINUOUS
 10
14.0519794605
 20
11.9093109575
 11
14.2292699547
 21
11.9093109575
  0
LINE
  5
258
100
AcDbEntity
  8
0
100
AcDbLine
 62
7
  6
CONTINUOUS
 10
14.6414584967
 20
11.9093109575
 11
14.8187489909
 21
11.9093109575
  0
LINE
  5
259
100
AcDbEntity
  8
0
100
AcDbLine
 62
7
  6
CONTINUOUS
 10
15.2309375328
 20
11.9093109575
 11
15.408228027
 21
11.9093109575
  0
LINE
  5
25A
100
AcDbEntity
  8
0
100
AcDbLine
 62
7
  6
CONTINUOUS
 10
15.820416569
 20
11.9093109575
 11
15.9977070632
 21
11.9093109575
  0
LINE
  5
25B
100
AcDbEntity
  8
0
100
AcDbLine
 62
7
  6
CONTINUOUS
 10
16.4098956052
 20
11.9093109575
 11
16.5871860993
 21
11.9093109575
  0
LINE
  5
25C
100
AcDbEntity
  8
0
100
AcDbLine
 62
7
  6
CONTINUOUS
 10
16.9993746413
 20
11.9093109575
 11
17.0880198884
 21
11.9093109575
  0
LINE
  5
25D
100
AcDbEntity
  8
0
100
AcDbLine
 62
7
  6
CONTINUOUS
 10
17.0270115151
 20
12.0336329512
 11
13.4901372981
 21
12.0336329512
  0
LINE
  5
25E
100
AcDbEntity
  8
0
100
AcDbLine
 62
7
  6
CONTINUOUS
 10
15.4451793799
 20
11.8956672195
 11
15.5173554298
 21
11.8303189696
  0
LINE
  5
25F
100
AcDbEntity
  8
0
100
AcDbLine
 62
7
  6
CONTINUOUS
 10
15.1993374049
 20
11.8303189696
 11
15.2073769283
 21
11.8956672195
  0
LINE
  5
260
100
AcDbEntity
  8
0
100
AcDbLine
 62
7
  6
CONTINUOUS
 10
15.1986879356
 20
11.8272579607
 11
15.1993374049
 21
11.8303189696
  0
LINE
  5
261
100
AcDbEntity
  8
0
100
AcDbLine
 62
7
  6
CONTINUOUS
 10
15.2073769283
 20
11.8956672195
 11
15.2078175678
 21
11.8977055285
  0
LINE
  5
262
100
AcDbEntity
  8
0
100
AcDbLine
 62
7
  6
CONTINUOUS
 10
15.1996034585
 20
11.8302367528
 11
15.2238077532
 21
11.9085618791
  0
LINE
  5
263
100
AcDbEntity
  8
0
100
AcDbLine
 62
7
  6
CONTINUOUS
 10
16.034658416
 20
11.8956672195
 11
16.1068344659
 21
11.8303189696
  0
LINE
  5
264
100
AcDbEntity
  8
0
100
AcDbLine
 62
7
  6
CONTINUOUS
 10
15.7888164411
 20
11.8303189696
 11
15.7968559645
 21
11.8956672195
  0
LINE
  5
265
100
AcDbEntity
  8
0
100
AcDbLine
 62
7
  6
CONTINUOUS
 10
16.6241374522
 20
11.8956672195
 11
16.6963135021
 21
11.8303189696
  0
LINE
  5
266
100
AcDbEntity
  8
0
100
AcDbLine
 62
7
  6
CONTINUOUS
 10
15.7881669718
 20
11.8272579607
 11
15.7888164411
 21
11.8303189696
  0
LINE
  5
267
100
AcDbEntity
  8
0
100
AcDbLine
 62
7
  6
CONTINUOUS
 10
15.7968559645
 20
11.8956672195
 11
15.797296604
 21
11.8977055285
  0
LINE
  5
268
100
AcDbEntity
  8
0
100
AcDbLine
 62
7
  6
CONTINUOUS
 10
15.7890824947
 20
11.8302367528
 11
15.8132867894
 21
11.9085618791
  0
LINE
  5
269
100
AcDbEntity
  8
0
100
AcDbLine
 62
7
  6
CONTINUOUS
 10
13.8542050485
 20
13.2117566232
 11
17.3910792655
 21
13.2117566232
  0
LINE
  5
26A
100
AcDbEntity
  8
0
100
AcDbLine
 62
7
  6
CONTINUOUS
 10
16.3782954773
 20
11.8303189696
 11
16.3863350006
 21
11.8956672195
  0
LINE
  5
26B
100
AcDbEntity
  8
0
100
AcDbLine
 62
7
  6
CONTINUOUS
 10
16.377646008
 20
11.8272579607
 11
16.3782954773
 21
11.8303189696
  0
LINE
  5
26C
100
AcDbEntity
  8
0
100
AcDbLine
 62
7
  6
CONTINUOUS
 10
16.3863350006
 20
11.8956672195
 11
16.3867756402
 21
11.8977055285
  0
LINE
  5
26D
100
AcDbEntity
  8
0
100
AcDbLine
 62
7
  6
CONTINUOUS
 10
16.3785615309
 20
11.8302367528
 11
16.4027658255
 21
11.9085618791
  0
LINE
  5
26E
100
AcDbEntity
  8
0
100
AcDbLine
 62
7
  6
CONTINUOUS
 10
17.0880198884
 20
11.9093109575
 11
17.0270115151
 21
12.0336329512
  0
LINE
  5
26F
100
AcDbEntity
  8
0
100
AcDbLine
 62
7
  6
CONTINUOUS
 10
16.9677745134
 20
11.8303189696
 11
16.9758140368
 21
11.8956672195
  0
LINE
  5
270
100
AcDbEntity
  8
0
100
AcDbLine
 62
7
  6
CONTINUOUS
 10
16.9671250441
 20
11.8272579607
 11
16.9677745134
 21
11.8303189696
  0
LINE
  5
271
100
AcDbEntity
  8
0
100
AcDbLine
 62
7
  6
CONTINUOUS
 10
16.9758140368
 20
11.8956672195
 11
16.9762546763
 21
11.8977055285
  0
LINE
  5
272
100
AcDbEntity
  8
0
100
AcDbLine
 62
7
  6
CONTINUOUS
 10
17.3910792655
 20
13.2117566232
 11
17.0270115151
 21
12.0336329512
  0
LINE
  5
273
100
AcDbEntity
  8
0
100
AcDbLine
 62
7
  6
CONTINUOUS
 10
16.968040567
 20
11.8302367528
 11
16.9922448617
 21
11.9085618791
  0
LINE
  5
274
100
AcDbEntity
  8
0
100
AcDbLine
 62
7
  6
CONTINUOUS
 10
17.4520876388
 20
13.0874346296
 11
17.0880198884
 21
11.9093109575
  0
LINE
  5
275
100
AcDbEntity
  8
0
100
AcDbLine
 62
7
  6
CONTINUOUS
 10
17.4520876388
 20
13.0874346296
 11
17.3910792655
 21
13.2117566232
  0
ARC
  5
276
100
AcDbEntity
  8
0
100
AcDbCircle
 62
7
  6
CONTINUOUS
 10
5.0722776402
 20
5.3934532301
 40
0.0533333333
100
AcDbArc
 50
202.5
 51
270.0
  0
ARC
  5
277
100
AcDbEntity
  8
0
100
AcDbCircle
 62
7
  6
CONTINUOUS
 10
5.2684569122
 20
5.3934532301
 40
0.0533333333
100
AcDbArc
 50
270.0
 51
337.5
  0
ARC
  5
278
100
AcDbEntity
  8
0
100
AcDbCircle
 62
7
  6
CONTINUOUS
 10
5.7122776402
 20
5.3934532301
 40
0.0533333333
100
AcDbArc
 50
202.5
 51
270.0
  0
ARC
  5
279
100
AcDbEntity
  8
0
100
AcDbCircle
 62
7
  6
CONTINUOUS
 10
5.9084569122
 20
5.3934532301
 40
0.0533333333
100
AcDbArc
 50
270.0
 51
337.5
  0
ARC
  5
27A
100
AcDbEntity
  8
0
100
AcDbCircle
 62
7
  6
CONTINUOUS
 10
6.3522776402
 20
5.3934532301
 40
0.0533333333
100
AcDbArc
 50
202.5
 51
270.0
  0
ARC
  5
27B
100
AcDbEntity
  8
0
100
AcDbCircle
 62
7
  6
CONTINUOUS
 10
6.5484569122
 20
5.3934532301
 40
0.0533333333
100
AcDbArc
 50
270.0
 51
337.5
  0
ARC
  5
27C
100
AcDbEntity
  8
0
100
AcDbCircle
 62
7
  6
CONTINUOUS
 10
4.6284569122
 20
5.3934532301
 40
0.0533333333
100
AcDbArc
 50
270.0
 51
337.5
  0
ARC
  5
27D
100
AcDbEntity
  8
0
100
AcDbCircle
 62
7
  6
CONTINUOUS
 10
4.4322776402
 20
5.3934532301
 40
0.0533333333
100
AcDbArc
 50
202.5
 51
270.0
  0
ARC
  5
27E
100
AcDbEntity
  8
0
100
AcDbCircle
 62
7
  6
CONTINUOUS
 10
7.8284569122
 20
5.3934532301
 40
0.0533333333
100
AcDbArc
 50
270.0
 51
337.5
  0
ARC
  5
27F
100
AcDbEntity
  8
0
100
AcDbCircle
 62
7
  6
CONTINUOUS
 10
7.6322776402
 20
5.3934532301
 40
0.0533333333
100
AcDbArc
 50
202.5
 51
270.0
  0
ARC
  5
280
100
AcDbEntity
  8
0
100
AcDbCircle
 62
7
  6
CONTINUOUS
 10
7.1884569122
 20
5.3934532301
 40
0.0533333333
100
AcDbArc
 50
270.0
 51
337.5
  0
ARC
  5
281
100
AcDbEntity
  8
0
100
AcDbCircle
 62
7
  6
CONTINUOUS
 10
6.9922776402
 20
5.3934532301
 40
0.0533333333
100
AcDbArc
 50
202.5
 51
270.0
  0
ARC
  5
282
100
AcDbEntity
  8
0
100
AcDbCircle
 62
7
  6
CONTINUOUS
 10
4.7541247388
 20
5.4645643412
 40
0.0355555556
100
AcDbArc
 50
90.0
 51
157.5
  0
ARC
  5
283
100
AcDbEntity
  8
0
100
AcDbCircle
 62
7
  6
CONTINUOUS
 10
4.3066098135
 20
5.4645643412
 40
0.0355555556
100
AcDbArc
 50
22.5
 51
90.0
  0
ARC
  5
284
100
AcDbEntity
  8
0
100
AcDbCircle
 62
7
  6
CONTINUOUS
 10
5.3941247388
 20
5.4645643412
 40
0.0355555556
100
AcDbArc
 50
90.0
 51
157.5
  0
ARC
  5
285
100
AcDbEntity
  8
0
100
AcDbCircle
 62
7
  6
CONTINUOUS
 10
4.9466098135
 20
5.4645643412
 40
0.0355555556
100
AcDbArc
 50
22.5
 51
90.0
  0
ARC
  5
286
100
AcDbEntity
  8
0
100
AcDbCircle
 62
7
  6
CONTINUOUS
 10
6.0341247388
 20
5.4645643412
 40
0.0355555556
100
AcDbArc
 50
90.0
 51
157.5
  0
ARC
  5
287
100
AcDbEntity
  8
0
100
AcDbCircle
 62
7
  6
CONTINUOUS
 10
5.5866098135
 20
5.4645643412
 40
0.0355555556
100
AcDbArc
 50
22.5
 51
90.0
  0
ARC
  5
288
100
AcDbEntity
  8
0
100
AcDbCircle
 62
7
  6
CONTINUOUS
 10
6.6741247388
 20
5.4645643412
 40
0.0355555556
100
AcDbArc
 50
90.0
 51
157.5
  0
ARC
  5
289
100
AcDbEntity
  8
0
100
AcDbCircle
 62
7
  6
CONTINUOUS
 10
6.2266098135
 20
5.4645643412
 40
0.0355555556
100
AcDbArc
 50
22.5
 51
90.0
  0
ARC
  5
28A
100
AcDbEntity
  8
0
100
AcDbCircle
 62
7
  6
CONTINUOUS
 10
7.3141247388
 20
5.4645643412
 40
0.0355555556
100
AcDbArc
 50
90.0
 51
157.5
  0
ARC
  5
28B
100
AcDbEntity
  8
0
100
AcDbCircle
 62
7
  6
CONTINUOUS
 10
6.8666098135
 20
5.4645643412
 40
0.0355555556
100
AcDbArc
 50
22.5
 51
90.0
  0
ARC
  5
28C
100
AcDbEntity
  8
0
100
AcDbCircle
 62
7
  6
CONTINUOUS
 10
7.9541247388
 20
5.4645643412
 40
0.0355555556
100
AcDbArc
 50
90.0
 51
157.5
  0
ARC
  5
28D
100
AcDbEntity
  8
0
100
AcDbCircle
 62
7
  6
CONTINUOUS
 10
7.5066098135
 20
5.4645643412
 40
0.0355555556
100
AcDbArc
 50
22.5
 51
90.0
  0
SPLINE
  5
28E
100
AcDbEntity
  8
0
100
AcDbSpline
 62
7
  6
CONTINUOUS
 70
0
 71
3
 72
13
 73
9
 74
0
 42
0.0000001
 43
0.0000001
 44
0.0000000001
 40
0.0
 40
0.0
 40
0.0
 40
0.0
 40
0.1167214937
 40
0.2344029906
 40
0.3538126137
 40
0.4756938619
 40
0.7293205722
 40
1.0
 40
1.0
 40
1.0
 40
1.0
 10
14.0288559902
 20
11.8977066124
 30
0.0
 10
14.0289782569
 20
11.8981014728
 30
0.0
 10
14.0292661166
 20
11.8988820258
 30
0.0
 10
14.0298215584
 20
11.9000075662
 30
0.0
 10
14.0304997804
 20
11.9010855023
 30
0.0
 10
14.0315790777
 20
11.902469734
 30
0.0
 10
14.0332418105
 20
11.9040613436
 30
0.0
 10
14.0347861028
 20
11.9051074348
 30
0.0
 10
14.035615704
 20
11.9055876871
 30
0.0
  0
SPLINE
  5
28F
100
AcDbEntity
  8
0
100
AcDbSpline
 62
7
  6
CONTINUOUS
 70
0
 71
3
 72
14
 73
10
 74
0
 42
0.0000001
 43
0.0000001
 44
0.0000000001
 40
0.0
 40
0.0
 40
0.0
 40
0.0
 40
0.2218099298
 40
0.3400739683
 40
0.4632239797
 40
0.591168456
 40
0.7235761678
 40
0.8600118173
 40
1.0
 40
1.0
 40
1.0
 40
1.0
 10
14.035615704
 20
11.9055876871
 30
0.0
 10
14.0367010997
 20
11.9062160177
 30
0.0
 10
14.0384568236
 20
11.9070269026
 30
0.0
 10
14.0409407264
 20
11.9078606496
 30
0.0
 10
14.0429633458
 20
11.9083879506
 30
0.0
 10
14.0450936299
 20
11.9087994674
 30
0.0
 10
14.0473188724
 20
11.9090946464
 30
0.0
 10
14.0496246845
 20
11.909272237
 30
0.0
 10
14.0511879465
 20
11.9093109575
 30
0.0
 10
14.0519794605
 20
11.9093109575
 30
0.0
  0
SPLINE
  5
290
100
AcDbEntity
  8
0
100
AcDbSpline
 62
7
  6
CONTINUOUS
 70
0
 71
3
 72
13
 73
9
 74
0
 42
0.0000001
 43
0.0000001
 44
0.0000000001
 40
0.0
 40
0.0
 40
0.0
 40
0.0
 40
0.1167214937
 40
0.2344029906
 40
0.3538126137
 40
0.4756938619
 40
0.7293205722
 40
1.0
 40
1.0
 40
1.0
 40
1.0
 10
14.6183350264
 20
11.8977066124
 30
0.0
 10
14.6184572931
 20
11.8981014728
 30
0.0
 10
14.6187451528
 20
11.8988820258
 30
0.0
 10
14.6193005945
 20
11.9000075662
 30
0.0
 10
14.6199788166
 20
11.9010855023
 30
0.0
 10
14.6210581139
 20
11.902469734
 30
0.0
 10
14.6227208467
 20
11.9040613436
 30
0.0
 10
14.6242651389
 20
11.9051074348
 30
0.0
 10
14.6250947402
 20
11.9055876871
 30
0.0
  0
SPLINE
  5
291
100
AcDbEntity
  8
0
100
AcDbSpline
 62
7
  6
CONTINUOUS
 70
0
 71
3
 72
14
 73
10
 74
0
 42
0.0000001
 43
0.0000001
 44
0.0000000001
 40
0.0
 40
0.0
 40
0.0
 40
0.0
 40
0.2218099298
 40
0.3400739683
 40
0.4632239797
 40
0.591168456
 40
0.7235761678
 40
0.8600118173
 40
1.0
 40
1.0
 40
1.0
 40
1.0
 10
14.6250947402
 20
11.9055876871
 30
0.0
 10
14.6261801358
 20
11.9062160177
 30
0.0
 10
14.6279358597
 20
11.9070269026
 30
0.0
 10
14.6304197625
 20
11.9078606496
 30
0.0
 10
14.6324423819
 20
11.9083879506
 30
0.0
 10
14.634572666
 20
11.9087994674
 30
0.0
 10
14.6367979085
 20
11.9090946464
 30
0.0
 10
14.6391037207
 20
11.909272237
 30
0.0
 10
14.6406669827
 20
11.9093109575
 30
0.0
 10
14.6414584967
 20
11.9093109575
 30
0.0
  0
SPLINE
  5
292
100
AcDbEntity
  8
0
100
AcDbSpline
 62
7
  6
CONTINUOUS
 70
0
 71
3
 72
13
 73
9
 74
0
 42
0.0000001
 43
0.0000001
 44
0.0000000001
 40
0.0
 40
0.0
 40
0.0
 40
0.0
 40
0.1167214937
 40
0.2344029906
 40
0.3538126137
 40
0.4756938619
 40
0.7293205722
 40
1.0
 40
1.0
 40
1.0
 40
1.0
 10
15.2078140625
 20
11.8977066124
 30
0.0
 10
15.2079363293
 20
11.8981014728
 30
0.0
 10
15.2082241889
 20
11.8988820258
 30
0.0
 10
15.2087796307
 20
11.9000075662
 30
0.0
 10
15.2094578527
 20
11.9010855023
 30
0.0
 10
15.2105371501
 20
11.902469734
 30
0.0
 10
15.2121998828
 20
11.9040613436
 30
0.0
 10
15.2137441751
 20
11.9051074348
 30
0.0
 10
15.2145737763
 20
11.9055876871
 30
0.0
  0
SPLINE
  5
293
100
AcDbEntity
  8
0
100
AcDbSpline
 62
7
  6
CONTINUOUS
 70
0
 71
3
 72
14
 73
10
 74
0
 42
0.0000001
 43
0.0000001
 44
0.0000000001
 40
0.0
 40
0.0
 40
0.0
 40
0.0
 40
0.2218099298
 40
0.3400739683
 40
0.4632239797
 40
0.591168456
 40
0.7235761678
 40
0.8600118173
 40
1.0
 40
1.0
 40
1.0
 40
1.0
 10
15.2145737763
 20
11.9055876871
 30
0.0
 10
15.215659172
 20
11.9062160177
 30
0.0
 10
15.2174148959
 20
11.9070269026
 30
0.0
 10
15.2198987987
 20
11.9078606496
 30
0.0
 10
15.2219214181
 20
11.9083879506
 30
0.0
 10
15.2240517022
 20
11.9087994674
 30
0.0
 10
15.2262769447
 20
11.9090946464
 30
0.0
 10
15.2285827569
 20
11.909272237
 30
0.0
 10
15.2301460188
 20
11.9093109575
 30
0.0
 10
15.2309375328
 20
11.9093109575
 30
0.0
  0
SPLINE
  5
294
100
AcDbEntity
  8
0
100
AcDbSpline
 62
7
  6
CONTINUOUS
 70
0
 71
3
 72
13
 73
9
 74
0
 42
0.0000001
 43
0.0000001
 44
0.0000000001
 40
0.0
 40
0.0
 40
0.0
 40
0.0
 40
0.1167214937
 40
0.2344029906
 40
0.3538126137
 40
0.4756938619
 40
0.7293205722
 40
1.0
 40
1.0
 40
1.0
 40
1.0
 10
15.7972930987
 20
11.8977066124
 30
0.0
 10
15.7974153654
 20
11.8981014728
 30
0.0
 10
15.7977032251
 20
11.8988820258
 30
0.0
 10
15.7982586668
 20
11.9000075662
 30
0.0
 10
15.7989368889
 20
11.9010855023
 30
0.0
 10
15.8000161862
 20
11.902469734
 30
0.0
 10
15.801678919
 20
11.9040613436
 30
0.0
 10
15.8032232113
 20
11.9051074348
 30
0.0
 10
15.8040528125
 20
11.9055876871
 30
0.0
  0
SPLINE
  5
295
100
AcDbEntity
  8
0
100
AcDbSpline
 62
7
  6
CONTINUOUS
 70
0
 71
3
 72
14
 73
10
 74
0
 42
0.0000001
 43
0.0000001
 44
0.0000000001
 40
0.0
 40
0.0
 40
0.0
 40
0.0
 40
0.2218099298
 40
0.3400739683
 40
0.4632239797
 40
0.591168456
 40
0.7235761678
 40
0.8600118173
 40
1.0
 40
1.0
 40
1.0
 40
1.0
 10
15.8040528125
 20
11.9055876871
 30
0.0
 10
15.8051382081
 20
11.9062160177
 30
0.0
 10
15.8068939321
 20
11.9070269026
 30
0.0
 10
15.8093778349
 20
11.9078606496
 30
0.0
 10
15.8114004543
 20
11.9083879506
 30
0.0
 10
15.8135307384
 20
11.9087994674
 30
0.0
 10
15.8157559809
 20
11.9090946464
 30
0.0
 10
15.818061793
 20
11.909272237
 30
0.0
 10
15.819625055
 20
11.9093109575
 30
0.0
 10
15.820416569
 20
11.9093109575
 30
0.0
  0
SPLINE
  5
296
100
AcDbEntity
  8
0
100
AcDbSpline
 62
7
  6
CONTINUOUS
 70
0
 71
3
 72
13
 73
9
 74
0
 42
0.0000001
 43
0.0000001
 44
0.0000000001
 40
0.0
 40
0.0
 40
0.0
 40
0.0
 40
0.1167214937
 40
0.2344029906
 40
0.3538126137
 40
0.4756938619
 40
0.7293205722
 40
1.0
 40
1.0
 40
1.0
 40
1.0
 10
16.3867721349
 20
11.8977066124
 30
0.0
 10
16.3868944016
 20
11.8981014728
 30
0.0
 10
16.3871822613
 20
11.8988820258
 30
0.0
 10
16.387737703
 20
11.9000075662
 30
0.0
 10
16.3884159251
 20
11.9010855023
 30
0.0
 10
16.3894952224
 20
11.902469734
 30
0.0
 10
16.3911579552
 20
11.9040613436
 30
0.0
 10
16.3927022474
 20
11.9051074348
 30
0.0
 10
16.3935318486
 20
11.9055876871
 30
0.0
  0
SPLINE
  5
297
100
AcDbEntity
  8
0
100
AcDbSpline
 62
7
  6
CONTINUOUS
 70
0
 71
3
 72
14
 73
10
 74
0
 42
0.0000001
 43
0.0000001
 44
0.0000000001
 40
0.0
 40
0.0
 40
0.0
 40
0.0
 40
0.2218099298
 40
0.3400739683
 40
0.4632239797
 40
0.591168456
 40
0.7235761678
 40
0.8600118173
 40
1.0
 40
1.0
 40
1.0
 40
1.0
 10
16.3935318486
 20
11.9055876871
 30
0.0
 10
16.3946172443
 20
11.9062160177
 30
0.0
 10
16.3963729682
 20
11.9070269026
 30
0.0
 10
16.398856871
 20
11.9078606496
 30
0.0
 10
16.4008794904
 20
11.9083879506
 30
0.0
 10
16.4030097745
 20
11.9087994674
 30
0.0
 10
16.405235017
 20
11.9090946464
 30
0.0
 10
16.4075408292
 20
11.909272237
 30
0.0
 10
16.4091040912
 20
11.9093109575
 30
0.0
 10
16.4098956052
 20
11.9093109575
 30
0.0
  0
SPLINE
  5
298
100
AcDbEntity
  8
0
100
AcDbSpline
 62
7
  6
CONTINUOUS
 70
0
 71
3
 72
13
 73
9
 74
0
 42
0.0000001
 43
0.0000001
 44
0.0000000001
 40
0.0
 40
0.0
 40
0.0
 40
0.0
 40
0.1167214937
 40
0.2344029906
 40
0.3538126137
 40
0.4756938619
 40
0.7293205722
 40
1.0
 40
1.0
 40
1.0
 40
1.0
 10
16.976251171
 20
11.8977066124
 30
0.0
 10
16.9763734377
 20
11.8981014728
 30
0.0
 10
16.9766612974
 20
11.8988820258
 30
0.0
 10
16.9772167392
 20
11.9000075662
 30
0.0
 10
16.9778949612
 20
11.9010855023
 30
0.0
 10
16.9789742586
 20
11.902469734
 30
0.0
 10
16.9806369913
 20
11.9040613436
 30
0.0
 10
16.9821812836
 20
11.9051074348
 30
0.0
 10
16.9830108848
 20
11.9055876871
 30
0.0
  0
SPLINE
  5
299
100
AcDbEntity
  8
0
100
AcDbSpline
 62
7
  6
CONTINUOUS
 70
0
 71
3
 72
14
 73
10
 74
0
 42
0.0000001
 43
0.0000001
 44
0.0000000001
 40
0.0
 40
0.0
 40
0.0
 40
0.0
 40
0.2218099298
 40
0.3400739683
 40
0.4632239797
 40
0.591168456
 40
0.7235761678
 40
0.8600118173
 40
1.0
 40
1.0
 40
1.0
 40
1.0
 10
16.9830108848
 20
11.9055876871
 30
0.0
 10
16.9840962805
 20
11.9062160177
 30
0.0
 10
16.9858520044
 20
11.9070269026
 30
0.0
 10
16.9883359072
 20
11.9078606496
 30
0.0
 10
16.9903585266
 20
11.9083879506
 30
0.0
 10
16.9924888107
 20
11.9087994674
 30
0.0
 10
16.9947140532
 20
11.9090946464
 30
0.0
 10
16.9970198653
 20
11.909272237
 30
0.0
 10
16.9985831273
 20
11.9093109575
 30
0.0
 10
16.9993746413
 20
11.9093109575
 30
0.0
  0
SPLINE
  5
29A
100
AcDbEntity
  8
0
100
AcDbSpline
 62
7
  6
CONTINUOUS
 70
0
 71
3
 72
22
 73
18
 74
0
 42
0.0000001
 43
0.0000001
 44
0.0000000001
 40
0.0
 40
0.0
 40
0.0
 40
0.0
 40
0.0787629343
 40
0.1556801951
 40
0.3030353171
 40
0.3731897398
 40
0.4408814203
 40
0.506084617
 40
0.5688106787
 40
0.629121332
 40
0.6871208593
 40
0.7429628881
 40
0.7968772995
 40
0.8491655555
 40
0.9001806232
 40
0.9503219911
 40
1.0
 40
1.0
 40
1.0
 40
1.0
 10
13.9850384258
 20
11.8098533626
 30
0.0
 10
13.9861250877
 20
11.8098533626
 30
0.0
 10
13.9882734287
 20
11.8099018244
 30
0.0
 10
13.9924449503
 20
11.8101941195
 30
0.0
 10
13.9964745617
 20
11.8107759215
 30
0.0
 10
14.0003077822
 20
11.8116727254
 30
0.0
 10
14.0029936701
 20
11.8124755064
 30
0.0
 10
14.0055256033
 20
11.813416003
 30
0.0
 10
14.0078922654
 20
11.814491101
 30
0.0
 10
14.0100834677
 20
11.8156952732
 30
0.0
 10
14.0120895037
 20
11.8170230356
 30
0.0
 10
14.0139005242
 20
11.8184695293
 30
0.0
 10
14.0155078246
 20
11.8200287927
 30
0.0
 10
14.0169044913
 20
11.8216936092
 30
0.0
 10
14.0180835578
 20
11.8234572758
 30
0.0
 10
14.0190374272
 20
11.8253117646
 30
0.0
 10
14.0195219996
 20
11.8266048277
 30
0.0
 10
14.0197244695
 20
11.8272596278
 30
0.0
  0
SPLINE
  5
29B
100
AcDbEntity
  8
0
100
AcDbSpline
 62
7
  6
CONTINUOUS
 70
0
 71
3
 72
21
 73
17
 74
0
 42
0.0000001
 43
0.0000001
 44
0.0000000001
 40
0.0
 40
0.0
 40
0.0
 40
0.0
 40
0.056548897
 40
0.1148912277
 40
0.1748164845
 40
0.2361075071
 40
0.2985653393
 40
0.3619929636
 40
0.4908920501
 40
0.6209956397
 40
0.6859175487
 40
0.75044432
 40
0.814357526
 40
0.8774284854
 40
0.9393962712
 40
1.0
 40
1.0
 40
1.0
 40
1.0
 10
13.7489183213
 20
11.8303189696
 30
0.0
 10
13.7497609279
 20
11.829556073
 30
0.0
 10
13.751518765
 20
11.8280561392
 30
0.0
 10
13.75431168
 20
11.8259212933
 30
0.0
 10
13.7572879463
 20
11.8238769717
 30
0.0
 10
13.7604306745
 20
11.8219368955
 30
0.0
 10
13.7637219474
 20
11.8201112717
 30
0.0
 10
13.7683087215
 20
11.8178300412
 30
0.0
 10
13.7742972939
 20
11.8153298777
 30
0.0
 10
13.7805026815
 20
11.8133317186
 30
0.0
 10
13.7855612441
 20
11.8120498839
 30
0.0
 10
13.7893671817
 20
11.8112557573
 30
0.0
 10
13.7931671899
 20
11.8106331045
 30
0.0
 10
13.7969401266
 20
11.8101860547
 30
0.0
 10
13.8006630718
 20
11.8099156393
 30
0.0
 10
13.803127186
 20
11.8098533626
 30
0.0
 10
13.8043453506
 20
11.8098533626
 30
0.0
  0
SPLINE
  5
29C
100
AcDbEntity
  8
0
100
AcDbSpline
 62
7
  6
CONTINUOUS
 70
0
 71
3
 72
22
 73
18
 74
0
 42
0.0000001
 43
0.0000001
 44
0.0000000001
 40
0.0
 40
0.0
 40
0.0
 40
0.0
 40
0.0787629343
 40
0.1556801951
 40
0.3030353171
 40
0.3731897398
 40
0.4408814203
 40
0.506084617
 40
0.5688106787
 40
0.629121332
 40
0.6871208593
 40
0.7429628881
 40
0.7968772995
 40
0.8491655555
 40
0.9001806232
 40
0.9503219911
 40
1.0
 40
1.0
 40
1.0
 40
1.0
 10
16.9324336066
 20
11.8098533626
 30
0.0
 10
16.9335202685
 20
11.8098533626
 30
0.0
 10
16.9356686095
 20
11.8099018244
 30
0.0
 10
16.9398401311
 20
11.8101941195
 30
0.0
 10
16.9438697425
 20
11.8107759215
 30
0.0
 10
16.947702963
 20
11.8116727254
 30
0.0
 10
16.9503888509
 20
11.8124755064
 30
0.0
 10
16.9529207841
 20
11.813416003
 30
0.0
 10
16.9552874462
 20
11.814491101
 30
0.0
 10
16.9574786485
 20
11.8156952732
 30
0.0
 10
16.9594846845
 20
11.8170230356
 30
0.0
 10
16.961295705
 20
11.8184695293
 30
0.0
 10
16.9629030055
 20
11.8200287927
 30
0.0
 10
16.9642996721
 20
11.8216936092
 30
0.0
 10
16.9654787386
 20
11.8234572758
 30
0.0
 10
16.966432608
 20
11.8253117646
 30
0.0
 10
16.9669171804
 20
11.8266048277
 30
0.0
 10
16.9671196503
 20
11.8272596278
 30
0.0
  0
SPLINE
  5
29D
100
AcDbEntity
  8
0
100
AcDbSpline
 62
7
  6
CONTINUOUS
 70
0
 71
3
 72
21
 73
17
 74
0
 42
0.0000001
 43
0.0000001
 44
0.0000000001
 40
0.0
 40
0.0
 40
0.0
 40
0.0
 40
0.056548897
 40
0.1148912277
 40
0.1748164845
 40
0.2361075071
 40
0.2985653393
 40
0.3619929636
 40
0.4908920501
 40
0.6209956397
 40
0.6859175487
 40
0.75044432
 40
0.814357526
 40
0.8774284854
 40
0.9393962712
 40
1.0
 40
1.0
 40
1.0
 40
1.0
 10
16.6963135021
 20
11.8303189696
 30
0.0
 10
16.6971561087
 20
11.829556073
 30
0.0
 10
16.6989139458
 20
11.8280561392
 30
0.0
 10
16.7017068608
 20
11.8259212933
 30
0.0
 10
16.7046831271
 20
11.8238769717
 30
0.0
 10
16.7078258554
 20
11.8219368955
 30
0.0
 10
16.7111171282
 20
11.8201112717
 30
0.0
 10
16.7157039023
 20
11.8178300412
 30
0.0
 10
16.7216924747
 20
11.8153298777
 30
0.0
 10
16.7278978623
 20
11.8133317186
 30
0.0
 10
16.7329564249
 20
11.8120498839
 30
0.0
 10
16.7367623625
 20
11.8112557573
 30
0.0
 10
16.7405623707
 20
11.8106331045
 30
0.0
 10
16.7443353075
 20
11.8101860547
 30
0.0
 10
16.7480582526
 20
11.8099156393
 30
0.0
 10
16.7505223668
 20
11.8098533626
 30
0.0
 10
16.7517405314
 20
11.8098533626
 30
0.0
  0
SPLINE
  5
29E
100
AcDbEntity
  8
0
100
AcDbSpline
 62
7
  6
CONTINUOUS
 70
0
 71
3
 72
22
 73
18
 74
0
 42
0.0000001
 43
0.0000001
 44
0.0000000001
 40
0.0
 40
0.0
 40
0.0
 40
0.0
 40
0.0787629343
 40
0.1556801951
 40
0.3030353171
 40
0.3731897398
 40
0.4408814203
 40
0.506084617
 40
0.5688106787
 40
0.629121332
 40
0.6871208593
 40
0.7429628881
 40
0.7968772995
 40
0.8491655555
 40
0.9001806232
 40
0.9503219911
 40
1.0
 40
1.0
 40
1.0
 40
1.0
 10
16.3429545705
 20
11.8098533626
 30
0.0
 10
16.3440412324
 20
11.8098533626
 30
0.0
 10
16.3461895734
 20
11.8099018244
 30
0.0
 10
16.350361095
 20
11.8101941195
 30
0.0
 10
16.3543907064
 20
11.8107759215
 30
0.0
 10
16.3582239269
 20
11.8116727254
 30
0.0
 10
16.3609098148
 20
11.8124755064
 30
0.0
 10
16.3634417479
 20
11.813416003
 30
0.0
 10
16.36580841
 20
11.814491101
 30
0.0
 10
16.3679996124
 20
11.8156952732
 30
0.0
 10
16.3700056483
 20
11.8170230356
 30
0.0
 10
16.3718166688
 20
11.8184695293
 30
0.0
 10
16.3734239693
 20
11.8200287927
 30
0.0
 10
16.3748206359
 20
11.8216936092
 30
0.0
 10
16.3759997025
 20
11.8234572758
 30
0.0
 10
16.3769535718
 20
11.8253117646
 30
0.0
 10
16.3774381443
 20
11.8266048277
 30
0.0
 10
16.3776406141
 20
11.8272596278
 30
0.0
  0
SPLINE
  5
29F
100
AcDbEntity
  8
0
100
AcDbSpline
 62
7
  6
CONTINUOUS
 70
0
 71
3
 72
21
 73
17
 74
0
 42
0.0000001
 43
0.0000001
 44
0.0000000001
 40
0.0
 40
0.0
 40
0.0
 40
0.0
 40
0.056548897
 40
0.1148912277
 40
0.1748164845
 40
0.2361075071
 40
0.2985653393
 40
0.3619929636
 40
0.4908920501
 40
0.6209956397
 40
0.6859175487
 40
0.75044432
 40
0.814357526
 40
0.8774284854
 40
0.9393962712
 40
1.0
 40
1.0
 40
1.0
 40
1.0
 10
16.1068344659
 20
11.8303189696
 30
0.0
 10
16.1076770725
 20
11.829556073
 30
0.0
 10
16.1094349097
 20
11.8280561392
 30
0.0
 10
16.1122278246
 20
11.8259212933
 30
0.0
 10
16.115204091
 20
11.8238769717
 30
0.0
 10
16.1183468192
 20
11.8219368955
 30
0.0
 10
16.1216380921
 20
11.8201112717
 30
0.0
 10
16.1262248662
 20
11.8178300412
 30
0.0
 10
16.1322134386
 20
11.8153298777
 30
0.0
 10
16.1384188262
 20
11.8133317186
 30
0.0
 10
16.1434773887
 20
11.8120498839
 30
0.0
 10
16.1472833264
 20
11.8112557573
 30
0.0
 10
16.1510833346
 20
11.8106331045
 30
0.0
 10
16.1548562713
 20
11.8101860547
 30
0.0
 10
16.1585792164
 20
11.8099156393
 30
0.0
 10
16.1610433306
 20
11.8098533626
 30
0.0
 10
16.1622614952
 20
11.8098533626
 30
0.0
  0
SPLINE
  5
2A0
100
AcDbEntity
  8
0
100
AcDbSpline
 62
7
  6
CONTINUOUS
 70
0
 71
3
 72
22
 73
18
 74
0
 42
0.0000001
 43
0.0000001
 44
0.0000000001
 40
0.0
 40
0.0
 40
0.0
 40
0.0
 40
0.0787629343
 40
0.1556801951
 40
0.3030353171
 40
0.3731897398
 40
0.4408814203
 40
0.506084617
 40
0.5688106787
 40
0.629121332
 40
0.6871208593
 40
0.7429628881
 40
0.7968772995
 40
0.8491655555
 40
0.9001806232
 40
0.9503219911
 40
1.0
 40
1.0
 40
1.0
 40
1.0
 10
15.7534755343
 20
11.8098533626
 30
0.0
 10
15.7545621962
 20
11.8098533626
 30
0.0
 10
15.7567105372
 20
11.8099018244
 30
0.0
 10
15.7608820588
 20
11.8101941195
 30
0.0
 10
15.7649116702
 20
11.8107759215
 30
0.0
 10
15.7687448907
 20
11.8116727254
 30
0.0
 10
15.7714307786
 20
11.8124755064
 30
0.0
 10
15.7739627118
 20
11.813416003
 30
0.0
 10
15.7763293739
 20
11.814491101
 30
0.0
 10
15.7785205762
 20
11.8156952732
 30
0.0
 10
15.7805266122
 20
11.8170230356
 30
0.0
 10
15.7823376327
 20
11.8184695293
 30
0.0
 10
15.7839449331
 20
11.8200287927
 30
0.0
 10
15.7853415998
 20
11.8216936092
 30
0.0
 10
15.7865206663
 20
11.8234572758
 30
0.0
 10
15.7874745357
 20
11.8253117646
 30
0.0
 10
15.7879591081
 20
11.8266048277
 30
0.0
 10
15.7881615779
 20
11.8272596278
 30
0.0
  0
SPLINE
  5
2A1
100
AcDbEntity
  8
0
100
AcDbSpline
 62
7
  6
CONTINUOUS
 70
0
 71
3
 72
21
 73
17
 74
0
 42
0.0000001
 43
0.0000001
 44
0.0000000001
 40
0.0
 40
0.0
 40
0.0
 40
0.0
 40
0.056548897
 40
0.1148912277
 40
0.1748164845
 40
0.2361075071
 40
0.2985653393
 40
0.3619929636
 40
0.4908920501
 40
0.6209956397
 40
0.6859175487
 40
0.75044432
 40
0.814357526
 40
0.8774284854
 40
0.9393962712
 40
1.0
 40
1.0
 40
1.0
 40
1.0
 10
15.5173554298
 20
11.8303189696
 30
0.0
 10
15.5181980364
 20
11.829556073
 30
0.0
 10
15.5199558735
 20
11.8280561392
 30
0.0
 10
15.5227487885
 20
11.8259212933
 30
0.0
 10
15.5257250548
 20
11.8238769717
 30
0.0
 10
15.528867783
 20
11.8219368955
 30
0.0
 10
15.5321590559
 20
11.8201112717
 30
0.0
 10
15.53674583
 20
11.8178300412
 30
0.0
 10
15.5427344024
 20
11.8153298777
 30
0.0
 10
15.54893979
 20
11.8133317186
 30
0.0
 10
15.5539983526
 20
11.8120498839
 30
0.0
 10
15.5578042902
 20
11.8112557573
 30
0.0
 10
15.5616042984
 20
11.8106331045
 30
0.0
 10
15.5653772351
 20
11.8101860547
 30
0.0
 10
15.5691001803
 20
11.8099156393
 30
0.0
 10
15.5715642944
 20
11.8098533626
 30
0.0
 10
15.572782459
 20
11.8098533626
 30
0.0
  0
SPLINE
  5
2A2
100
AcDbEntity
  8
0
100
AcDbSpline
 62
7
  6
CONTINUOUS
 70
0
 71
3
 72
22
 73
18
 74
0
 42
0.0000001
 43
0.0000001
 44
0.0000000001
 40
0.0
 40
0.0
 40
0.0
 40
0.0
 40
0.0787629343
 40
0.1556801951
 40
0.3030353171
 40
0.3731897398
 40
0.4408814203
 40
0.506084617
 40
0.5688106787
 40
0.629121332
 40
0.6871208593
 40
0.7429628881
 40
0.7968772995
 40
0.8491655555
 40
0.9001806232
 40
0.9503219911
 40
1.0
 40
1.0
 40
1.0
 40
1.0
 10
15.1639964981
 20
11.8098533626
 30
0.0
 10
15.16508316
 20
11.8098533626
 30
0.0
 10
15.167231501
 20
11.8099018244
 30
0.0
 10
15.1714030227
 20
11.8101941195
 30
0.0
 10
15.175432634
 20
11.8107759215
 30
0.0
 10
15.1792658545
 20
11.8116727254
 30
0.0
 10
15.1819517424
 20
11.8124755064
 30
0.0
 10
15.1844836756
 20
11.813416003
 30
0.0
 10
15.1868503377
 20
11.814491101
 30
0.0
 10
15.18904154
 20
11.8156952732
 30
0.0
 10
15.191047576
 20
11.8170230356
 30
0.0
 10
15.1928585965
 20
11.8184695293
 30
0.0
 10
15.194465897
 20
11.8200287927
 30
0.0
 10
15.1958625636
 20
11.8216936092
 30
0.0
 10
15.1970416302
 20
11.8234572758
 30
0.0
 10
15.1979954995
 20
11.8253117646
 30
0.0
 10
15.1984800719
 20
11.8266048277
 30
0.0
 10
15.1986825418
 20
11.8272596278
 30
0.0
  0
SPLINE
  5
2A3
100
AcDbEntity
  8
0
100
AcDbSpline
 62
7
  6
CONTINUOUS
 70
0
 71
3
 72
21
 73
17
 74
0
 42
0.0000001
 43
0.0000001
 44
0.0000000001
 40
0.0
 40
0.0
 40
0.0
 40
0.0
 40
0.056548897
 40
0.1148912277
 40
0.1748164845
 40
0.2361075071
 40
0.2985653393
 40
0.3619929636
 40
0.4908920501
 40
0.6209956397
 40
0.6859175487
 40
0.75044432
 40
0.814357526
 40
0.8774284854
 40
0.9393962712
 40
1.0
 40
1.0
 40
1.0
 40
1.0
 10
14.9278763936
 20
11.8303189696
 30
0.0
 10
14.9287190002
 20
11.829556073
 30
0.0
 10
14.9304768374
 20
11.8280561392
 30
0.0
 10
14.9332697523
 20
11.8259212933
 30
0.0
 10
14.9362460187
 20
11.8238769717
 30
0.0
 10
14.9393887469
 20
11.8219368955
 30
0.0
 10
14.9426800197
 20
11.8201112717
 30
0.0
 10
14.9472667938
 20
11.8178300412
 30
0.0
 10
14.9532553662
 20
11.8153298777
 30
0.0
 10
14.9594607539
 20
11.8133317186
 30
0.0
 10
14.9645193164
 20
11.8120498839
 30
0.0
 10
14.968325254
 20
11.8112557573
 30
0.0
 10
14.9721252623
 20
11.8106331045
 30
0.0
 10
14.975898199
 20
11.8101860547
 30
0.0
 10
14.9796211441
 20
11.8099156393
 30
0.0
 10
14.9820852583
 20
11.8098533626
 30
0.0
 10
14.9833034229
 20
11.8098533626
 30
0.0
  0
SPLINE
  5
2A4
100
AcDbEntity
  8
0
100
AcDbSpline
 62
7
  6
CONTINUOUS
 70
0
 71
3
 72
22
 73
18
 74
0
 42
0.0000001
 43
0.0000001
 44
0.0000000001
 40
0.0
 40
0.0
 40
0.0
 40
0.0
 40
0.0787629343
 40
0.1556801951
 40
0.3030353171
 40
0.3731897398
 40
0.4408814203
 40
0.506084617
 40
0.5688106787
 40
0.629121332
 40
0.6871208593
 40
0.7429628881
 40
0.7968772995
 40
0.8491655555
 40
0.9001806232
 40
0.9503219911
 40
1.0
 40
1.0
 40
1.0
 40
1.0
 10
14.574517462
 20
11.8098533626
 30
0.0
 10
14.5756041239
 20
11.8098533626
 30
0.0
 10
14.5777524649
 20
11.8099018244
 30
0.0
 10
14.5819239865
 20
11.8101941195
 30
0.0
 10
14.5859535979
 20
11.8107759215
 30
0.0
 10
14.5897868184
 20
11.8116727254
 30
0.0
 10
14.5924727063
 20
11.8124755064
 30
0.0
 10
14.5950046394
 20
11.813416003
 30
0.0
 10
14.5973713016
 20
11.814491101
 30
0.0
 10
14.5995625039
 20
11.8156952732
 30
0.0
 10
14.6015685398
 20
11.8170230356
 30
0.0
 10
14.6033795603
 20
11.8184695293
 30
0.0
 10
14.6049868608
 20
11.8200287927
 30
0.0
 10
14.6063835275
 20
11.8216936092
 30
0.0
 10
14.607562594
 20
11.8234572758
 30
0.0
 10
14.6085164634
 20
11.8253117646
 30
0.0
 10
14.6090010358
 20
11.8266048277
 30
0.0
 10
14.6092035056
 20
11.8272596278
 30
0.0
  0
SPLINE
  5
2A5
100
AcDbEntity
  8
0
100
AcDbSpline
 62
7
  6
CONTINUOUS
 70
0
 71
3
 72
21
 73
17
 74
0
 42
0.0000001
 43
0.0000001
 44
0.0000000001
 40
0.0
 40
0.0
 40
0.0
 40
0.0
 40
0.056548897
 40
0.1148912277
 40
0.1748164845
 40
0.2361075071
 40
0.2985653393
 40
0.3619929636
 40
0.4908920501
 40
0.6209956397
 40
0.6859175487
 40
0.75044432
 40
0.814357526
 40
0.8774284854
 40
0.9393962712
 40
1.0
 40
1.0
 40
1.0
 40
1.0
 10
14.3383973575
 20
11.8303189696
 30
0.0
 10
14.339239964
 20
11.829556073
 30
0.0
 10
14.3409978012
 20
11.8280561392
 30
0.0
 10
14.3437907161
 20
11.8259212933
 30
0.0
 10
14.3467669825
 20
11.8238769717
 30
0.0
 10
14.3499097107
 20
11.8219368955
 30
0.0
 10
14.3532009836
 20
11.8201112717
 30
0.0
 10
14.3577877577
 20
11.8178300412
 30
0.0
 10
14.3637763301
 20
11.8153298777
 30
0.0
 10
14.3699817177
 20
11.8133317186
 30
0.0
 10
14.3750402803
 20
11.8120498839
 30
0.0
 10
14.3788462179
 20
11.8112557573
 30
0.0
 10
14.3826462261
 20
11.8106331045
 30
0.0
 10
14.3864191628
 20
11.8101860547
 30
0.0
 10
14.3901421079
 20
11.8099156393
 30
0.0
 10
14.3926062221
 20
11.8098533626
 30
0.0
 10
14.3938243867
 20
11.8098533626
 30
0.0
  0
SPLINE
  5
2A6
100
AcDbEntity
  8
0
100
AcDbSpline
 62
7
  6
CONTINUOUS
 70
0
 71
3
 72
19
 73
15
 74
0
 42
0.0000001
 43
0.0000001
 44
0.0000000001
 40
0.0
 40
0.0
 40
0.0
 40
0.0
 40
0.0605497936
 40
0.1225024517
 40
0.1855941844
 40
0.2495549511
 40
0.3790347493
 40
0.5091124199
 40
0.6379818425
 40
0.763892797
 40
0.8252262255
 40
0.8851709456
 40
0.9435004853
 40
1.0
 40
1.0
 40
1.0
 40
1.0
 10
13.6397909185
 20
11.9093109575
 30
0.0
 10
13.6406022529
 20
11.9093109575
 30
0.0
 10
13.6422439641
 20
11.9092693031
 30
0.0
 10
13.644725092
 20
11.9090888215
 30
0.0
 10
13.6472409521
 20
11.9087907637
 30
0.0
 10
13.650634207
 20
11.9082358709
 30
0.0
 10
13.6548629399
 20
11.907256288
 30
0.0
 10
13.6598232965
 20
11.9056606332
 30
0.0
 10
13.6645871326
 20
11.9036701149
 30
0.0
 10
13.6683449022
 20
11.9017017496
 30
0.0
 10
13.671163649
 20
11.8999603295
 30
0.0
 10
13.6731482235
 20
11.8985971116
 30
0.0
 10
13.6750097582
 20
11.8971745564
 30
0.0
 10
13.6761810606
 20
11.8961753401
 30
0.0
 10
13.6767422714
 20
11.8956672195
 30
0.0
  0
SPLINE
  5
2A7
100
AcDbEntity
  8
0
100
AcDbSpline
 62
7
  6
CONTINUOUS
 70
0
 71
3
 72
19
 73
15
 74
0
 42
0.0000001
 43
0.0000001
 44
0.0000000001
 40
0.0
 40
0.0
 40
0.0
 40
0.0
 40
0.0605497936
 40
0.1225024517
 40
0.1855941844
 40
0.2495549511
 40
0.3790347493
 40
0.5091124199
 40
0.6379818425
 40
0.763892797
 40
0.8252262255
 40
0.8851709456
 40
0.9435004853
 40
1.0
 40
1.0
 40
1.0
 40
1.0
 10
14.2292699547
 20
11.9093109575
 30
0.0
 10
14.230081289
 20
11.9093109575
 30
0.0
 10
14.2317230003
 20
11.9092693031
 30
0.0
 10
14.2342041282
 20
11.9090888215
 30
0.0
 10
14.2367199883
 20
11.9087907637
 30
0.0
 10
14.2401132432
 20
11.9082358709
 30
0.0
 10
14.244341976
 20
11.907256288
 30
0.0
 10
14.2493023327
 20
11.9056606332
 30
0.0
 10
14.2540661688
 20
11.9036701149
 30
0.0
 10
14.2578239383
 20
11.9017017496
 30
0.0
 10
14.2606426851
 20
11.8999603295
 30
0.0
 10
14.2626272596
 20
11.8985971116
 30
0.0
 10
14.2644887944
 20
11.8971745564
 30
0.0
 10
14.2656600968
 20
11.8961753401
 30
0.0
 10
14.2662213075
 20
11.8956672195
 30
0.0
  0
SPLINE
  5
2A8
100
AcDbEntity
  8
0
100
AcDbSpline
 62
7
  6
CONTINUOUS
 70
0
 71
3
 72
19
 73
15
 74
0
 42
0.0000001
 43
0.0000001
 44
0.0000000001
 40
0.0
 40
0.0
 40
0.0
 40
0.0
 40
0.0605497936
 40
0.1225024517
 40
0.1855941844
 40
0.2495549511
 40
0.3790347493
 40
0.5091124199
 40
0.6379818425
 40
0.763892797
 40
0.8252262255
 40
0.8851709456
 40
0.9435004853
 40
1.0
 40
1.0
 40
1.0
 40
1.0
 10
14.8187489909
 20
11.9093109575
 30
0.0
 10
14.8195603252
 20
11.9093109575
 30
0.0
 10
14.8212020364
 20
11.9092693031
 30
0.0
 10
14.8236831643
 20
11.9090888215
 30
0.0
 10
14.8261990244
 20
11.9087907637
 30
0.0
 10
14.8295922793
 20
11.9082358709
 30
0.0
 10
14.8338210122
 20
11.907256288
 30
0.0
 10
14.8387813688
 20
11.9056606332
 30
0.0
 10
14.843545205
 20
11.9036701149
 30
0.0
 10
14.8473029745
 20
11.9017017496
 30
0.0
 10
14.8501217213
 20
11.8999603295
 30
0.0
 10
14.8521062958
 20
11.8985971116
 30
0.0
 10
14.8539678305
 20
11.8971745564
 30
0.0
 10
14.855139133
 20
11.8961753401
 30
0.0
 10
14.8557003437
 20
11.8956672195
 30
0.0
  0
SPLINE
  5
2A9
100
AcDbEntity
  8
0
100
AcDbSpline
 62
7
  6
CONTINUOUS
 70
0
 71
3
 72
19
 73
15
 74
0
 42
0.0000001
 43
0.0000001
 44
0.0000000001
 40
0.0
 40
0.0
 40
0.0
 40
0.0
 40
0.0605497936
 40
0.1225024517
 40
0.1855941844
 40
0.2495549511
 40
0.3790347493
 40
0.5091124199
 40
0.6379818425
 40
0.763892797
 40
0.8252262255
 40
0.8851709456
 40
0.9435004853
 40
1.0
 40
1.0
 40
1.0
 40
1.0
 10
15.408228027
 20
11.9093109575
 30
0.0
 10
15.4090393613
 20
11.9093109575
 30
0.0
 10
15.4106810726
 20
11.9092693031
 30
0.0
 10
15.4131622005
 20
11.9090888215
 30
0.0
 10
15.4156780606
 20
11.9087907637
 30
0.0
 10
15.4190713155
 20
11.9082358709
 30
0.0
 10
15.4233000484
 20
11.907256288
 30
0.0
 10
15.428260405
 20
11.9056606332
 30
0.0
 10
15.4330242411
 20
11.9036701149
 30
0.0
 10
15.4367820107
 20
11.9017017496
 30
0.0
 10
15.4396007575
 20
11.8999603295
 30
0.0
 10
15.441585332
 20
11.8985971116
 30
0.0
 10
15.4434468667
 20
11.8971745564
 30
0.0
 10
15.4446181691
 20
11.8961753401
 30
0.0
 10
15.4451793799
 20
11.8956672195
 30
0.0
  0
SPLINE
  5
2AA
100
AcDbEntity
  8
0
100
AcDbSpline
 62
7
  6
CONTINUOUS
 70
0
 71
3
 72
19
 73
15
 74
0
 42
0.0000001
 43
0.0000001
 44
0.0000000001
 40
0.0
 40
0.0
 40
0.0
 40
0.0
 40
0.0605497936
 40
0.1225024517
 40
0.1855941844
 40
0.2495549511
 40
0.3790347493
 40
0.5091124199
 40
0.6379818425
 40
0.763892797
 40
0.8252262255
 40
0.8851709456
 40
0.9435004853
 40
1.0
 40
1.0
 40
1.0
 40
1.0
 10
15.9977070632
 20
11.9093109575
 30
0.0
 10
15.9985183975
 20
11.9093109575
 30
0.0
 10
16.0001601087
 20
11.9092693031
 30
0.0
 10
16.0026412367
 20
11.9090888215
 30
0.0
 10
16.0051570967
 20
11.9087907637
 30
0.0
 10
16.0085503516
 20
11.9082358709
 30
0.0
 10
16.0127790845
 20
11.907256288
 30
0.0
 10
16.0177394412
 20
11.9056606332
 30
0.0
 10
16.0225032773
 20
11.9036701149
 30
0.0
 10
16.0262610468
 20
11.9017017496
 30
0.0
 10
16.0290797936
 20
11.8999603295
 30
0.0
 10
16.0310643681
 20
11.8985971116
 30
0.0
 10
16.0329259029
 20
11.8971745564
 30
0.0
 10
16.0340972053
 20
11.8961753401
 30
0.0
 10
16.034658416
 20
11.8956672195
 30
0.0
  0
SPLINE
  5
2AB
100
AcDbEntity
  8
0
100
AcDbSpline
 62
7
  6
CONTINUOUS
 70
0
 71
3
 72
19
 73
15
 74
0
 42
0.0000001
 43
0.0000001
 44
0.0000000001
 40
0.0
 40
0.0
 40
0.0
 40
0.0
 40
0.0605497936
 40
0.1225024517
 40
0.1855941844
 40
0.2495549511
 40
0.3790347493
 40
0.5091124199
 40
0.6379818425
 40
0.763892797
 40
0.8252262255
 40
0.8851709456
 40
0.9435004853
 40
1.0
 40
1.0
 40
1.0
 40
1.0
 10
16.5871860993
 20
11.9093109575
 30
0.0
 10
16.5879974337
 20
11.9093109575
 30
0.0
 10
16.5896391449
 20
11.9092693031
 30
0.0
 10
16.5921202728
 20
11.9090888215
 30
0.0
 10
16.5946361329
 20
11.9087907637
 30
0.0
 10
16.5980293878
 20
11.9082358709
 30
0.0
 10
16.6022581207
 20
11.907256288
 30
0.0
 10
16.6072184773
 20
11.9056606332
 30
0.0
 10
16.6119823134
 20
11.9036701149
 30
0.0
 10
16.615740083
 20
11.9017017496
 30
0.0
 10
16.6185588298
 20
11.8999603295
 30
0.0
 10
16.6205434043
 20
11.8985971116
 30
0.0
 10
16.622404939
 20
11.8971745564
 30
0.0
 10
16.6235762414
 20
11.8961753401
 30
0.0
 10
16.6241374522
 20
11.8956672195
 30
0.0
  0
ENDSEC
  0
SECTION
  2
OBJECTS
  0
DICTIONARY
  5
C
100
AcDbDictionary
280
0
281
1
  3
ACAD_GROUP
350
D
  3
ACAD_MLINESTYLE
350
17
  3
ACAD_LAYOUT
350
1A
  3
ACAD_PLOTSETTINGS
350
19
  3
ACAD_PLOTSTYLENAME
350
E
  0
DICTIONARY
  5
D
102
{ACAD_REACTORS
330
C
102
}
100
AcDbDictionary
280
0
281
1
  0
ACDBDICTIONARYWDFLT
  5
E
102
{ACAD_REACTORS
330
C
102
}
100
AcDbDictionary
281
1
  3
Normal
350
F
100
AcDbDictionaryWithDefault
340
F
  0
DICTIONARY
  5
17
102
{ACAD_REACTORS
330
C
102
}
100
AcDbDictionary
280
0
281
1
  3
Standard
350
18
  0
DICTIONARY
  5
19
102
{ACAD_REACTORS
330
C
102
}
100
AcDbDictionary
281
1
  0
DICTIONARY
  5
1A
102
{ACAD_REACTORS
330
C
102
}
100
AcDbDictionary
281
1
  3
Model
350
2AC
  3
Layout1
350
2AD
  0
ACDBPLACEHOLDER
  5
F
102
{ACAD_REACTORS
330
E
102
}
  0
MLINESTYLE
  5
18
102
{ACAD_REACTORS
330
17
102
}
100
AcDbMlineStyle
  2
STANDARD
 70
0
  3

 62
256
 51
90.0
 52
90.0
 71
2
 49
0.5
 62
256
  6
BYLAYER
 49
-0.5
 62
256
  6
BYLAYER
  0
LAYOUT
  5
2AC
102
{ACAD_REACTORS
330
1A
102
}
100
AcDbPlotSettings
  1

  2
none_device
  4
ANSI_C_(22.00_x_17.00_Inches)
  6

 40
0.0
 41
0.0
 42
0.0
 43
0.0
 44
558.8
 45
431.8
 46
0.0
 47
0.0
 48
0.0
 49
0.0
140
0.0
141
0.0
142
1.0
143
1.0
 70
1024
 72
0
 73
0
 74
0
  7

 75
0
147
1.0
148
0.0
149
0.0
100
AcDbLayout
  1
Model
 70
0
 71
0
 10
0.0
 20
0.0
 11
22.0
 21
17.0
 12
0.0
 22
0.0
 32
0.0
 14
0.0
 24
0.0
 34
0.0
 15
0.0
 25
0.0
 35
0.0
146
0.0
 13
0.0
 23
0.0
 33
0.0
 16
1.0
 26
0.0
 36
0.0
 17
0.0
 27
1.0
 37
0.0
 76
0
330
216
345
0
346
0
  0
LAYOUT
  5
2AD
102
{ACAD_REACTORS
330
1A
102
}
100
AcDbPlotSettings
  1

  2
none_device
  4
ANSI_C_(22.00_x_17.00_Inches)
  6

 40
0.0
 41
0.0
 42
0.0
 43
0.0
 44
558.8
 45
431.8
 46
0.0
 47
0.0
 48
0.0
 49
0.0
140
0.0
141
0.0
142
1.0
143
1.0
 70
0
 72
0
 73
0
 74
0
  7

 75
0
147
1.0
148
0.0
149
0.0
100
AcDbLayout
  1
Layout1
 70
0
 71
1
 10
0.0
 20
0.0
 11
22.0
 21
17.0
 12
0.0
 22
0.0
 32
0.0
 14
0.0
 24
0.0
 34
0.0
 15
0.0
 25
0.0
 35
0.0
146
0.0
 13
0.0
 23
0.0
 33
0.0
 16
1.0
 26
0.0
 36
0.0
 17
0.0
 27
1.0
 37
0.0
 76
0
330
217
345
0
346
0
  0
ENDSEC
  0
EOF