999
DXF file: _cgs_temp_output.dxf
999
Pro/ENGINEER 2015110 by Parametric Technology Corporation
  0
SECTION
  2
HEADER
  9
$ACADVER
  1
AC1021
  9
$DWGCODEPAGE
  3
ANSI_1252
  9
$EXTMAX
 10
22.0
 20
17.0
 30
0.0
  9
$EXTMIN
 10
0.0
 20
0.0
 30
0.0
  9
$LIMMIN
 10
0.0
 20
0.0
  9
$LIMMAX
 10
22.0
 20
17.0
  9
$VIEWCTR
 10
11.0
 20
8.5
  9
$VIEWSIZE
 40
17.0
  9
$CLAYER
  8
0
  9
$LTSCALE
 40
1.21
  9
$CELTYPE
  6
BYLAYER
  9
$DIMSCALE
 40
1.0
  9
$DIMASZ
 40
0.1875
  9
$DIMEXO
 40
0.0625
  9
$DIMDLI
 40
0.836
  9
$DIMEXE
 40
0.125
  9
$DIMCEN
 40
0.198
  9
$DIMLFAC
 40
1.0
  9
$DIMBLK
  1
_CLOSED
  9
$DIMALT
 70
0
  9
$DIMALTF
 40
25.4
  9
$DIMTXT
 40
0.15625
  9
$DIMTOL
 70
0
  9
$DIMLIM
 70
0
  9
$DIMTFAC
 40
1.0
  9
$DIMGAP
 40
0.09
  9
$DIMDSEP
 70
46
  9
$AUNITS
 70
0
  9
$PDMODE
 70
3
  9
$PDSIZE
 40
0.3125
  9
$HANDSEED
  5
29C
  9
$TILEMODE
 70
1
  9
$MEASUREMENT
 70
0
  9
$INSUNITS
 70
1
  0
ENDSEC
  0
SECTION
  2
CLASSES
  0
CLASS
  1
ACDBDICTIONARYWDFLT
  2
AcDbDictionaryWithDefault
  3
AutoCAD 2000
 90
0
 91
1
280
0
281
0
  0
CLASS
  1
ACDBPLACEHOLDER
  2
AcDbPlaceHolder
  3
AutoCAD 2000
 90
0
 91
1
280
0
281
0
  0
CLASS
  1
LAYOUT
  2
AcDbLayout
  3
AutoCAD 2000
 90
0
 91
0
280
0
281
0
  0
ENDSEC
  0
SECTION
  2
TABLES
  0
TABLE
  2
VPORT
  5
8
100
AcDbSymbolTable
 70
2
  0
VPORT
  5
1F4
100
AcDbSymbolTableRecord
100
AcDbViewportTableRecord
  2
*ACTIVE
 70
0
 10
0.0
 20
0.0
 11
1.0
 21
1.0
 12
11.0
 22
8.5
 13
0.0
 23
0.0
 14
1.0
 24
1.0
 15
0.0
 25
0.0
 16
0.0
 26
0.0
 36
1.0
 17
0.0
 27
0.0
 37
0.0
 40
17.0
 41
1.2941176471
 42
50.0
 43
0.0
 44
0.0
 50
0.0
 51
0.0
 71
0
 72
100
 73
1
 74
1
 75
0
 76
0
 77
0
 78
0
  0
ENDTAB
  0
TABLE
  2
LTYPE
  5
5
100
AcDbSymbolTable
 70
6
  0
LTYPE
  5
14
100
AcDbSymbolTableRecord
100
AcDbLinetypeTableRecord
  2
BYBLOCK
 70
0
  3

 72
65
 73
0
 40
0.0
  0
LTYPE
  5
15
100
AcDbSymbolTableRecord
100
AcDbLinetypeTableRecord
  2
BYLAYER
 70
0
  3

 72
65
 73
0
 40
0.0
  0
LTYPE
  5
16
100
AcDbSymbolTableRecord
100
AcDbLinetypeTableRecord
  2
CONTINUOUS
 70
64
  3
Solid line
 72
65
 73
0
 40
0.0
  0
LTYPE
  5
1F5
100
AcDbSymbolTableRecord
100
AcDbLinetypeTableRecord
  2
CENTER
 70
64
  3
____ _ ____ _ ____ _ ____ _ ____ _ ____ _ ____
 72
65
 73
4
 40
0.6
 49
0.375
 74
0
 49
-0.075
 74
0
 49
0.075
 74
0
 49
-0.075
 74
0
  0
LTYPE
  5
1F6
100
AcDbSymbolTableRecord
100
AcDbLinetypeTableRecord
  2
HIDDEN
 70
64
  3
- - - - - - - - - - - - - - - - - - - -
 72
65
 73
2
 40
0.2
 49
0.1
 74
0
 49
-0.1
 74
0
  0
LTYPE
  5
1F7
100
AcDbSymbolTableRecord
100
AcDbLinetypeTableRecord
  2
PHANTOM
 70
64
  3
_____ _ _ _____ _ _ _____ _ _ _____
 72
65
 73
6
 40
0.8
 49
0.45
 74
0
 49
-0.05
 74
0
 49
0.1
 74
0
 49
-0.05
 74
0
 49
0.1
 74
0
 49
-0.05
 74
0
  0
LTYPE
  5
1F8
100
AcDbSymbolTableRecord
100
AcDbLinetypeTableRecord
  2
DOT
 70
64
  3
. . . . . . . . . . . . . . . . . . . .
 72
65
 73
2
 40
0.2
 49
0.1
 74
0
 49
-0.1
 74
0
  0
LTYPE
  5
1F9
100
AcDbSymbolTableRecord
100
AcDbLinetypeTableRecord
  2
DASHED
 70
64
  3
- - - - - - - - - - - - - - - - - - - -
 72
65
 73
2
 40
0.2
 49
0.1
 74
0
 49
-0.1
 74
0
  0
ENDTAB
  0
TABLE
  2
LAYER
  5
2
100
AcDbSymbolTable
 70
36
  0
LAYER
  5
10
100
AcDbSymbolTableRecord
100
AcDbLayerTableRecord
  2
0
 70
0
 62
7
  6
CONTINUOUS
370
-3
390
F
  0
LAYER
  5
1FA
100
AcDbSymbolTableRecord
100
AcDbLayerTableRecord
  2
DEFAULT_1
 70
0
 62
7
  6
CENTER
370
-3
390
F
  0
LAYER
  5
1FB
100
AcDbSymbolTableRecord
100
AcDbLayerTableRecord
  2
DEFAULT_2
 70
0
 62
8
  6
HIDDEN
370
-3
390
F
  0
LAYER
  5
1FC
100
AcDbSymbolTableRecord
100
AcDbLayerTableRecord
  2
DEFAULT_3
 70
0
 62
7
  6
PHANTOM
370
-3
390
F
  0
LAYER
  5
1FD
100
AcDbSymbolTableRecord
100
AcDbLayerTableRecord
  2
01_ALL_DTM_PLN
 70
0
 62
7
  6
CONTINUOUS
370
-3
390
F
  0
LAYER
  5
1FE
100
AcDbSymbolTableRecord
100
AcDbLayerTableRecord
  2
01__ASM_ALL_DTM_PLN
 70
0
 62
7
  6
CONTINUOUS
370
-3
390
F
  0
LAYER
  5
1FF
100
AcDbSymbolTableRecord
100
AcDbLayerTableRecord
  2
01__ASM_DEF_DTM_PLN
 70
0
 62
7
  6
CONTINUOUS
370
-3
390
F
  0
LAYER
  5
200
100
AcDbSymbolTableRecord
100
AcDbLayerTableRecord
  2
01___PRT_ALL_DTM_PLN
 70
0
 62
7
  6
CONTINUOUS
370
-3
390
F
  0
LAYER
  5
201
100
AcDbSymbolTableRecord
100
AcDbLayerTableRecord
  2
01___PRT_DEF_DTM_PLN
 70
0
 62
7
  6
CONTINUOUS
370
-3
390
F
  0
LAYER
  5
202
100
AcDbSymbolTableRecord
100
AcDbLayerTableRecord
  2
02_ALL_AXES
 70
0
 62
7
  6
CONTINUOUS
370
-3
390
F
  0
LAYER
  5
203
100
AcDbSymbolTableRecord
100
AcDbLayerTableRecord
  2
02__ASM_ALL_AXES
 70
0
 62
7
  6
CONTINUOUS
370
-3
390
F
  0
LAYER
  5
204
100
AcDbSymbolTableRecord
100
AcDbLayerTableRecord
  2
02___PRT_ALL_AXES
 70
0
 62
7
  6
CONTINUOUS
370
-3
390
F
  0
LAYER
  5
205
100
AcDbSymbolTableRecord
100
AcDbLayerTableRecord
  2
03_ALL_CURVES
 70
0
 62
7
  6
CONTINUOUS
370
-3
390
F
  0
LAYER
  5
206
100
AcDbSymbolTableRecord
100
AcDbLayerTableRecord
  2
03__ASM_ALL_CURVES
 70
0
 62
7
  6
CONTINUOUS
370
-3
390
F
  0
LAYER
  5
207
100
AcDbSymbolTableRecord
100
AcDbLayerTableRecord
  2
03___PRT_ALL_CURVES
 70
0
 62
7
  6
CONTINUOUS
370
-3
390
F
  0
LAYER
  5
208
100
AcDbSymbolTableRecord
100
AcDbLayerTableRecord
  2
04_ALL_DTM_PNT
 70
0
 62
7
  6
CONTINUOUS
370
-3
390
F
  0
LAYER
  5
209
100
AcDbSymbolTableRecord
100
AcDbLayerTableRecord
  2
04__ASM_ALL_DTM_PNT
 70
0
 62
7
  6
CONTINUOUS
370
-3
390
F
  0
LAYER
  5
20A
100
AcDbSymbolTableRecord
100
AcDbLayerTableRecord
  2
04___PRT_ALL_DTM_PNT
 70
0
 62
7
  6
CONTINUOUS
370
-3
390
F
  0
LAYER
  5
20B
100
AcDbSymbolTableRecord
100
AcDbLayerTableRecord
  2
05_ALL_DTM_CSYS
 70
0
 62
7
  6
CONTINUOUS
370
-3
390
F
  0
LAYER
  5
20C
100
AcDbSymbolTableRecord
100
AcDbLayerTableRecord
  2
05__ASM_ALL_DTM_CSYS
 70
0
 62
7
  6
CONTINUOUS
370
-3
390
F
  0
LAYER
  5
20D
100
AcDbSymbolTableRecord
100
AcDbLayerTableRecord
  2
05__ASM_DEF_DTM_CSYS
 70
0
 62
7
  6
CONTINUOUS
370
-3
390
F
  0
LAYER
  5
20E
100
AcDbSymbolTableRecord
100
AcDbLayerTableRecord
  2
05___PRT_ALL_DTM_CSYS
 70
0
 62
7
  6
CONTINUOUS
370
-3
390
F
  0
LAYER
  5
20F
100
AcDbSymbolTableRecord
100
AcDbLayerTableRecord
  2
05___PRT_DEF_DTM_CSYS
 70
0
 62
7
  6
CONTINUOUS
370
-3
390
F
  0
LAYER
  5
210
100
AcDbSymbolTableRecord
100
AcDbLayerTableRecord
  2
06_ALL_SURFS
 70
0
 62
7
  6
CONTINUOUS
370
-3
390
F
  0
LAYER
  5
211
100
AcDbSymbolTableRecord
100
AcDbLayerTableRecord
  2
06__ASM_ALL_SURFS
 70
0
 62
7
  6
CONTINUOUS
370
-3
390
F
  0
LAYER
  5
212
100
AcDbSymbolTableRecord
100
AcDbLayerTableRecord
  2
06___PRT_ALL_SURFS
 70
0
 62
7
  6
CONTINUOUS
370
-3
390
F
  0
LAYER
  5
213
100
AcDbSymbolTableRecord
100
AcDbLayerTableRecord
  2
07__ASM_ALL_SKELETONS
 70
0
 62
7
  6
CONTINUOUS
370
-3
390
F
  0
LAYER
  5
214
100
AcDbSymbolTableRecord
100
AcDbLayerTableRecord
  2
LAYER_DIM
 70
0
 62
7
  6
CONTINUOUS
370
-3
390
F
  0
LAYER
  5
215
100
AcDbSymbolTableRecord
100
AcDbLayerTableRecord
  2
LAYER_FEATURE
 70
0
 62
7
  6
CONTINUOUS
370
-3
390
F
  0
LAYER
  5
216
100
AcDbSymbolTableRecord
100
AcDbLayerTableRecord
  2
LAYER_GEOM_FEAT
 70
0
 62
7
  6
CONTINUOUS
370
-3
390
F
  0
LAYER
  5
217
100
AcDbSymbolTableRecord
100
AcDbLayerTableRecord
  2
LAYER_PARAMETER_DIM
 70
0
 62
7
  6
CONTINUOUS
370
-3
390
F
  0
LAYER
  5
218
100
AcDbSymbolTableRecord
100
AcDbLayerTableRecord
  2
LAYER_PROTRUSION_FEAT
 70
0
 62
7
  6
CONTINUOUS
370
-3
390
F
  0
LAYER
  5
219
100
AcDbSymbolTableRecord
100
AcDbLayerTableRecord
  2
LAYER_ROUND_FEAT
 70
0
 62
7
  6
CONTINUOUS
370
-3
390
F
  0
ENDTAB
  0
TABLE
  2
STYLE
  5
3
100
AcDbSymbolTable
 70
1
  0
STYLE
  5
11
100
AcDbSymbolTableRecord
100
AcDbTextStyleTableRecord
  2
STANDARD
 70
0
 40
0.0
 41
0.8
 50
0.0
 71
0
 42
0.2
  3
txt
  4

  0
STYLE
  5
21A
100
AcDbSymbolTableRecord
100
AcDbTextStyleTableRecord
  2
TEXTSTYLE_1
 70
0
 40
0.0
 41
0.8
 50
0.0
 71
0
 42
0.2
  3
gdt
  4

  0
ENDTAB
  0
TABLE
  2
VIEW
  5
6
100
AcDbSymbolTable
 70
0
  0
ENDTAB
  0
TABLE
  2
UCS
  5
7
100
AcDbSymbolTable
 70
0
  0
ENDTAB
  0
TABLE
  2
APPID
  5
9
100
AcDbSymbolTable
 70
1
  0
APPID
  5
21B
100
AcDbSymbolTableRecord
100
AcDbRegAppTableRecord
  2
ACAD
 70
0
  0
ENDTAB
  0
TABLE
  2
BLOCK_RECORD
  5
1
100
AcDbSymbolTable
 70
0
  0
BLOCK_RECORD
  5
21C
100
AcDbSymbolTableRecord
100
AcDbBlockTableRecord
  2
*Model_Space
  0
BLOCK_RECORD
  5
21D
100
AcDbSymbolTableRecord
100
AcDbBlockTableRecord
  2
*Paper_Space
  0
ENDTAB
  0
TABLE
  2
DIMSTYLE
  5
A
100
AcDbSymbolTable
 70
1
100
AcDbDimStyleTable
 71
0
  0
DIMSTYLE
105
21E
100
AcDbSymbolTableRecord
100
AcDbDimStyleTableRecord
  2
STANDARD
 70
0
  3

  4

 40
1.0
 41
0.1875
 42
0.0625
 43
0.38
 44
0.125
 45
0.0
 46
0.0
 47
0.0001
 48
0.0001
140
0.15625
141
0.09
142
0.0
143
25.4
144
1.0
145
0.0
146
1.0
147
0.09
 71
0.0
 72
0.0
 73
1
 74
1
 75
0
 76
0
 77
0
 78
4
170
0
171
2
172
0
173
0
174
0
175
0
176
0
177
0
178
0
270
2
271
4
272
4
273
2
274
2
275
0
280
0
281
0
282
0
283
1
284
4
285
0
286
0
287
3
288
0
340
11
278
46
  0
ENDTAB
  0
ENDSEC
  0
SECTION
  2
BLOCKS
  0
BLOCK
  5
20
100
AcDbEntity
  8
0
100
AcDbBlockBegin
  2
*Model_Space
 70
0
 10
0.0
 20
0.0
 30
0.0
  3
*Model_Space
  1

  0
ENDBLK
  5
21
100
AcDbEntity
  8
0
100
AcDbBlockEnd
  0
BLOCK
  5
1C
100
AcDbEntity
  8
0
100
AcDbBlockBegin
  2
*Paper_Space
 70
0
 10
0.0
 20
0.0
 30
0.0
  3
*Paper_Space
  1

  0
ENDBLK
  5
1D
100
AcDbEntity
  8
0
100
AcDbBlockEnd
  0
ENDSEC
  0
SECTION
  2
ENTITIES
  0
MTEXT
  5
21F
100
AcDbEntity
  8
0
100
AcDbMText
 62
7
  6
CONTINUOUS
  7
STANDARD
 71
1
 72
1
 10
15.9560215477
 20
0.9479130325
 30
0.0
 11
1.0
 21
0.0
 31
0.0
 44
0.9
  1
SCALE: 1:1.000
 40
0.3
 41
3.36
  0
LINE
  5
220
100
AcDbEntity
  8
0
100
AcDbLine
 62
7
  6
CONTINUOUS
 10
0.0
 20
0.0
 11
0.0
 21
17.0
  0
LINE
  5
221
100
AcDbEntity
  8
0
100
AcDbLine
 62
7
  6
CONTINUOUS
 10
0.0
 20
0.0
 11
22.0
 21
0.0
  0
LINE
  5
222
100
AcDbEntity
  8
0
100
AcDbLine
 62
7
  6
CONTINUOUS
 10
0.0
 20
17.0
 11
22.0
 21
17.0
  0
LINE
  5
223
100
AcDbEntity
  8
0
100
AcDbLine
 62
7
  6
CONTINUOUS
 10
22.0
 20
0.0
 11
22.0
 21
17.0
  0
LINE
  5
224
100
AcDbEntity
  8
0
100
AcDbLine
 62
7
  6
CONTINUOUS
 10
5.1283672762
 20
5.6951198968
 11
5.1283672762
 21
5.6401198968
  0
LINE
  5
225
100
AcDbEntity
  8
0
100
AcDbLine
 62
7
  6
CONTINUOUS
 10
5.1283672762
 20
5.6401198968
 11
5.1967933187
 21
5.3424065888
  0
LINE
  5
226
100
AcDbEntity
  8
0
100
AcDbLine
 62
7
  6
CONTINUOUS
 10
5.5083672762
 20
5.6401198968
 11
5.5083672762
 21
5.6751198968
  0
LINE
  5
227
100
AcDbEntity
  8
0
100
AcDbLine
 62
7
  6
CONTINUOUS
 10
5.4399412336
 20
5.3424065888
 11
5.5083672762
 21
5.6401198968
  0
LINE
  5
228
100
AcDbEntity
  8
LAYER_FEATURE
100
AcDbLine
 62
7
  6
CONTINUOUS
 10
5.5343672762
 20
5.6751198968
 11
5.5343672762
 21
5.6401198968
  0
LINE
  5
229
100
AcDbEntity
  8
LAYER_FEATURE
100
AcDbLine
 62
7
  6
CONTINUOUS
 10
5.5343672762
 20
5.6401198968
 11
5.6027933187
 21
5.3424065888
  0
LINE
  5
22A
100
AcDbEntity
  8
LAYER_FEATURE
100
AcDbLine
 62
7
  6
CONTINUOUS
 10
5.9143672762
 20
5.6401198968
 11
5.9143672762
 21
5.6751198968
  0
LINE
  5
22B
100
AcDbEntity
  8
LAYER_FEATURE
100
AcDbLine
 62
7
  6
CONTINUOUS
 10
5.8459412336
 20
5.3424065888
 11
5.9143672762
 21
5.6401198968
  0
LINE
  5
22C
100
AcDbEntity
  8
LAYER_FEATURE
100
AcDbLine
 62
7
  6
CONTINUOUS
 10
5.9403672762
 20
5.6751198968
 11
5.9403672762
 21
5.6401198968
  0
LINE
  5
22D
100
AcDbEntity
  8
0
100
AcDbLine
 62
7
  6
CONTINUOUS
 10
5.2122243193
 20
5.3301198968
 11
5.424510233
 21
5.3301198968
  0
LINE
  5
22E
100
AcDbEntity
  8
LAYER_FEATURE
100
AcDbLine
 62
7
  6
CONTINUOUS
 10
5.6182243193
 20
5.3301198968
 11
5.830510233
 21
5.3301198968
  0
LINE
  5
22F
100
AcDbEntity
  8
LAYER_FEATURE
100
AcDbLine
 62
7
  6
CONTINUOUS
 10
6.0242243193
 20
5.3301198968
 11
6.236510233
 21
5.3301198968
  0
LINE
  5
230
100
AcDbEntity
  8
LAYER_FEATURE
100
AcDbLine
 62
7
  6
CONTINUOUS
 10
6.4302243193
 20
5.3301198968
 11
6.642510233
 21
5.3301198968
  0
LINE
  5
231
100
AcDbEntity
  8
LAYER_FEATURE
100
AcDbLine
 62
7
  6
CONTINUOUS
 10
6.8362243193
 20
5.3301198968
 11
7.048510233
 21
5.3301198968
  0
LINE
  5
232
100
AcDbEntity
  8
LAYER_FEATURE
100
AcDbLine
 62
7
  6
CONTINUOUS
 10
5.9403672762
 20
5.6401198968
 11
6.0087933187
 21
5.3424065888
  0
LINE
  5
233
100
AcDbEntity
  8
LAYER_FEATURE
100
AcDbLine
 62
7
  6
CONTINUOUS
 10
6.3203672762
 20
5.6401198968
 11
6.3203672762
 21
5.6751198968
  0
LINE
  5
234
100
AcDbEntity
  8
LAYER_FEATURE
100
AcDbLine
 62
7
  6
CONTINUOUS
 10
6.2519412336
 20
5.3424065888
 11
6.3203672762
 21
5.6401198968
  0
LINE
  5
235
100
AcDbEntity
  8
LAYER_FEATURE
100
AcDbLine
 62
7
  6
CONTINUOUS
 10
5.5083672762
 20
5.6751198968
 11
5.5343672762
 21
5.6751198968
  0
LINE
  5
236
100
AcDbEntity
  8
LAYER_FEATURE
100
AcDbLine
 62
7
  6
CONTINUOUS
 10
5.9143672762
 20
5.6751198968
 11
5.9403672762
 21
5.6751198968
  0
LINE
  5
237
100
AcDbEntity
  8
LAYER_FEATURE
100
AcDbLine
 62
7
  6
CONTINUOUS
 10
6.3203672762
 20
5.6751198968
 11
6.3463672762
 21
5.6751198968
  0
LINE
  5
238
100
AcDbEntity
  8
LAYER_FEATURE
100
AcDbLine
 62
7
  6
CONTINUOUS
 10
6.7263672762
 20
5.6751198968
 11
6.7523672762
 21
5.6751198968
  0
LINE
  5
239
100
AcDbEntity
  8
0
100
AcDbLine
 62
7
  6
CONTINUOUS
 10
7.1173672762
 20
5.7101198968
 11
5.1433672762
 21
5.7101198968
  0
LINE
  5
23A
100
AcDbEntity
  8
LAYER_FEATURE
100
AcDbLine
 62
7
  6
CONTINUOUS
 10
6.3463672762
 20
5.6751198968
 11
6.3463672762
 21
5.6401198968
  0
LINE
  5
23B
100
AcDbEntity
  8
LAYER_FEATURE
100
AcDbLine
 62
7
  6
CONTINUOUS
 10
6.3463672762
 20
5.6401198968
 11
6.4147933187
 21
5.3424065888
  0
LINE
  5
23C
100
AcDbEntity
  8
LAYER_FEATURE
100
AcDbLine
 62
7
  6
CONTINUOUS
 10
6.7263672762
 20
5.6401198968
 11
6.7263672762
 21
5.6751198968
  0
LINE
  5
23D
100
AcDbEntity
  8
LAYER_FEATURE
100
AcDbLine
 62
7
  6
CONTINUOUS
 10
6.6579412336
 20
5.3424065888
 11
6.7263672762
 21
5.6401198968
  0
LINE
  5
23E
100
AcDbEntity
  8
LAYER_FEATURE
100
AcDbLine
 62
7
  6
CONTINUOUS
 10
6.7523672762
 20
5.6751198968
 11
6.7523672762
 21
5.6401198968
  0
LINE
  5
23F
100
AcDbEntity
  8
LAYER_FEATURE
100
AcDbLine
 62
7
  6
CONTINUOUS
 10
6.7523672762
 20
5.6401198968
 11
6.8207933187
 21
5.3424065888
  0
LINE
  5
240
100
AcDbEntity
  8
0
100
AcDbLine
 62
7
  6
CONTINUOUS
 10
7.1323672762
 20
5.6401198968
 11
7.1323672762
 21
5.6951198968
  0
LINE
  5
241
100
AcDbEntity
  8
LAYER_FEATURE
100
AcDbLine
 62
7
  6
CONTINUOUS
 10
7.0639412336
 20
5.3424065888
 11
7.1323672762
 21
5.6401198968
  0
LINE
  5
242
100
AcDbEntity
  8
0
100
AcDbLine
 62
7
  6
CONTINUOUS
 10
7.0728720839
 20
10.6000477814
 11
5.0688720839
 21
10.6000477814
  0
LINE
  5
243
100
AcDbEntity
  8
0
100
AcDbLine
 62
7
  6
CONTINUOUS
 10
5.0688720839
 20
14.6000477814
 11
5.0688720839
 21
10.6000477814
  0
LINE
  5
244
100
AcDbEntity
  8
0
100
AcDbLine
 62
7
  6
CONTINUOUS
 10
7.0728720839
 20
10.6000477814
 11
7.0728720839
 21
14.6000477814
  0
LINE
  5
245
100
AcDbEntity
  8
0
100
AcDbLine
 62
7
  6
CONTINUOUS
 10
5.0688720839
 20
14.6000477814
 11
7.0728720839
 21
14.6000477814
  0
LINE
  5
246
100
AcDbEntity
  8
LAYER_FEATURE
100
AcDbLine
 62
7
  6
CONTINUOUS
 10
13.5603552569
 20
5.2706247044
 11
13.5603552569
 21
5.5806247044
  0
LINE
  5
247
100
AcDbEntity
  8
0
100
AcDbLine
 62
7
  6
CONTINUOUS
 10
13.5603552569
 20
5.5806247044
 11
13.5603552569
 21
5.6506247044
  0
LINE
  5
248
100
AcDbEntity
  8
LAYER_FEATURE
100
AcDbLine
 62
7
  6
CONTINUOUS
 10
13.5603552569
 20
5.2706247044
 11
17.5603552569
 21
5.2706247044
  0
LINE
  5
249
100
AcDbEntity
  8
LAYER_FEATURE
100
AcDbLine
 62
7
  6
CONTINUOUS
 10
17.5603552569
 20
5.5806247044
 11
13.5603552569
 21
5.5806247044
  0
LINE
  5
24A
100
AcDbEntity
  8
0
100
AcDbLine
 62
7
  6
CONTINUOUS
 10
13.5603552569
 20
5.6506247044
 11
17.5603552569
 21
5.6506247044
  0
LINE
  5
24B
100
AcDbEntity
  8
0
100
AcDbLine
 62
7
  6
CONTINUOUS
 10
17.5603552569
 20
5.6506247044
 11
17.5603552569
 21
5.5806247044
  0
LINE
  5
24C
100
AcDbEntity
  8
LAYER_FEATURE
100
AcDbLine
 62
7
  6
CONTINUOUS
 10
17.5603552569
 20
5.2706247044
 11
17.5603552569
 21
5.5806247044
  0
LINE
  5
24D
100
AcDbEntity
  8
0
100
AcDbLine
 62
7
  6
CONTINUOUS
 10
14.0589196921
 20
11.0187443698
 11
14.212759274
 21
10.8336828099
  0
LINE
  5
24E
100
AcDbEntity
  8
0
100
AcDbLine
 62
7
  6
CONTINUOUS
 10
14.0421423894
 20
11.0529329181
 11
14.0589196921
 21
11.0187443698
  0
LINE
  5
24F
100
AcDbEntity
  8
LAYER_FEATURE
100
AcDbLine
 62
7
  6
CONTINUOUS
 10
14.4328704557
 20
11.0187443698
 11
14.5867100376
 21
10.8336828099
  0
LINE
  5
250
100
AcDbEntity
  8
0
100
AcDbLine
 62
7
  6
CONTINUOUS
 10
14.2307201223
 20
10.8260452797
 11
14.4262483969
 21
10.8260452797
  0
LINE
  5
251
100
AcDbEntity
  8
LAYER_FEATURE
100
AcDbLine
 62
7
  6
CONTINUOUS
 10
14.6046708859
 20
10.8260452797
 11
14.8001991605
 21
10.8260452797
  0
LINE
  5
252
100
AcDbEntity
  8
LAYER_FEATURE
100
AcDbLine
 62
7
  6
CONTINUOUS
 10
14.9786216494
 20
10.8260452797
 11
15.1741499241
 21
10.8260452797
  0
LINE
  5
253
100
AcDbEntity
  8
LAYER_FEATURE
100
AcDbLine
 62
7
  6
CONTINUOUS
 10
15.352572413
 20
10.8260452797
 11
15.5481006876
 21
10.8260452797
  0
LINE
  5
254
100
AcDbEntity
  8
LAYER_FEATURE
100
AcDbLine
 62
7
  6
CONTINUOUS
 10
15.7265231766
 20
10.8260452797
 11
15.9220514512
 21
10.8260452797
  0
LINE
  5
255
100
AcDbEntity
  8
0
100
AcDbLine
 62
7
  6
CONTINUOUS
 10
14.4089228698
 20
11.0187443698
 11
14.3982464045
 21
11.0405007187
  0
LINE
  5
256
100
AcDbEntity
  8
LAYER_FEATURE
100
AcDbLine
 62
7
  6
CONTINUOUS
 10
14.3982464045
 20
11.0405007187
 11
14.4221939903
 21
11.0405007187
  0
LINE
  5
257
100
AcDbEntity
  8
LAYER_FEATURE
100
AcDbLine
 62
7
  6
CONTINUOUS
 10
14.7721971681
 20
11.0405007187
 11
14.7961447539
 21
11.0405007187
  0
LINE
  5
258
100
AcDbEntity
  8
LAYER_FEATURE
100
AcDbLine
 62
7
  6
CONTINUOUS
 10
15.1461479316
 20
11.0405007187
 11
15.1700955175
 21
11.0405007187
  0
LINE
  5
259
100
AcDbEntity
  8
LAYER_FEATURE
100
AcDbLine
 62
7
  6
CONTINUOUS
 10
15.5200986952
 20
11.0405007187
 11
15.544046281
 21
11.0405007187
  0
LINE
  5
25A
100
AcDbEntity
  8
LAYER_FEATURE
100
AcDbLine
 62
7
  6
CONTINUOUS
 10
14.8068212192
 20
11.0187443698
 11
14.9606608012
 21
10.8336828099
  0
LINE
  5
25B
100
AcDbEntity
  8
LAYER_FEATURE
100
AcDbLine
 62
7
  6
CONTINUOUS
 10
14.4221939903
 20
11.0405007187
 11
14.4328704557
 21
11.0187443698
  0
LINE
  5
25C
100
AcDbEntity
  8
0
100
AcDbLine
 62
7
  6
CONTINUOUS
 10
15.8695570785
 20
11.0622570676
 11
14.0513826764
 21
11.0622570676
  0
LINE
  5
25D
100
AcDbEntity
  8
LAYER_FEATURE
100
AcDbLine
 62
7
  6
CONTINUOUS
 10
15.1807719828
 20
11.0187443698
 11
15.3346115647
 21
10.8336828099
  0
LINE
  5
25E
100
AcDbEntity
  8
LAYER_FEATURE
100
AcDbLine
 62
7
  6
CONTINUOUS
 10
14.7828736334
 20
11.0187443698
 11
14.7721971681
 21
11.0405007187
  0
LINE
  5
25F
100
AcDbEntity
  8
LAYER_FEATURE
100
AcDbLine
 62
7
  6
CONTINUOUS
 10
14.7961447539
 20
11.0405007187
 11
14.8068212192
 21
11.0187443698
  0
LINE
  5
260
100
AcDbEntity
  8
0
100
AcDbLine
 62
7
  6
CONTINUOUS
 10
14.4367133342
 20
10.8336828099
 11
14.4089228698
 21
11.0187443698
  0
LINE
  5
261
100
AcDbEntity
  8
0
100
AcDbLine
 62
7
  6
CONTINUOUS
 10
14.4365461228
 20
10.8312126694
 11
14.4367133342
 21
10.8336828099
  0
LINE
  5
262
100
AcDbEntity
  8
0
100
AcDbLine
 62
7
  6
CONTINUOUS
 10
15.0098922853
 20
14.1906692672
 11
14.0416269917
 21
11.0573616287
  0
LINE
  5
263
100
AcDbEntity
  8
LAYER_FEATURE
100
AcDbLine
 62
7
  6
CONTINUOUS
 10
15.5547227464
 20
11.0187443698
 11
15.7085623283
 21
10.8336828099
  0
LINE
  5
264
100
AcDbEntity
  8
LAYER_FEATURE
100
AcDbLine
 62
7
  6
CONTINUOUS
 10
15.156824397
 20
11.0187443698
 11
15.1461479316
 21
11.0405007187
  0
LINE
  5
265
100
AcDbEntity
  8
LAYER_FEATURE
100
AcDbLine
 62
7
  6
CONTINUOUS
 10
15.1700955175
 20
11.0405007187
 11
15.1807719828
 21
11.0187443698
  0
LINE
  5
266
100
AcDbEntity
  8
LAYER_FEATURE
100
AcDbLine
 62
7
  6
CONTINUOUS
 10
14.8106640978
 20
10.8336828099
 11
14.7828736334
 21
11.0187443698
  0
LINE
  5
267
100
AcDbEntity
  8
0
100
AcDbLine
 62
7
  6
CONTINUOUS
 10
14.4156460901
 20
11.0405007187
 11
14.4089228698
 21
11.0187443698
  0
LINE
  5
268
100
AcDbEntity
  8
LAYER_FEATURE
100
AcDbLine
 62
7
  6
CONTINUOUS
 10
15.5307751605
 20
11.0187443698
 11
15.5200986952
 21
11.0405007187
  0
LINE
  5
269
100
AcDbEntity
  8
LAYER_FEATURE
100
AcDbLine
 62
7
  6
CONTINUOUS
 10
15.544046281
 20
11.0405007187
 11
15.5547227464
 21
11.0187443698
  0
LINE
  5
26A
100
AcDbEntity
  8
LAYER_FEATURE
100
AcDbLine
 62
7
  6
CONTINUOUS
 10
14.8104968864
 20
10.8312126694
 11
14.8106640978
 21
10.8336828099
  0
LINE
  5
26B
100
AcDbEntity
  8
0
100
AcDbLine
 62
7
  6
CONTINUOUS
 10
14.4372574309
 20
10.8335146714
 11
14.4777968085
 21
10.9647001452
  0
LINE
  5
26C
100
AcDbEntity
  8
LAYER_FEATURE
100
AcDbLine
 62
7
  6
CONTINUOUS
 10
15.1846148614
 20
10.8336828099
 11
15.156824397
 21
11.0187443698
  0
LINE
  5
26D
100
AcDbEntity
  8
LAYER_FEATURE
100
AcDbLine
 62
7
  6
CONTINUOUS
 10
15.1844477313
 20
10.8312126442
 11
15.1846148614
 21
10.8336828099
  0
LINE
  5
26E
100
AcDbEntity
  8
LAYER_FEATURE
100
AcDbLine
 62
7
  6
CONTINUOUS
 10
14.7895968537
 20
11.0405007187
 11
14.7828736334
 21
11.0187443698
  0
LINE
  5
26F
100
AcDbEntity
  8
LAYER_FEATURE
100
AcDbLine
 62
7
  6
CONTINUOUS
 10
14.8112081945
 20
10.8335146714
 11
14.851747572
 21
10.9647001452
  0
LINE
  5
270
100
AcDbEntity
  8
0
100
AcDbLine
 62
7
  6
CONTINUOUS
 10
15.9047259241
 20
11.0187443698
 11
15.8879486214
 21
11.0529329181
  0
LINE
  5
271
100
AcDbEntity
  8
LAYER_FEATURE
100
AcDbLine
 62
7
  6
CONTINUOUS
 10
15.5585656249
 20
10.8336828099
 11
15.5307751605
 21
11.0187443698
  0
LINE
  5
272
100
AcDbEntity
  8
LAYER_FEATURE
100
AcDbLine
 62
7
  6
CONTINUOUS
 10
15.1635476173
 20
11.0405007187
 11
15.156824397
 21
11.0187443698
  0
LINE
  5
273
100
AcDbEntity
  8
LAYER_FEATURE
100
AcDbLine
 62
7
  6
CONTINUOUS
 10
15.5583984135
 20
10.8312126694
 11
15.5585656249
 21
10.8336828099
  0
LINE
  5
274
100
AcDbEntity
  8
LAYER_FEATURE
100
AcDbLine
 62
7
  6
CONTINUOUS
 10
15.185158958
 20
10.8335146714
 11
15.2256983356
 21
10.9647001452
  0
LINE
  5
275
100
AcDbEntity
  8
LAYER_FEATURE
100
AcDbLine
 62
7
  6
CONTINUOUS
 10
15.9325163885
 20
10.8336828099
 11
15.9047259241
 21
11.0187443698
  0
LINE
  5
276
100
AcDbEntity
  8
LAYER_FEATURE
100
AcDbLine
 62
7
  6
CONTINUOUS
 10
15.9323491771
 20
10.8312126694
 11
15.9325163885
 21
10.8336828099
  0
LINE
  5
277
100
AcDbEntity
  8
LAYER_FEATURE
100
AcDbLine
 62
7
  6
CONTINUOUS
 10
15.5374983808
 20
11.0405007187
 11
15.5307751605
 21
11.0187443698
  0
LINE
  5
278
100
AcDbEntity
  8
LAYER_FEATURE
100
AcDbLine
 62
7
  6
CONTINUOUS
 10
15.5591097216
 20
10.8335146714
 11
15.5996490992
 21
10.9647001452
  0
LINE
  5
279
100
AcDbEntity
  8
LAYER_FEATURE
100
AcDbLine
 62
7
  6
CONTINUOUS
 10
16.8729912177
 20
14.1520520084
 11
15.9047259241
 21
11.0187443698
  0
LINE
  5
27A
100
AcDbEntity
  8
LAYER_FEATURE
100
AcDbLine
 62
7
  6
CONTINUOUS
 10
15.9330604852
 20
10.8335146714
 11
16.900614412
 21
13.964520326
  0
LINE
  5
27B
100
AcDbEntity
  8
LAYER_FEATURE
100
AcDbLine
 62
7
  6
CONTINUOUS
 10
16.9007816821
 20
13.9669904485
 11
16.9006144707
 21
13.9645203079
  0
LINE
  5
27C
100
AcDbEntity
  8
LAYER_FEATURE
100
AcDbLine
 62
7
  6
CONTINUOUS
 10
16.9007816821
 20
13.9669904485
 11
16.8729912177
 21
14.1520520084
  0
LINE
  5
27D
100
AcDbEntity
  8
0
100
AcDbLine
 62
7
  6
CONTINUOUS
 10
15.01964797
 20
14.1955647061
 11
16.8378223721
 21
14.1955647061
  0
LINE
  5
27E
100
AcDbEntity
  8
0
100
AcDbLine
 62
7
  6
CONTINUOUS
 10
16.856213915
 20
14.1862405566
 11
16.8729912177
 21
14.1520520084
  0
ARC
  5
27F
100
AcDbEntity
  8
0
100
AcDbCircle
 62
7
  6
CONTINUOUS
 10
5.2122243193
 20
5.3459532301
 40
0.0158333333
100
AcDbArc
 50
192.9439872503
 51
270.0
  0
ARC
  5
280
100
AcDbEntity
  8
0
100
AcDbCircle
 62
7
  6
CONTINUOUS
 10
5.424510233
 20
5.3459532301
 40
0.0158333333
100
AcDbArc
 50
270.0
 51
347.0560127497
  0
ARC
  5
281
100
AcDbEntity
  8
LAYER_FEATURE
100
AcDbCircle
 62
7
  6
CONTINUOUS
 10
5.6182243193
 20
5.3459532301
 40
0.0158333333
100
AcDbArc
 50
192.9439872503
 51
270.0
  0
ARC
  5
282
100
AcDbEntity
  8
LAYER_FEATURE
100
AcDbCircle
 62
7
  6
CONTINUOUS
 10
5.830510233
 20
5.3459532301
 40
0.0158333333
100
AcDbArc
 50
270.0
 51
347.0560127497
  0
ARC
  5
283
100
AcDbEntity
  8
LAYER_FEATURE
100
AcDbCircle
 62
7
  6
CONTINUOUS
 10
6.0242243193
 20
5.3459532301
 40
0.0158333333
100
AcDbArc
 50
192.9439872503
 51
270.0
  0
ARC
  5
284
100
AcDbEntity
  8
LAYER_FEATURE
100
AcDbCircle
 62
7
  6
CONTINUOUS
 10
6.236510233
 20
5.3459532301
 40
0.0158333333
100
AcDbArc
 50
270.0
 51
347.0560127497
  0
ARC
  5
285
100
AcDbEntity
  8
LAYER_FEATURE
100
AcDbCircle
 62
7
  6
CONTINUOUS
 10
6.4302243193
 20
5.3459532301
 40
0.0158333333
100
AcDbArc
 50
192.9439872503
 51
270.0
  0
ARC
  5
286
100
AcDbEntity
  8
LAYER_FEATURE
100
AcDbCircle
 62
7
  6
CONTINUOUS
 10
6.642510233
 20
5.3459532301
 40
0.0158333333
100
AcDbArc
 50
270.0
 51
347.0560127497
  0
ARC
  5
287
100
AcDbEntity
  8
LAYER_FEATURE
100
AcDbCircle
 62
7
  6
CONTINUOUS
 10
7.048510233
 20
5.3459532301
 40
0.0158333333
100
AcDbArc
 50
270.0
 51
347.0560127497
  0
ARC
  5
288
100
AcDbEntity
  8
LAYER_FEATURE
100
AcDbCircle
 62
7
  6
CONTINUOUS
 10
6.8362243193
 20
5.3459532301
 40
0.0158333333
100
AcDbArc
 50
192.9439872503
 51
270.0
  0
ARC
  5
289
100
AcDbEntity
  8
0
100
AcDbCircle
 62
7
  6
CONTINUOUS
 10
5.1433672762
 20
5.6951198968
 40
0.015
100
AcDbArc
 50
90.0
 51
180.0
  0
ARC
  5
28A
100
AcDbEntity
  8
0
100
AcDbCircle
 62
7
  6
CONTINUOUS
 10
7.1173672762
 20
5.6951198968
 40
0.015
100
AcDbArc
 50
0.0
 51
90.0
  0
SPLINE
  5
28B
100
AcDbEntity
  8
0
100
AcDbSpline
 62
7
  6
CONTINUOUS
 70
0
 71
3
 72
15
 73
11
 74
0
 42
0.0000001
 43
0.0000001
 44
0.0000000001
 40
0.0
 40
0.0
 40
0.0
 40
0.0
 40
0.1294210985
 40
0.2645302767
 40
0.4013097267
 40
0.5362685628
 40
0.666151291
 40
0.7881286446
 40
0.8999143555
 40
1.0
 40
1.0
 40
1.0
 40
1.0
 10
16.8378223721
 20
14.1955647061
 30
0.0
 10
16.8387502578
 20
14.1955647061
 30
0.0
 10
16.8406481462
 20
14.1954344481
 30
0.0
 10
16.8434822983
 20
14.1949060149
 30
0.0
 10
16.8462766574
 20
14.194048022
 30
0.0
 10
16.8489243617
 20
14.1929005397
 30
0.0
 10
16.8513270041
 20
14.1915018743
 30
0.0
 10
16.8533998085
 20
14.1899057961
 30
0.0
 10
16.8550578176
 20
14.1881662181
 30
0.0
 10
16.8558977971
 20
14.1868847373
 30
0.0
 10
16.856213915
 20
14.1862405566
 30
0.0
  0
SPLINE
  5
28C
100
AcDbEntity
  8
0
100
AcDbSpline
 62
7
  6
CONTINUOUS
 70
0
 71
3
 72
11
 73
7
 74
0
 42
0.0000001
 43
0.0000001
 44
0.0000000001
 40
0.0
 40
0.0
 40
0.0
 40
0.0
 40
0.2339277175
 40
0.4752778426
 40
0.7294367959
 40
1.0
 40
1.0
 40
1.0
 40
1.0
 10
14.0416270313
 20
11.0573616019
 30
0.0
 10
14.0415218205
 20
11.0570218453
 30
0.0
 10
14.041383859
 20
11.0563055854
 30
0.0
 10
14.0414112413
 20
11.0551895159
 30
0.0
 10
14.0416609416
 20
11.0540456058
 30
0.0
 10
14.0419611608
 20
11.0533022233
 30
0.0
 10
14.0421423894
 20
11.0529329181
 30
0.0
  0
SPLINE
  5
28D
100
AcDbEntity
  8
0
100
AcDbSpline
 62
7
  6
CONTINUOUS
 70
0
 71
3
 72
13
 73
9
 74
0
 42
0.0000001
 43
0.0000001
 44
0.0000000001
 40
0.0
 40
0.0
 40
0.0
 40
0.0
 40
0.0997879231
 40
0.2030511706
 40
0.3128301945
 40
0.4312209101
 40
0.6971704235
 40
1.0
 40
1.0
 40
1.0
 40
1.0
 10
15.0098923249
 20
14.1906692404
 30
0.0
 10
15.0100066662
 20
14.1910384822
 30
0.0
 10
15.0103304485
 20
14.1917645481
 30
0.0
 10
15.0110671277
 20
14.1927382424
 30
0.0
 10
15.0120420431
 20
14.1935859822
 30
0.0
 10
15.0136926793
 20
14.1945713113
 30
0.0
 10
15.0162654859
 20
14.1953771623
 30
0.0
 10
15.0184749237
 20
14.1955647061
 30
0.0
 10
15.01964797
 20
14.1955647061
 30
0.0
  0
SPLINE
  5
28E
100
AcDbEntity
  8
LAYER_FEATURE
100
AcDbSpline
 62
7
  6
CONTINUOUS
 70
0
 71
3
 72
13
 73
9
 74
0
 42
0.0000001
 43
0.0000001
 44
0.0000000001
 40
0.0
 40
0.0
 40
0.0
 40
0.0
 40
0.3029851554
 40
0.5686831067
 40
0.6870434065
 40
0.7968154396
 40
0.9001387846
 40
1.0
 40
1.0
 40
1.0
 40
1.0
 10
15.9220514512
 20
10.8260452797
 30
0.0
 10
15.9232903282
 20
10.8260452797
 30
0.0
 10
15.9256225498
 20
10.8262417031
 30
0.0
 10
15.9283368707
 20
10.8270943901
 30
0.0
 10
15.9300791745
 20
10.8281324459
 30
0.0
 10
15.9311074695
 20
10.8290282525
 30
0.0
 10
15.931887063
 20
10.8300551648
 30
0.0
 10
15.9322284395
 20
10.8308226052
 30
0.0
 10
15.9323485683
 20
10.8312128572
 30
0.0
  0
SPLINE
  5
28F
100
AcDbEntity
  8
LAYER_FEATURE
100
AcDbSpline
 62
7
  6
CONTINUOUS
 70
0
 71
3
 72
15
 73
11
 74
0
 42
0.0000001
 43
0.0000001
 44
0.0000000001
 40
0.0
 40
0.0
 40
0.0
 40
0.0
 40
0.1088698145
 40
0.226554737
 40
0.3511407164
 40
0.4805735873
 40
0.6126285739
 40
0.7449281535
 40
0.8749900703
 40
1.0
 40
1.0
 40
1.0
 40
1.0
 10
15.7085623283
 20
10.8336828099
 30
0.0
 10
15.7090278265
 20
10.8331228382
 30
0.0
 10
15.7100917634
 20
10.8320352951
 30
0.0
 10
15.7119393521
 20
10.830576908
 30
0.0
 10
15.7140588584
 20
10.8292677707
 30
0.0
 10
15.7163873067
 20
10.8281414986
 30
0.0
 10
15.7188629247
 20
10.8272304636
 30
0.0
 10
15.7214179839
 20
10.8265572542
 30
0.0
 10
15.7239799739
 20
10.8261450492
 30
0.0
 10
15.7256870342
 20
10.8260452797
 30
0.0
 10
15.7265231766
 20
10.8260452797
 30
0.0
  0
SPLINE
  5
290
100
AcDbEntity
  8
LAYER_FEATURE
100
AcDbSpline
 62
7
  6
CONTINUOUS
 70
0
 71
3
 72
13
 73
9
 74
0
 42
0.0000001
 43
0.0000001
 44
0.0000000001
 40
0.0
 40
0.0
 40
0.0
 40
0.0
 40
0.3029851554
 40
0.5686831067
 40
0.6870434065
 40
0.7968154396
 40
0.9001387846
 40
1.0
 40
1.0
 40
1.0
 40
1.0
 10
15.5481006876
 20
10.8260452797
 30
0.0
 10
15.5493395646
 20
10.8260452797
 30
0.0
 10
15.5516717862
 20
10.8262417031
 30
0.0
 10
15.5543861071
 20
10.8270943901
 30
0.0
 10
15.5561284109
 20
10.8281324459
 30
0.0
 10
15.557156706
 20
10.8290282525
 30
0.0
 10
15.5579362994
 20
10.8300551648
 30
0.0
 10
15.558277676
 20
10.8308226052
 30
0.0
 10
15.5583978048
 20
10.8312128572
 30
0.0
  0
SPLINE
  5
291
100
AcDbEntity
  8
LAYER_FEATURE
100
AcDbSpline
 62
7
  6
CONTINUOUS
 70
0
 71
3
 72
15
 73
11
 74
0
 42
0.0000001
 43
0.0000001
 44
0.0000000001
 40
0.0
 40
0.0
 40
0.0
 40
0.0
 40
0.1088698145
 40
0.226554737
 40
0.3511407164
 40
0.4805735873
 40
0.6126285739
 40
0.7449281535
 40
0.8749900703
 40
1.0
 40
1.0
 40
1.0
 40
1.0
 10
15.3346115647
 20
10.8336828099
 30
0.0
 10
15.3350770629
 20
10.8331228382
 30
0.0
 10
15.3361409998
 20
10.8320352951
 30
0.0
 10
15.3379885885
 20
10.830576908
 30
0.0
 10
15.3401080948
 20
10.8292677707
 30
0.0
 10
15.3424365431
 20
10.8281414986
 30
0.0
 10
15.3449121611
 20
10.8272304636
 30
0.0
 10
15.3474672203
 20
10.8265572542
 30
0.0
 10
15.3500292103
 20
10.8261450492
 30
0.0
 10
15.3517362707
 20
10.8260452797
 30
0.0
 10
15.352572413
 20
10.8260452797
 30
0.0
  0
SPLINE
  5
292
100
AcDbEntity
  8
LAYER_FEATURE
100
AcDbSpline
 62
7
  6
CONTINUOUS
 70
0
 71
3
 72
13
 73
9
 74
0
 42
0.0000001
 43
0.0000001
 44
0.0000000001
 40
0.0
 40
0.0
 40
0.0
 40
0.0
 40
0.302985258
 40
0.5686831865
 40
0.6870433883
 40
0.7968155157
 40
0.9001389826
 40
1.0
 40
1.0
 40
1.0
 40
1.0
 10
15.1741499241
 20
10.8260452797
 30
0.0
 10
15.1753888014
 20
10.8260452797
 30
0.0
 10
15.1777210227
 20
10.8262417056
 30
0.0
 10
15.1804353449
 20
10.8270943883
 30
0.0
 10
15.1821776477
 20
10.8281324458
 30
0.0
 10
15.1832059414
 20
10.8290282548
 30
0.0
 10
15.1839855339
 20
10.8300551672
 30
0.0
 10
15.1843269142
 20
10.8308226055
 30
0.0
 10
15.1844470435
 20
10.8312128565
 30
0.0
  0
SPLINE
  5
293
100
AcDbEntity
  8
LAYER_FEATURE
100
AcDbSpline
 62
7
  6
CONTINUOUS
 70
0
 71
3
 72
15
 73
11
 74
0
 42
0.0000001
 43
0.0000001
 44
0.0000000001
 40
0.0
 40
0.0
 40
0.0
 40
0.0
 40
0.1088698145
 40
0.226554737
 40
0.3511407164
 40
0.4805735873
 40
0.6126285739
 40
0.7449281535
 40
0.8749900703
 40
1.0
 40
1.0
 40
1.0
 40
1.0
 10
14.9606608012
 20
10.8336828099
 30
0.0
 10
14.9611262994
 20
10.8331228382
 30
0.0
 10
14.9621902363
 20
10.8320352951
 30
0.0
 10
14.9640378249
 20
10.830576908
 30
0.0
 10
14.9661573312
 20
10.8292677707
 30
0.0
 10
14.9684857796
 20
10.8281414986
 30
0.0
 10
14.9709613975
 20
10.8272304636
 30
0.0
 10
14.9735164568
 20
10.8265572542
 30
0.0
 10
14.9760784467
 20
10.8261450492
 30
0.0
 10
14.9777855071
 20
10.8260452797
 30
0.0
 10
14.9786216494
 20
10.8260452797
 30
0.0
  0
SPLINE
  5
294
100
AcDbEntity
  8
LAYER_FEATURE
100
AcDbSpline
 62
7
  6
CONTINUOUS
 70
0
 71
3
 72
13
 73
9
 74
0
 42
0.0000001
 43
0.0000001
 44
0.0000000001
 40
0.0
 40
0.0
 40
0.0
 40
0.0
 40
0.3029851554
 40
0.5686831067
 40
0.6870434065
 40
0.7968154396
 40
0.9001387846
 40
1.0
 40
1.0
 40
1.0
 40
1.0
 10
14.8001991605
 20
10.8260452797
 30
0.0
 10
14.8014380375
 20
10.8260452797
 30
0.0
 10
14.8037702591
 20
10.8262417031
 30
0.0
 10
14.80648458
 20
10.8270943901
 30
0.0
 10
14.8082268838
 20
10.8281324459
 30
0.0
 10
14.8092551789
 20
10.8290282525
 30
0.0
 10
14.8100347723
 20
10.8300551648
 30
0.0
 10
14.8103761488
 20
10.8308226052
 30
0.0
 10
14.8104962776
 20
10.8312128572
 30
0.0
  0
SPLINE
  5
295
100
AcDbEntity
  8
LAYER_FEATURE
100
AcDbSpline
 62
7
  6
CONTINUOUS
 70
0
 71
3
 72
15
 73
11
 74
0
 42
0.0000001
 43
0.0000001
 44
0.0000000001
 40
0.0
 40
0.0
 40
0.0
 40
0.0
 40
0.1088698145
 40
0.226554737
 40
0.3511407164
 40
0.4805735873
 40
0.6126285739
 40
0.7449281535
 40
0.8749900703
 40
1.0
 40
1.0
 40
1.0
 40
1.0
 10
14.5867100376
 20
10.8336828099
 30
0.0
 10
14.5871755358
 20
10.8331228382
 30
0.0
 10
14.5882394727
 20
10.8320352951
 30
0.0
 10
14.5900870614
 20
10.830576908
 30
0.0
 10
14.5922065677
 20
10.8292677707
 30
0.0
 10
14.594535016
 20
10.8281414986
 30
0.0
 10
14.597010634
 20
10.8272304636
 30
0.0
 10
14.5995656932
 20
10.8265572542
 30
0.0
 10
14.6021276832
 20
10.8261450492
 30
0.0
 10
14.6038347435
 20
10.8260452797
 30
0.0
 10
14.6046708859
 20
10.8260452797
 30
0.0
  0
SPLINE
  5
296
100
AcDbEntity
  8
0
100
AcDbSpline
 62
7
  6
CONTINUOUS
 70
0
 71
3
 72
13
 73
9
 74
0
 42
0.0000001
 43
0.0000001
 44
0.0000000001
 40
0.0
 40
0.0
 40
0.0
 40
0.0
 40
0.3029851554
 40
0.5686831067
 40
0.6870434065
 40
0.7968154396
 40
0.9001387846
 40
1.0
 40
1.0
 40
1.0
 40
1.0
 10
14.4262483969
 20
10.8260452797
 30
0.0
 10
14.4274872739
 20
10.8260452797
 30
0.0
 10
14.4298194955
 20
10.8262417031
 30
0.0
 10
14.4325338164
 20
10.8270943901
 30
0.0
 10
14.4342761202
 20
10.8281324459
 30
0.0
 10
14.4353044153
 20
10.8290282525
 30
0.0
 10
14.4360840087
 20
10.8300551648
 30
0.0
 10
14.4364253853
 20
10.8308226052
 30
0.0
 10
14.4365455141
 20
10.8312128572
 30
0.0
  0
SPLINE
  5
297
100
AcDbEntity
  8
0
100
AcDbSpline
 62
7
  6
CONTINUOUS
 70
0
 71
3
 72
15
 73
11
 74
0
 42
0.0000001
 43
0.0000001
 44
0.0000000001
 40
0.0
 40
0.0
 40
0.0
 40
0.0
 40
0.1088698145
 40
0.226554737
 40
0.3511407164
 40
0.4805735873
 40
0.6126285739
 40
0.7449281535
 40
0.8749900703
 40
1.0
 40
1.0
 40
1.0
 40
1.0
 10
14.212759274
 20
10.8336828099
 30
0.0
 10
14.2132247722
 20
10.8331228382
 30
0.0
 10
14.2142887091
 20
10.8320352951
 30
0.0
 10
14.2161362978
 20
10.830576908
 30
0.0
 10
14.2182558041
 20
10.8292677707
 30
0.0
 10
14.2205842524
 20
10.8281414986
 30
0.0
 10
14.2230598704
 20
10.8272304636
 30
0.0
 10
14.2256149296
 20
10.8265572542
 30
0.0
 10
14.2281769196
 20
10.8261450492
 30
0.0
 10
14.22988398
 20
10.8260452797
 30
0.0
 10
14.2307201223
 20
10.8260452797
 30
0.0
  0
SPLINE
  5
298
100
AcDbEntity
  8
0
100
AcDbSpline
 62
7
  6
CONTINUOUS
 70
0
 71
3
 72
13
 73
9
 74
0
 42
0.0000001
 43
0.0000001
 44
0.0000000001
 40
0.0
 40
0.0
 40
0.0
 40
0.0
 40
0.3028295765
 40
0.5687790899
 40
0.6871698055
 40
0.7969488294
 40
0.9002120769
 40
1.0
 40
1.0
 40
1.0
 40
1.0
 10
14.0513826764
 20
11.0622570676
 30
0.0
 10
14.0502096301
 20
11.0622570676
 30
0.0
 10
14.0480001923
 20
11.0620695238
 30
0.0
 10
14.0454273856
 20
11.0612636728
 30
0.0
 10
14.0437767495
 20
11.0602783437
 30
0.0
 10
14.042801834
 20
11.0594306039
 30
0.0
 10
14.0420651549
 20
11.0584569096
 30
0.0
 10
14.0417413725
 20
11.0577308437
 30
0.0
 10
14.0416270313
 20
11.0573616019
 30
0.0
  0
SPLINE
  5
299
100
AcDbEntity
  8
0
100
AcDbSpline
 62
7
  6
CONTINUOUS
 70
0
 71
3
 72
15
 73
11
 74
0
 42
0.0000001
 43
0.0000001
 44
0.0000000001
 40
0.0
 40
0.0
 40
0.0
 40
0.0
 40
0.1000856445
 40
0.2118713554
 40
0.333848709
 40
0.4637314372
 40
0.5986902733
 40
0.7354697233
 40
0.8705789015
 40
1.0
 40
1.0
 40
1.0
 40
1.0
 10
15.8879486214
 20
11.0529329181
 30
0.0
 10
15.8876325034
 20
11.0535770988
 30
0.0
 10
15.886792524
 20
11.0548585796
 30
0.0
 10
15.8851345149
 20
11.0565981576
 30
0.0
 10
15.8830617105
 20
11.0581942358
 30
0.0
 10
15.8806590681
 20
11.0595929012
 30
0.0
 10
15.8780113638
 20
11.0607403835
 30
0.0
 10
15.8752170046
 20
11.0615983764
 30
0.0
 10
15.8723828526
 20
11.0621268096
 30
0.0
 10
15.8704849642
 20
11.0622570676
 30
0.0
 10
15.8695570785
 20
11.0622570676
 30
0.0
  0
ENDSEC
  0
SECTION
  2
OBJECTS
  0
DICTIONARY
  5
C
100
AcDbDictionary
280
0
281
1
  3
ACAD_GROUP
350
D
  3
ACAD_MLINESTYLE
350
17
  3
ACAD_LAYOUT
350
1A
  3
ACAD_PLOTSETTINGS
350
19
  3
ACAD_PLOTSTYLENAME
350
E
  0
DICTIONARY
  5
D
102
{ACAD_REACTORS
330
C
102
}
100
AcDbDictionary
280
0
281
1
  0
ACDBDICTIONARYWDFLT
  5
E
102
{ACAD_REACTORS
330
C
102
}
100
AcDbDictionary
281
1
  3
Normal
350
F
100
AcDbDictionaryWithDefault
340
F
  0
DICTIONARY
  5
17
102
{ACAD_REACTORS
330
C
102
}
100
AcDbDictionary
280
0
281
1
  3
Standard
350
18
  0
DICTIONARY
  5
19
102
{ACAD_REACTORS
330
C
102
}
100
AcDbDictionary
281
1
  0
DICTIONARY
  5
1A
102
{ACAD_REACTORS
330
C
102
}
100
AcDbDictionary
281
1
  3
Model
350
29A
  3
Layout1
350
29B
  0
ACDBPLACEHOLDER
  5
F
102
{ACAD_REACTORS
330
E
102
}
  0
MLINESTYLE
  5
18
102
{ACAD_REACTORS
330
17
102
}
100
AcDbMlineStyle
  2
STANDARD
 70
0
  3

 62
256
 51
90.0
 52
90.0
 71
2
 49
0.5
 62
256
  6
BYLAYER
 49
-0.5
 62
256
  6
BYLAYER
  0
LAYOUT
  5
29A
102
{ACAD_REACTORS
330
1A
102
}
100
AcDbPlotSettings
  1

  2
none_device
  4
ANSI_C_(22.00_x_17.00_Inches)
  6

 40
0.0
 41
0.0
 42
0.0
 43
0.0
 44
558.8
 45
431.8
 46
0.0
 47
0.0
 48
0.0
 49
0.0
140
0.0
141
0.0
142
1.0
143
1.0
 70
1024
 72
0
 73
0
 74
0
  7

 75
0
147
1.0
148
0.0
149
0.0
100
AcDbLayout
  1
Model
 70
0
 71
0
 10
0.0
 20
0.0
 11
22.0
 21
17.0
 12
0.0
 22
0.0
 32
0.0
 14
0.0
 24
0.0
 34
0.0
 15
0.0
 25
0.0
 35
0.0
146
0.0
 13
0.0
 23
0.0
 33
0.0
 16
1.0
 26
0.0
 36
0.0
 17
0.0
 27
1.0
 37
0.0
 76
0
330
21C
345
0
346
0
  0
LAYOUT
  5
29B
102
{ACAD_REACTORS
330
1A
102
}
100
AcDbPlotSettings
  1

  2
none_device
  4
ANSI_C_(22.00_x_17.00_Inches)
  6

 40
0.0
 41
0.0
 42
0.0
 43
0.0
 44
558.8
 45
431.8
 46
0.0
 47
0.0
 48
0.0
 49
0.0
140
0.0
141
0.0
142
1.0
143
1.0
 70
0
 72
0
 73
0
 74
0
  7

 75
0
147
1.0
148
0.0
149
0.0
100
AcDbLayout
  1
Layout1
 70
0
 71
1
 10
0.0
 20
0.0
 11
22.0
 21
17.0
 12
0.0
 22
0.0
 32
0.0
 14
0.0
 24
0.0
 34
0.0
 15
0.0
 25
0.0
 35
0.0
146
0.0
 13
0.0
 23
0.0
 33
0.0
 16
1.0
 26
0.0
 36
0.0
 17
0.0
 27
1.0
 37
0.0
 76
0
330
21D
345
0
346
0
  0
ENDSEC
  0
EOF