999
DXF file: _cgs_temp_output.dxf
999
Pro/ENGINEER 2016360 by Parametric Technology Corporation
  0
SECTION
  2
HEADER
  9
$ACADVER
  1
AC1021
  9
$DWGCODEPAGE
  3
ANSI_1252
  9
$EXTMAX
 10
22.0
 20
17.0
 30
0.0
  9
$EXTMIN
 10
0.0
 20
0.0
 30
0.0
  9
$LIMMIN
 10
0.0
 20
0.0
  9
$LIMMAX
 10
22.0
 20
17.0
  9
$VIEWCTR
 10
11.0
 20
8.5
  9
$VIEWSIZE
 40
17.0
  9
$CLAYER
  8
0
  9
$LTSCALE
 40
1.21
  9
$CELTYPE
  6
BYLAYER
  9
$DIMSCALE
 40
1.0
  9
$DIMASZ
 40
0.1875
  9
$DIMEXO
 40
0.0625
  9
$DIMDLI
 40
0.836
  9
$DIMEXE
 40
0.125
  9
$DIMCEN
 40
0.198
  9
$DIMLFAC
 40
1.0
  9
$DIMBLK
  1
_CLOSED
  9
$DIMALT
 70
0
  9
$DIMALTF
 40
25.4
  9
$DIMTXT
 40
0.15625
  9
$DIMTOL
 70
0
  9
$DIMLIM
 70
0
  9
$DIMTFAC
 40
1.0
  9
$DIMGAP
 40
0.09
  9
$DIMDSEP
 70
46
  9
$AUNITS
 70
0
  9
$PDMODE
 70
3
  9
$PDSIZE
 40
0.3125
  9
$HANDSEED
  5
29C
  9
$TILEMODE
 70
1
  9
$MEASUREMENT
 70
0
  9
$INSUNITS
 70
1
  0
ENDSEC
  0
SECTION
  2
CLASSES
  0
CLASS
  1
ACDBDICTIONARYWDFLT
  2
AcDbDictionaryWithDefault
  3
AutoCAD 2000
 90
0
 91
1
280
0
281
0
  0
CLASS
  1
ACDBPLACEHOLDER
  2
AcDbPlaceHolder
  3
AutoCAD 2000
 90
0
 91
1
280
0
281
0
  0
CLASS
  1
LAYOUT
  2
AcDbLayout
  3
AutoCAD 2000
 90
0
 91
0
280
0
281
0
  0
ENDSEC
  0
SECTION
  2
TABLES
  0
TABLE
  2
VPORT
  5
8
100
AcDbSymbolTable
 70
2
  0
VPORT
  5
1F4
100
AcDbSymbolTableRecord
100
AcDbViewportTableRecord
  2
*ACTIVE
 70
0
 10
0.0
 20
0.0
 11
1.0
 21
1.0
 12
11.0
 22
8.5
 13
0.0
 23
0.0
 14
1.0
 24
1.0
 15
0.0
 25
0.0
 16
0.0
 26
0.0
 36
1.0
 17
0.0
 27
0.0
 37
0.0
 40
17.0
 41
1.2941176471
 42
50.0
 43
0.0
 44
0.0
 50
0.0
 51
0.0
 71
0
 72
100
 73
1
 74
1
 75
0
 76
0
 77
0
 78
0
  0
ENDTAB
  0
TABLE
  2
LTYPE
  5
5
100
AcDbSymbolTable
 70
6
  0
LTYPE
  5
14
100
AcDbSymbolTableRecord
100
AcDbLinetypeTableRecord
  2
BYBLOCK
 70
0
  3

 72
65
 73
0
 40
0.0
  0
LTYPE
  5
15
100
AcDbSymbolTableRecord
100
AcDbLinetypeTableRecord
  2
BYLAYER
 70
0
  3

 72
65
 73
0
 40
0.0
  0
LTYPE
  5
16
100
AcDbSymbolTableRecord
100
AcDbLinetypeTableRecord
  2
CONTINUOUS
 70
64
  3
Solid line
 72
65
 73
0
 40
0.0
  0
LTYPE
  5
1F5
100
AcDbSymbolTableRecord
100
AcDbLinetypeTableRecord
  2
CENTER
 70
64
  3
____ _ ____ _ ____ _ ____ _ ____ _ ____ _ ____
 72
65
 73
4
 40
0.6
 49
0.375
 74
0
 49
-0.075
 74
0
 49
0.075
 74
0
 49
-0.075
 74
0
  0
LTYPE
  5
1F6
100
AcDbSymbolTableRecord
100
AcDbLinetypeTableRecord
  2
HIDDEN
 70
64
  3
- - - - - - - - - - - - - - - - - - - -
 72
65
 73
2
 40
0.2
 49
0.1
 74
0
 49
-0.1
 74
0
  0
LTYPE
  5
1F7
100
AcDbSymbolTableRecord
100
AcDbLinetypeTableRecord
  2
PHANTOM
 70
64
  3
_____ _ _ _____ _ _ _____ _ _ _____
 72
65
 73
6
 40
0.8
 49
0.45
 74
0
 49
-0.05
 74
0
 49
0.1
 74
0
 49
-0.05
 74
0
 49
0.1
 74
0
 49
-0.05
 74
0
  0
LTYPE
  5
1F8
100
AcDbSymbolTableRecord
100
AcDbLinetypeTableRecord
  2
DOT
 70
64
  3
. . . . . . . . . . . . . . . . . . . .
 72
65
 73
2
 40
0.2
 49
0.1
 74
0
 49
-0.1
 74
0
  0
LTYPE
  5
1F9
100
AcDbSymbolTableRecord
100
AcDbLinetypeTableRecord
  2
DASHED
 70
64
  3
- - - - - - - - - - - - - - - - - - - -
 72
65
 73
2
 40
0.2
 49
0.1
 74
0
 49
-0.1
 74
0
  0
ENDTAB
  0
TABLE
  2
LAYER
  5
2
100
AcDbSymbolTable
 70
36
  0
LAYER
  5
10
100
AcDbSymbolTableRecord
100
AcDbLayerTableRecord
  2
0
 70
0
 62
7
  6
CONTINUOUS
370
-3
390
F
  0
LAYER
  5
1FA
100
AcDbSymbolTableRecord
100
AcDbLayerTableRecord
  2
DEFAULT_1
 70
0
 62
7
  6
CENTER
370
-3
390
F
  0
LAYER
  5
1FB
100
AcDbSymbolTableRecord
100
AcDbLayerTableRecord
  2
DEFAULT_2
 70
0
 62
8
  6
HIDDEN
370
-3
390
F
  0
LAYER
  5
1FC
100
AcDbSymbolTableRecord
100
AcDbLayerTableRecord
  2
DEFAULT_3
 70
0
 62
7
  6
PHANTOM
370
-3
390
F
  0
LAYER
  5
1FD
100
AcDbSymbolTableRecord
100
AcDbLayerTableRecord
  2
01_ALL_DTM_PLN
 70
0
 62
7
  6
CONTINUOUS
370
-3
390
F
  0
LAYER
  5
1FE
100
AcDbSymbolTableRecord
100
AcDbLayerTableRecord
  2
01__ASM_ALL_DTM_PLN
 70
0
 62
7
  6
CONTINUOUS
370
-3
390
F
  0
LAYER
  5
1FF
100
AcDbSymbolTableRecord
100
AcDbLayerTableRecord
  2
01__ASM_DEF_DTM_PLN
 70
0
 62
7
  6
CONTINUOUS
370
-3
390
F
  0
LAYER
  5
200
100
AcDbSymbolTableRecord
100
AcDbLayerTableRecord
  2
01___PRT_ALL_DTM_PLN
 70
0
 62
7
  6
CONTINUOUS
370
-3
390
F
  0
LAYER
  5
201
100
AcDbSymbolTableRecord
100
AcDbLayerTableRecord
  2
01___PRT_DEF_DTM_PLN
 70
0
 62
7
  6
CONTINUOUS
370
-3
390
F
  0
LAYER
  5
202
100
AcDbSymbolTableRecord
100
AcDbLayerTableRecord
  2
02_ALL_AXES
 70
0
 62
7
  6
CONTINUOUS
370
-3
390
F
  0
LAYER
  5
203
100
AcDbSymbolTableRecord
100
AcDbLayerTableRecord
  2
02__ASM_ALL_AXES
 70
0
 62
7
  6
CONTINUOUS
370
-3
390
F
  0
LAYER
  5
204
100
AcDbSymbolTableRecord
100
AcDbLayerTableRecord
  2
02___PRT_ALL_AXES
 70
0
 62
7
  6
CONTINUOUS
370
-3
390
F
  0
LAYER
  5
205
100
AcDbSymbolTableRecord
100
AcDbLayerTableRecord
  2
03_ALL_CURVES
 70
0
 62
7
  6
CONTINUOUS
370
-3
390
F
  0
LAYER
  5
206
100
AcDbSymbolTableRecord
100
AcDbLayerTableRecord
  2
03__ASM_ALL_CURVES
 70
0
 62
7
  6
CONTINUOUS
370
-3
390
F
  0
LAYER
  5
207
100
AcDbSymbolTableRecord
100
AcDbLayerTableRecord
  2
03___PRT_ALL_CURVES
 70
0
 62
7
  6
CONTINUOUS
370
-3
390
F
  0
LAYER
  5
208
100
AcDbSymbolTableRecord
100
AcDbLayerTableRecord
  2
04_ALL_DTM_PNT
 70
0
 62
7
  6
CONTINUOUS
370
-3
390
F
  0
LAYER
  5
209
100
AcDbSymbolTableRecord
100
AcDbLayerTableRecord
  2
04__ASM_ALL_DTM_PNT
 70
0
 62
7
  6
CONTINUOUS
370
-3
390
F
  0
LAYER
  5
20A
100
AcDbSymbolTableRecord
100
AcDbLayerTableRecord
  2
04___PRT_ALL_DTM_PNT
 70
0
 62
7
  6
CONTINUOUS
370
-3
390
F
  0
LAYER
  5
20B
100
AcDbSymbolTableRecord
100
AcDbLayerTableRecord
  2
05_ALL_DTM_CSYS
 70
0
 62
7
  6
CONTINUOUS
370
-3
390
F
  0
LAYER
  5
20C
100
AcDbSymbolTableRecord
100
AcDbLayerTableRecord
  2
05__ASM_ALL_DTM_CSYS
 70
0
 62
7
  6
CONTINUOUS
370
-3
390
F
  0
LAYER
  5
20D
100
AcDbSymbolTableRecord
100
AcDbLayerTableRecord
  2
05__ASM_DEF_DTM_CSYS
 70
0
 62
7
  6
CONTINUOUS
370
-3
390
F
  0
LAYER
  5
20E
100
AcDbSymbolTableRecord
100
AcDbLayerTableRecord
  2
05___PRT_ALL_DTM_CSYS
 70
0
 62
7
  6
CONTINUOUS
370
-3
390
F
  0
LAYER
  5
20F
100
AcDbSymbolTableRecord
100
AcDbLayerTableRecord
  2
05___PRT_DEF_DTM_CSYS
 70
0
 62
7
  6
CONTINUOUS
370
-3
390
F
  0
LAYER
  5
210
100
AcDbSymbolTableRecord
100
AcDbLayerTableRecord
  2
06_ALL_SURFS
 70
0
 62
7
  6
CONTINUOUS
370
-3
390
F
  0
LAYER
  5
211
100
AcDbSymbolTableRecord
100
AcDbLayerTableRecord
  2
06__ASM_ALL_SURFS
 70
0
 62
7
  6
CONTINUOUS
370
-3
390
F
  0
LAYER
  5
212
100
AcDbSymbolTableRecord
100
AcDbLayerTableRecord
  2
06___PRT_ALL_SURFS
 70
0
 62
7
  6
CONTINUOUS
370
-3
390
F
  0
LAYER
  5
213
100
AcDbSymbolTableRecord
100
AcDbLayerTableRecord
  2
07__ASM_ALL_SKELETONS
 70
0
 62
7
  6
CONTINUOUS
370
-3
390
F
  0
LAYER
  5
214
100
AcDbSymbolTableRecord
100
AcDbLayerTableRecord
  2
LAYER_DIM
 70
0
 62
7
  6
CONTINUOUS
370
-3
390
F
  0
LAYER
  5
215
100
AcDbSymbolTableRecord
100
AcDbLayerTableRecord
  2
LAYER_FEATURE
 70
0
 62
7
  6
CONTINUOUS
370
-3
390
F
  0
LAYER
  5
216
100
AcDbSymbolTableRecord
100
AcDbLayerTableRecord
  2
LAYER_GEOM_FEAT
 70
0
 62
7
  6
CONTINUOUS
370
-3
390
F
  0
LAYER
  5
217
100
AcDbSymbolTableRecord
100
AcDbLayerTableRecord
  2
LAYER_PARAMETER_DIM
 70
0
 62
7
  6
CONTINUOUS
370
-3
390
F
  0
LAYER
  5
218
100
AcDbSymbolTableRecord
100
AcDbLayerTableRecord
  2
LAYER_PROTRUSION_FEAT
 70
0
 62
7
  6
CONTINUOUS
370
-3
390
F
  0
LAYER
  5
219
100
AcDbSymbolTableRecord
100
AcDbLayerTableRecord
  2
LAYER_ROUND_FEAT
 70
0
 62
7
  6
CONTINUOUS
370
-3
390
F
  0
ENDTAB
  0
TABLE
  2
STYLE
  5
3
100
AcDbSymbolTable
 70
1
  0
STYLE
  5
11
100
AcDbSymbolTableRecord
100
AcDbTextStyleTableRecord
  2
STANDARD
 70
0
 40
0.0
 41
0.8
 50
0.0
 71
0
 42
0.2
  3
txt
  4

  0
STYLE
  5
21A
100
AcDbSymbolTableRecord
100
AcDbTextStyleTableRecord
  2
TEXTSTYLE_1
 70
0
 40
0.0
 41
0.8
 50
0.0
 71
0
 42
0.2
  3
gdt
  4

  0
ENDTAB
  0
TABLE
  2
VIEW
  5
6
100
AcDbSymbolTable
 70
0
  0
ENDTAB
  0
TABLE
  2
UCS
  5
7
100
AcDbSymbolTable
 70
0
  0
ENDTAB
  0
TABLE
  2
APPID
  5
9
100
AcDbSymbolTable
 70
1
  0
APPID
  5
21B
100
AcDbSymbolTableRecord
100
AcDbRegAppTableRecord
  2
ACAD
 70
0
  0
ENDTAB
  0
TABLE
  2
BLOCK_RECORD
  5
1
100
AcDbSymbolTable
 70
0
  0
BLOCK_RECORD
  5
21C
100
AcDbSymbolTableRecord
100
AcDbBlockTableRecord
  2
*Model_Space
  0
BLOCK_RECORD
  5
21D
100
AcDbSymbolTableRecord
100
AcDbBlockTableRecord
  2
*Paper_Space
  0
ENDTAB
  0
TABLE
  2
DIMSTYLE
  5
A
100
AcDbSymbolTable
 70
1
100
AcDbDimStyleTable
 71
0
  0
DIMSTYLE
105
21E
100
AcDbSymbolTableRecord
100
AcDbDimStyleTableRecord
  2
STANDARD
 70
0
  3

  4

 40
1.0
 41
0.1875
 42
0.0625
 43
0.38
 44
0.125
 45
0.0
 46
0.0
 47
0.0001
 48
0.0001
140
0.15625
141
0.09
142
0.0
143
25.4
144
1.0
145
0.0
146
1.0
147
0.09
 71
0.0
 72
0.0
 73
1
 74
1
 75
0
 76
0
 77
0
 78
4
 79
1
170
0
171
3
172
0
173
0
174
0
175
0
176
0
177
0
178
0
270
2
179
4
271
4
272
4
273
2
274
2
275
0
280
0
281
0
282
0
283
1
284
4
285
0
286
0
287
3
288
0
340
11
278
46
  0
ENDTAB
  0
ENDSEC
  0
SECTION
  2
BLOCKS
  0
BLOCK
  5
20
100
AcDbEntity
  8
0
100
AcDbBlockBegin
  2
*Model_Space
 70
0
 10
0.0
 20
0.0
 30
0.0
  3
*Model_Space
  1

  0
ENDBLK
  5
21
100
AcDbEntity
  8
0
100
AcDbBlockEnd
  0
BLOCK
  5
1C
100
AcDbEntity
  8
0
100
AcDbBlockBegin
  2
*Paper_Space
 70
0
 10
0.0
 20
0.0
 30
0.0
  3
*Paper_Space
  1

  0
ENDBLK
  5
1D
100
AcDbEntity
  8
0
100
AcDbBlockEnd
  0
ENDSEC
  0
SECTION
  2
ENTITIES
  0
MTEXT
  5
21F
100
AcDbEntity
  8
0
100
AcDbMText
 62
7
  6
CONTINUOUS
  7
STANDARD
 71
1
 72
1
 10
15.9560215477
 20
0.9479130325
 30
0.0
 11
1.0
 21
0.0
 31
0.0
 44
0.9
  1
SCALE: 1:1.000
 40
0.3
 41
3.36
  0
LINE
  5
220
100
AcDbEntity
  8
0
100
AcDbLine
 62
7
  6
CONTINUOUS
 10
0.0
 20
0.0
 11
0.0
 21
17.0
  0
LINE
  5
221
100
AcDbEntity
  8
0
100
AcDbLine
 62
7
  6
CONTINUOUS
 10
0.0
 20
0.0
 11
22.0
 21
0.0
  0
LINE
  5
222
100
AcDbEntity
  8
0
100
AcDbLine
 62
7
  6
CONTINUOUS
 10
0.0
 20
17.0
 11
22.0
 21
17.0
  0
LINE
  5
223
100
AcDbEntity
  8
0
100
AcDbLine
 62
7
  6
CONTINUOUS
 10
22.0
 20
0.0
 11
22.0
 21
17.0
  0
LINE
  5
224
100
AcDbEntity
  8
0
100
AcDbLine
 62
7
  6
CONTINUOUS
 10
3.3803672762
 20
6.0051198968
 11
3.3803672762
 21
5.9301198968
  0
LINE
  5
225
100
AcDbEntity
  8
0
100
AcDbLine
 62
7
  6
CONTINUOUS
 10
3.3803672762
 20
5.9301198968
 11
3.5610146385
 21
5.0533780317
  0
LINE
  5
226
100
AcDbEntity
  8
0
100
AcDbLine
 62
7
  6
CONTINUOUS
 10
4.3803672762
 20
5.9301198968
 11
4.3803672762
 21
5.9751198968
  0
LINE
  5
227
100
AcDbEntity
  8
0
100
AcDbLine
 62
7
  6
CONTINUOUS
 10
4.1997199139
 20
5.0533780317
 11
4.3803672762
 21
5.9301198968
  0
LINE
  5
228
100
AcDbEntity
  8
LAYER_FEATURE
100
AcDbLine
 62
7
  6
CONTINUOUS
 10
4.5053672762
 20
5.9751198968
 11
4.5053672762
 21
5.9301198968
  0
LINE
  5
229
100
AcDbEntity
  8
LAYER_FEATURE
100
AcDbLine
 62
7
  6
CONTINUOUS
 10
4.5053672762
 20
5.9301198968
 11
4.6860146385
 21
5.0533780317
  0
LINE
  5
22A
100
AcDbEntity
  8
LAYER_FEATURE
100
AcDbLine
 62
7
  6
CONTINUOUS
 10
5.5053672762
 20
5.9301198968
 11
5.5053672762
 21
5.9751198968
  0
LINE
  5
22B
100
AcDbEntity
  8
LAYER_FEATURE
100
AcDbLine
 62
7
  6
CONTINUOUS
 10
5.3247199139
 20
5.0533780317
 11
5.5053672762
 21
5.9301198968
  0
LINE
  5
22C
100
AcDbEntity
  8
LAYER_FEATURE
100
AcDbLine
 62
7
  6
CONTINUOUS
 10
5.6303672762
 20
5.9751198968
 11
5.6303672762
 21
5.9301198968
  0
LINE
  5
22D
100
AcDbEntity
  8
0
100
AcDbLine
 62
7
  6
CONTINUOUS
 10
3.6018240455
 20
5.0201198968
 11
4.1589105068
 21
5.0201198968
  0
LINE
  5
22E
100
AcDbEntity
  8
LAYER_FEATURE
100
AcDbLine
 62
7
  6
CONTINUOUS
 10
4.7268240455
 20
5.0201198968
 11
5.2839105068
 21
5.0201198968
  0
LINE
  5
22F
100
AcDbEntity
  8
LAYER_FEATURE
100
AcDbLine
 62
7
  6
CONTINUOUS
 10
5.8518240455
 20
5.0201198968
 11
6.4089105068
 21
5.0201198968
  0
LINE
  5
230
100
AcDbEntity
  8
LAYER_FEATURE
100
AcDbLine
 62
7
  6
CONTINUOUS
 10
6.9768240455
 20
5.0201198968
 11
7.5339105068
 21
5.0201198968
  0
LINE
  5
231
100
AcDbEntity
  8
LAYER_FEATURE
100
AcDbLine
 62
7
  6
CONTINUOUS
 10
8.1018240455
 20
5.0201198968
 11
8.6589105068
 21
5.0201198968
  0
LINE
  5
232
100
AcDbEntity
  8
LAYER_FEATURE
100
AcDbLine
 62
7
  6
CONTINUOUS
 10
5.6303672762
 20
5.9301198968
 11
5.8110146385
 21
5.0533780317
  0
LINE
  5
233
100
AcDbEntity
  8
LAYER_FEATURE
100
AcDbLine
 62
7
  6
CONTINUOUS
 10
6.6303672762
 20
5.9301198968
 11
6.6303672762
 21
5.9751198968
  0
LINE
  5
234
100
AcDbEntity
  8
LAYER_FEATURE
100
AcDbLine
 62
7
  6
CONTINUOUS
 10
6.4497199139
 20
5.0533780317
 11
6.6303672762
 21
5.9301198968
  0
LINE
  5
235
100
AcDbEntity
  8
LAYER_FEATURE
100
AcDbLine
 62
7
  6
CONTINUOUS
 10
4.3803672762
 20
5.9751198968
 11
4.5053672762
 21
5.9751198968
  0
LINE
  5
236
100
AcDbEntity
  8
LAYER_FEATURE
100
AcDbLine
 62
7
  6
CONTINUOUS
 10
5.5053672762
 20
5.9751198968
 11
5.6303672762
 21
5.9751198968
  0
LINE
  5
237
100
AcDbEntity
  8
LAYER_FEATURE
100
AcDbLine
 62
7
  6
CONTINUOUS
 10
6.6303672762
 20
5.9751198968
 11
6.7553672762
 21
5.9751198968
  0
LINE
  5
238
100
AcDbEntity
  8
LAYER_FEATURE
100
AcDbLine
 62
7
  6
CONTINUOUS
 10
7.7553672762
 20
5.9751198968
 11
7.8803672762
 21
5.9751198968
  0
LINE
  5
239
100
AcDbEntity
  8
0
100
AcDbLine
 62
7
  6
CONTINUOUS
 10
8.8653672762
 20
6.0201198968
 11
3.3953672762
 21
6.0201198968
  0
LINE
  5
23A
100
AcDbEntity
  8
LAYER_FEATURE
100
AcDbLine
 62
7
  6
CONTINUOUS
 10
6.7553672762
 20
5.9751198968
 11
6.7553672762
 21
5.9301198968
  0
LINE
  5
23B
100
AcDbEntity
  8
LAYER_FEATURE
100
AcDbLine
 62
7
  6
CONTINUOUS
 10
6.7553672762
 20
5.9301198968
 11
6.9360146385
 21
5.0533780317
  0
LINE
  5
23C
100
AcDbEntity
  8
LAYER_FEATURE
100
AcDbLine
 62
7
  6
CONTINUOUS
 10
7.5747199139
 20
5.0533780317
 11
7.7553672762
 21
5.9301198968
  0
LINE
  5
23D
100
AcDbEntity
  8
LAYER_FEATURE
100
AcDbLine
 62
7
  6
CONTINUOUS
 10
7.7553672762
 20
5.9301198968
 11
7.7553672762
 21
5.9751198968
  0
LINE
  5
23E
100
AcDbEntity
  8
LAYER_FEATURE
100
AcDbLine
 62
7
  6
CONTINUOUS
 10
7.8803672762
 20
5.9751198968
 11
7.8803672762
 21
5.9301198968
  0
LINE
  5
23F
100
AcDbEntity
  8
LAYER_FEATURE
100
AcDbLine
 62
7
  6
CONTINUOUS
 10
7.8803672762
 20
5.9301198968
 11
8.0610146385
 21
5.0533780317
  0
LINE
  5
240
100
AcDbEntity
  8
0
100
AcDbLine
 62
7
  6
CONTINUOUS
 10
8.8803672762
 20
5.9301198968
 11
8.8803672762
 21
6.0051198968
  0
LINE
  5
241
100
AcDbEntity
  8
LAYER_FEATURE
100
AcDbLine
 62
7
  6
CONTINUOUS
 10
8.6997199139
 20
5.0533780317
 11
8.8803672762
 21
5.9301198968
  0
LINE
  5
242
100
AcDbEntity
  8
0
100
AcDbLine
 62
7
  6
CONTINUOUS
 10
3.3208720839
 20
14.6000477814
 11
3.3208720839
 21
10.6000477814
  0
LINE
  5
243
100
AcDbEntity
  8
0
100
AcDbLine
 62
7
  6
CONTINUOUS
 10
8.8208720839
 20
10.6000477814
 11
3.3208720839
 21
10.6000477814
  0
LINE
  5
244
100
AcDbEntity
  8
0
100
AcDbLine
 62
7
  6
CONTINUOUS
 10
3.3208720839
 20
14.6000477814
 11
8.8208720839
 21
14.6000477814
  0
LINE
  5
245
100
AcDbEntity
  8
0
100
AcDbLine
 62
7
  6
CONTINUOUS
 10
8.8208720839
 20
10.6000477814
 11
8.8208720839
 21
14.6000477814
  0
LINE
  5
246
100
AcDbEntity
  8
LAYER_FEATURE
100
AcDbLine
 62
7
  6
CONTINUOUS
 10
13.5603552569
 20
4.9606247044
 11
13.5603552569
 21
5.8706247044
  0
LINE
  5
247
100
AcDbEntity
  8
0
100
AcDbLine
 62
7
  6
CONTINUOUS
 10
13.5603552569
 20
5.8706247044
 11
13.5603552569
 21
5.9606247044
  0
LINE
  5
248
100
AcDbEntity
  8
LAYER_FEATURE
100
AcDbLine
 62
7
  6
CONTINUOUS
 10
13.5603552569
 20
4.9606247044
 11
17.5603552569
 21
4.9606247044
  0
LINE
  5
249
100
AcDbEntity
  8
LAYER_FEATURE
100
AcDbLine
 62
7
  6
CONTINUOUS
 10
17.5603552569
 20
5.8706247044
 11
13.5603552569
 21
5.8706247044
  0
LINE
  5
24A
100
AcDbEntity
  8
0
100
AcDbLine
 62
7
  6
CONTINUOUS
 10
13.5603552569
 20
5.9606247044
 11
17.5603552569
 21
5.9606247044
  0
LINE
  5
24B
100
AcDbEntity
  8
0
100
AcDbLine
 62
7
  6
CONTINUOUS
 10
17.5603552569
 20
5.9606247044
 11
17.5603552569
 21
5.8706247044
  0
LINE
  5
24C
100
AcDbEntity
  8
LAYER_FEATURE
100
AcDbLine
 62
7
  6
CONTINUOUS
 10
17.5603552569
 20
4.9606247044
 11
17.5603552569
 21
5.8706247044
  0
LINE
  5
24D
100
AcDbEntity
  8
0
100
AcDbLine
 62
7
  6
CONTINUOUS
 10
12.4153236925
 20
11.1990112606
 11
12.8491539066
 21
10.6540197778
  0
LINE
  5
24E
100
AcDbEntity
  8
0
100
AcDbLine
 62
7
  6
CONTINUOUS
 10
12.3924455525
 20
11.2456320083
 11
12.4153236925
 21
11.1990112606
  0
LINE
  5
24F
100
AcDbEntity
  8
0
100
AcDbLine
 62
7
  6
CONTINUOUS
 10
13.3601954483
 20
14.3833683573
 11
12.3919301547
 21
11.2500607188
  0
LINE
  5
250
100
AcDbEntity
  8
LAYER_FEATURE
100
AcDbLine
 62
7
  6
CONTINUOUS
 10
13.4515173107
 20
11.1990112606
 11
13.8853475248
 21
10.6540197778
  0
LINE
  5
251
100
AcDbEntity
  8
0
100
AcDbLine
 62
7
  6
CONTINUOUS
 10
13.3363846865
 20
11.1990112606
 11
13.3226578025
 21
11.2269837092
  0
LINE
  5
252
100
AcDbEntity
  8
LAYER_FEATURE
100
AcDbLine
 62
7
  6
CONTINUOUS
 10
13.4377904267
 20
11.2269837092
 11
13.4515173107
 21
11.1990112606
  0
LINE
  5
253
100
AcDbEntity
  8
0
100
AcDbLine
 62
7
  6
CONTINUOUS
 10
13.4374404224
 20
10.6540197778
 11
13.3363846865
 21
11.1990112606
  0
LINE
  5
254
100
AcDbEntity
  8
0
100
AcDbLine
 62
7
  6
CONTINUOUS
 10
13.4370955098
 20
10.6469450031
 11
13.4374404224
 21
10.6540197778
  0
LINE
  5
255
100
AcDbEntity
  8
0
100
AcDbLine
 62
7
  6
CONTINUOUS
 10
13.3450288269
 20
11.2269837092
 11
13.3363846865
 21
11.1990112606
  0
LINE
  5
256
100
AcDbEntity
  8
0
100
AcDbLine
 62
7
  6
CONTINUOUS
 10
12.8968869832
 20
10.6333461895
 11
13.409997593
 21
10.6333461895
  0
LINE
  5
257
100
AcDbEntity
  8
LAYER_FEATURE
100
AcDbLine
 62
7
  6
CONTINUOUS
 10
13.9330806015
 20
10.6333461895
 11
14.4461912112
 21
10.6333461895
  0
LINE
  5
258
100
AcDbEntity
  8
LAYER_FEATURE
100
AcDbLine
 62
7
  6
CONTINUOUS
 10
14.9692742197
 20
10.6333461895
 11
15.4823848295
 21
10.6333461895
  0
LINE
  5
259
100
AcDbEntity
  8
LAYER_FEATURE
100
AcDbLine
 62
7
  6
CONTINUOUS
 10
16.005467838
 20
10.6333461895
 11
16.5185784477
 21
10.6333461895
  0
LINE
  5
25A
100
AcDbEntity
  8
LAYER_FEATURE
100
AcDbLine
 62
7
  6
CONTINUOUS
 10
17.0416614562
 20
10.6333461895
 11
17.554772066
 21
10.6333461895
  0
LINE
  5
25B
100
AcDbEntity
  8
LAYER_FEATURE
100
AcDbLine
 62
7
  6
CONTINUOUS
 10
14.487710929
 20
11.1990112606
 11
14.9215411431
 21
10.6540197778
  0
LINE
  5
25C
100
AcDbEntity
  8
LAYER_FEATURE
100
AcDbLine
 62
7
  6
CONTINUOUS
 10
14.3725783047
 20
11.1990112606
 11
14.3588514207
 21
11.2269837092
  0
LINE
  5
25D
100
AcDbEntity
  8
LAYER_FEATURE
100
AcDbLine
 62
7
  6
CONTINUOUS
 10
14.473984045
 20
11.2269837092
 11
14.487710929
 21
11.1990112606
  0
LINE
  5
25E
100
AcDbEntity
  8
0
100
AcDbLine
 62
7
  6
CONTINUOUS
 10
13.4391224744
 20
10.6534999844
 11
13.5640229462
 21
11.0576780591
  0
LINE
  5
25F
100
AcDbEntity
  8
LAYER_FEATURE
100
AcDbLine
 62
7
  6
CONTINUOUS
 10
13.3226578025
 20
11.2269837092
 11
13.4377904267
 21
11.2269837092
  0
LINE
  5
260
100
AcDbEntity
  8
LAYER_FEATURE
100
AcDbLine
 62
7
  6
CONTINUOUS
 10
14.3588514207
 20
11.2269837092
 11
14.473984045
 21
11.2269837092
  0
LINE
  5
261
100
AcDbEntity
  8
LAYER_FEATURE
100
AcDbLine
 62
7
  6
CONTINUOUS
 10
15.395045039
 20
11.2269837092
 11
15.5101776632
 21
11.2269837092
  0
LINE
  5
262
100
AcDbEntity
  8
LAYER_FEATURE
100
AcDbLine
 62
7
  6
CONTINUOUS
 10
16.4312386572
 20
11.2269837092
 11
16.5463712815
 21
11.2269837092
  0
LINE
  5
263
100
AcDbEntity
  8
0
100
AcDbLine
 62
7
  6
CONTINUOUS
 10
17.4398894766
 20
11.2549561578
 11
12.4016858394
 21
11.2549561578
  0
LINE
  5
264
100
AcDbEntity
  8
LAYER_FEATURE
100
AcDbLine
 62
7
  6
CONTINUOUS
 10
14.4736340407
 20
10.6540197778
 11
14.3725783047
 21
11.1990112606
  0
LINE
  5
265
100
AcDbEntity
  8
LAYER_FEATURE
100
AcDbLine
 62
7
  6
CONTINUOUS
 10
14.473289128
 20
10.6469450031
 11
14.4736340407
 21
10.6540197778
  0
LINE
  5
266
100
AcDbEntity
  8
LAYER_FEATURE
100
AcDbLine
 62
7
  6
CONTINUOUS
 10
15.5239045472
 20
11.1990112606
 11
15.9577347614
 21
10.6540197778
  0
LINE
  5
267
100
AcDbEntity
  8
LAYER_FEATURE
100
AcDbLine
 62
7
  6
CONTINUOUS
 10
14.3812224451
 20
11.2269837092
 11
14.3725783047
 21
11.1990112606
  0
LINE
  5
268
100
AcDbEntity
  8
LAYER_FEATURE
100
AcDbLine
 62
7
  6
CONTINUOUS
 10
15.408771923
 20
11.1990112606
 11
15.395045039
 21
11.2269837092
  0
LINE
  5
269
100
AcDbEntity
  8
LAYER_FEATURE
100
AcDbLine
 62
7
  6
CONTINUOUS
 10
15.5101776632
 20
11.2269837092
 11
15.5239045472
 21
11.1990112606
  0
LINE
  5
26A
100
AcDbEntity
  8
LAYER_FEATURE
100
AcDbLine
 62
7
  6
CONTINUOUS
 10
14.4753160927
 20
10.6534999844
 11
14.6002165644
 21
11.0576780591
  0
LINE
  5
26B
100
AcDbEntity
  8
LAYER_FEATURE
100
AcDbLine
 62
7
  6
CONTINUOUS
 10
15.5098276589
 20
10.6540197778
 11
15.408771923
 21
11.1990112606
  0
LINE
  5
26C
100
AcDbEntity
  8
LAYER_FEATURE
100
AcDbLine
 62
7
  6
CONTINUOUS
 10
15.5094827463
 20
10.6469450031
 11
15.5098276589
 21
10.6540197778
  0
LINE
  5
26D
100
AcDbEntity
  8
LAYER_FEATURE
100
AcDbLine
 62
7
  6
CONTINUOUS
 10
16.5600981655
 20
11.1990112606
 11
16.9939283796
 21
10.6540197778
  0
LINE
  5
26E
100
AcDbEntity
  8
LAYER_FEATURE
100
AcDbLine
 62
7
  6
CONTINUOUS
 10
15.4174160634
 20
11.2269837092
 11
15.408771923
 21
11.1990112606
  0
LINE
  5
26F
100
AcDbEntity
  8
LAYER_FEATURE
100
AcDbLine
 62
7
  6
CONTINUOUS
 10
16.4449655412
 20
11.1990112606
 11
16.4312386572
 21
11.2269837092
  0
LINE
  5
270
100
AcDbEntity
  8
LAYER_FEATURE
100
AcDbLine
 62
7
  6
CONTINUOUS
 10
16.5463712815
 20
11.2269837092
 11
16.5600981655
 21
11.1990112606
  0
LINE
  5
271
100
AcDbEntity
  8
LAYER_FEATURE
100
AcDbLine
 62
7
  6
CONTINUOUS
 10
15.5115097109
 20
10.6534999844
 11
15.6364101827
 21
11.0576780591
  0
LINE
  5
272
100
AcDbEntity
  8
LAYER_FEATURE
100
AcDbLine
 62
7
  6
CONTINUOUS
 10
16.5460212772
 20
10.6540197778
 11
16.4449655412
 21
11.1990112606
  0
LINE
  5
273
100
AcDbEntity
  8
LAYER_FEATURE
100
AcDbLine
 62
7
  6
CONTINUOUS
 10
16.5456763645
 20
10.6469450031
 11
16.5460212772
 21
10.6540197778
  0
LINE
  5
274
100
AcDbEntity
  8
0
100
AcDbLine
 62
7
  6
CONTINUOUS
 10
17.4811591595
 20
11.1990112606
 11
17.4582810195
 21
11.2456320083
  0
LINE
  5
275
100
AcDbEntity
  8
LAYER_FEATURE
100
AcDbLine
 62
7
  6
CONTINUOUS
 10
16.4536096816
 20
11.2269837092
 11
16.4449655412
 21
11.1990112606
  0
LINE
  5
276
100
AcDbEntity
  8
LAYER_FEATURE
100
AcDbLine
 62
7
  6
CONTINUOUS
 10
16.5477033292
 20
10.6534999844
 11
16.6726038009
 21
11.0576780591
  0
LINE
  5
277
100
AcDbEntity
  8
0
100
AcDbLine
 62
7
  6
CONTINUOUS
 10
13.369951133
 20
14.3882637963
 11
18.4081547702
 21
14.3882637963
  0
LINE
  5
278
100
AcDbEntity
  8
LAYER_FEATURE
100
AcDbLine
 62
7
  6
CONTINUOUS
 10
17.5822148955
 20
10.6540197778
 11
17.4811591595
 21
11.1990112606
  0
LINE
  5
279
100
AcDbEntity
  8
LAYER_FEATURE
100
AcDbLine
 62
7
  6
CONTINUOUS
 10
17.5818699828
 20
10.6469450031
 11
17.5822148955
 21
10.6540197778
  0
LINE
  5
27A
100
AcDbEntity
  8
LAYER_FEATURE
100
AcDbLine
 62
7
  6
CONTINUOUS
 10
18.4494244531
 20
14.3323188992
 11
17.4811591595
 21
11.1990112606
  0
LINE
  5
27B
100
AcDbEntity
  8
LAYER_FEATURE
100
AcDbLine
 62
7
  6
CONTINUOUS
 10
17.5838969474
 20
10.6534999844
 11
18.5501364837
 21
13.7802522696
  0
LINE
  5
27C
100
AcDbEntity
  8
LAYER_FEATURE
100
AcDbLine
 62
7
  6
CONTINUOUS
 10
18.5504801891
 20
13.7873274163
 11
18.5501352764
 21
13.7802526416
  0
LINE
  5
27D
100
AcDbEntity
  8
0
100
AcDbLine
 62
7
  6
CONTINUOUS
 10
18.4265463131
 20
14.3789396468
 11
18.4494244531
 21
14.3323188992
  0
LINE
  5
27E
100
AcDbEntity
  8
LAYER_FEATURE
100
AcDbLine
 62
7
  6
CONTINUOUS
 10
18.5504801891
 20
13.7873274163
 11
18.4494244531
 21
14.3323188992
  0
ARC
  5
27F
100
AcDbEntity
  8
0
100
AcDbCircle
 62
7
  6
CONTINUOUS
 10
3.6018240455
 20
5.0617865634
 40
0.0416666667
100
AcDbArc
 50
191.6425163769
 51
270.0
  0
ARC
  5
280
100
AcDbEntity
  8
0
100
AcDbCircle
 62
7
  6
CONTINUOUS
 10
4.1589105068
 20
5.0617865634
 40
0.0416666667
100
AcDbArc
 50
270.0
 51
348.3574836231
  0
ARC
  5
281
100
AcDbEntity
  8
LAYER_FEATURE
100
AcDbCircle
 62
7
  6
CONTINUOUS
 10
4.7268240455
 20
5.0617865634
 40
0.0416666667
100
AcDbArc
 50
191.6425163769
 51
270.0
  0
ARC
  5
282
100
AcDbEntity
  8
LAYER_FEATURE
100
AcDbCircle
 62
7
  6
CONTINUOUS
 10
5.2839105068
 20
5.0617865634
 40
0.0416666667
100
AcDbArc
 50
270.0
 51
348.3574836231
  0
ARC
  5
283
100
AcDbEntity
  8
LAYER_FEATURE
100
AcDbCircle
 62
7
  6
CONTINUOUS
 10
5.8518240455
 20
5.0617865634
 40
0.0416666667
100
AcDbArc
 50
191.6425163769
 51
270.0
  0
ARC
  5
284
100
AcDbEntity
  8
LAYER_FEATURE
100
AcDbCircle
 62
7
  6
CONTINUOUS
 10
6.4089105068
 20
5.0617865634
 40
0.0416666667
100
AcDbArc
 50
270.0
 51
348.3574836231
  0
ARC
  5
285
100
AcDbEntity
  8
LAYER_FEATURE
100
AcDbCircle
 62
7
  6
CONTINUOUS
 10
6.9768240455
 20
5.0617865634
 40
0.0416666667
100
AcDbArc
 50
191.6425163769
 51
270.0
  0
ARC
  5
286
100
AcDbEntity
  8
LAYER_FEATURE
100
AcDbCircle
 62
7
  6
CONTINUOUS
 10
7.5339105068
 20
5.0617865634
 40
0.0416666667
100
AcDbArc
 50
270.0
 51
348.3574836231
  0
ARC
  5
287
100
AcDbEntity
  8
LAYER_FEATURE
100
AcDbCircle
 62
7
  6
CONTINUOUS
 10
8.6589105068
 20
5.0617865634
 40
0.0416666667
100
AcDbArc
 50
270.0
 51
348.3574836231
  0
ARC
  5
288
100
AcDbEntity
  8
LAYER_FEATURE
100
AcDbCircle
 62
7
  6
CONTINUOUS
 10
8.1018240455
 20
5.0617865634
 40
0.0416666667
100
AcDbArc
 50
191.6425163769
 51
270.0
  0
ARC
  5
289
100
AcDbEntity
  8
0
100
AcDbCircle
 62
7
  6
CONTINUOUS
 10
3.3953672762
 20
6.0051198968
 40
0.015
100
AcDbArc
 50
90.0
 51
180.0
  0
ARC
  5
28A
100
AcDbEntity
  8
0
100
AcDbCircle
 62
7
  6
CONTINUOUS
 10
8.8653672762
 20
6.0051198968
 40
0.015
100
AcDbArc
 50
0.0
 51
90.0
  0
SPLINE
  5
28B
100
AcDbEntity
  8
0
100
AcDbSpline
 62
7
  6
CONTINUOUS
 70
0
 71
3
 72
15
 73
11
 74
0
 42
0.0000001
 43
0.0000001
 44
0.0000000001
 40
0.0
 40
0.0
 40
0.0
 40
0.0
 40
0.1294165569
 40
0.2645180781
 40
0.4012970774
 40
0.5362628266
 40
0.6661560434
 40
0.78813941
 40
0.8999194788
 40
1.0
 40
1.0
 40
1.0
 40
1.0
 10
18.4081547702
 20
14.3882637963
 30
0.0
 10
18.4090826236
 20
14.3882637963
 30
0.0
 10
18.4109804279
 20
14.3881335881
 30
0.0
 10
18.4138144909
 20
14.3876051547
 30
0.0
 10
18.4166088433
 20
14.3867471781
 30
0.0
 10
18.4192566863
 20
14.3855996977
 30
0.0
 10
18.4216594334
 20
14.3842008743
 30
0.0
 10
18.4237323247
 20
14.3826047901
 30
0.0
 10
18.4253903445
 20
14.3808652551
 30
0.0
 10
18.4262302112
 20
14.3795837947
 30
0.0
 10
18.4265463131
 20
14.3789396468
 30
0.0
  0
SPLINE
  5
28C
100
AcDbEntity
  8
0
100
AcDbSpline
 62
7
  6
CONTINUOUS
 70
0
 71
3
 72
10
 73
6
 74
0
 42
0.0000001
 43
0.0000001
 44
0.0000000001
 40
0.0
 40
0.0
 40
0.0
 40
0.0
 40
0.2343758129
 40
0.4761728829
 40
1.0
 40
1.0
 40
1.0
 40
1.0
 10
12.391930241
 20
11.2500606669
 30
0.0
 10
12.3918250128
 20
11.2497209018
 30
0.0
 10
12.3916870618
 20
11.2490044226
 30
0.0
 10
12.3917239387
 20
11.2474787207
 30
0.0
 10
12.3920953402
 20
11.2463456657
 30
0.0
 10
12.3924455525
 20
11.2456320083
 30
0.0
  0
SPLINE
  5
28D
100
AcDbEntity
  8
0
100
AcDbSpline
 62
7
  6
CONTINUOUS
 70
0
 71
3
 72
13
 73
9
 74
0
 42
0.0000001
 43
0.0000001
 44
0.0000000001
 40
0.0
 40
0.0
 40
0.0
 40
0.0
 40
0.0997942201
 40
0.2030647278
 40
0.3128498857
 40
0.4312452013
 40
0.6971835619
 40
1.0
 40
1.0
 40
1.0
 40
1.0
 10
13.3601955346
 20
14.3833683054
 30
0.0
 10
13.3603098978
 20
14.3837375659
 30
0.0
 10
13.3606337023
 20
14.3844636744
 30
0.0
 10
13.3613703949
 20
14.3854374566
 30
0.0
 10
13.3623453893
 20
14.3862852211
 30
0.0
 10
13.3639960766
 20
14.3872704527
 30
0.0
 10
13.3665687809
 20
14.3880763404
 30
0.0
 10
13.368778138
 20
14.3882637963
 30
0.0
 10
13.369951133
 20
14.3882637963
 30
0.0
  0
SPLINE
  5
28E
100
AcDbEntity
  8
LAYER_FEATURE
100
AcDbSpline
 62
7
  6
CONTINUOUS
 70
0
 71
3
 72
14
 73
10
 74
0
 42
0.0000001
 43
0.0000001
 44
0.0000000001
 40
0.0
 40
0.0
 40
0.0
 40
0.0
 40
0.1555937485
 40
0.3032388057
 40
0.5688577084
 40
0.6871764455
 40
0.7969034919
 40
0.9001811927
 40
1.0
 40
1.0
 40
1.0
 40
1.0
 10
17.554772066
 20
10.6333461895
 30
0.0
 10
17.5564469294
 20
10.6333461895
 30
0.0
 10
17.5597149461
 20
10.6334927753
 30
0.0
 10
17.5657783429
 20
10.6343673572
 30
0.0
 10
17.5713136137
 20
10.6361075195
 30
0.0
 10
17.5758978406
 20
10.6388389517
 30
0.0
 10
17.5786040843
 20
10.6411963306
 30
0.0
 10
17.5806550191
 20
10.6438988534
 30
0.0
 10
17.581554044
 20
10.6459180187
 30
0.0
 10
17.5818700608
 20
10.6469449791
 30
0.0
  0
SPLINE
  5
28F
100
AcDbEntity
  8
LAYER_FEATURE
100
AcDbSpline
 62
7
  6
CONTINUOUS
 70
0
 71
3
 72
15
 73
11
 74
0
 42
0.0000001
 43
0.0000001
 44
0.0000000001
 40
0.0
 40
0.0
 40
0.0
 40
0.0
 40
0.1080111201
 40
0.2251540935
 40
0.349518949
 40
0.4790128413
 40
0.6113473247
 40
0.7440652158
 40
0.8745927463
 40
1.0
 40
1.0
 40
1.0
 40
1.0
 10
16.9939283796
 20
10.6540197778
 30
0.0
 10
16.9951290049
 20
10.6525115136
 30
0.0
 10
16.9978999369
 20
10.6495770601
 30
0.0
 10
17.002756195
 20
10.6456382079
 30
0.0
 10
17.0083669453
 20
10.6420951756
 30
0.0
 10
17.0145596718
 20
10.6390417653
 30
0.0
 10
17.021164886
 20
10.6365685164
 30
0.0
 10
17.0279959512
 20
10.6347389308
 30
0.0
 10
17.0348525539
 20
10.6336180529
 30
0.0
 10
17.0394231825
 20
10.6333461895
 30
0.0
 10
17.0416614562
 20
10.6333461895
 30
0.0
  0
SPLINE
  5
290
100
AcDbEntity
  8
LAYER_FEATURE
100
AcDbSpline
 62
7
  6
CONTINUOUS
 70
0
 71
3
 72
14
 73
10
 74
0
 42
0.0000001
 43
0.0000001
 44
0.0000000001
 40
0.0
 40
0.0
 40
0.0
 40
0.0
 40
0.1555937485
 40
0.3032388057
 40
0.5688577084
 40
0.6871764455
 40
0.7969034919
 40
0.9001811927
 40
1.0
 40
1.0
 40
1.0
 40
1.0
 10
16.5185784477
 20
10.6333461895
 30
0.0
 10
16.5202533112
 20
10.6333461895
 30
0.0
 10
16.5235213279
 20
10.6334927753
 30
0.0
 10
16.5295847247
 20
10.6343673572
 30
0.0
 10
16.5351199955
 20
10.6361075195
 30
0.0
 10
16.5397042223
 20
10.6388389517
 30
0.0
 10
16.5424104661
 20
10.6411963306
 30
0.0
 10
16.5444614008
 20
10.6438988534
 30
0.0
 10
16.5453604258
 20
10.6459180187
 30
0.0
 10
16.5456764425
 20
10.6469449791
 30
0.0
  0
SPLINE
  5
291
100
AcDbEntity
  8
LAYER_FEATURE
100
AcDbSpline
 62
7
  6
CONTINUOUS
 70
0
 71
3
 72
15
 73
11
 74
0
 42
0.0000001
 43
0.0000001
 44
0.0000000001
 40
0.0
 40
0.0
 40
0.0
 40
0.0
 40
0.1080111201
 40
0.2251540935
 40
0.349518949
 40
0.4790128413
 40
0.6113473247
 40
0.7440652158
 40
0.8745927463
 40
1.0
 40
1.0
 40
1.0
 40
1.0
 10
15.9577347614
 20
10.6540197778
 30
0.0
 10
15.9589353867
 20
10.6525115136
 30
0.0
 10
15.9617063187
 20
10.6495770601
 30
0.0
 10
15.9665625767
 20
10.6456382079
 30
0.0
 10
15.972173327
 20
10.6420951756
 30
0.0
 10
15.9783660536
 20
10.6390417653
 30
0.0
 10
15.9849712678
 20
10.6365685164
 30
0.0
 10
15.991802333
 20
10.6347389308
 30
0.0
 10
15.9986589357
 20
10.6336180529
 30
0.0
 10
16.0032295643
 20
10.6333461895
 30
0.0
 10
16.005467838
 20
10.6333461895
 30
0.0
  0
SPLINE
  5
292
100
AcDbEntity
  8
LAYER_FEATURE
100
AcDbSpline
 62
7
  6
CONTINUOUS
 70
0
 71
3
 72
14
 73
10
 74
0
 42
0.0000001
 43
0.0000001
 44
0.0000000001
 40
0.0
 40
0.0
 40
0.0
 40
0.0
 40
0.1555937485
 40
0.3032388057
 40
0.5688577084
 40
0.6871764455
 40
0.7969034919
 40
0.9001811927
 40
1.0
 40
1.0
 40
1.0
 40
1.0
 10
15.4823848295
 20
10.6333461895
 30
0.0
 10
15.4840596929
 20
10.6333461895
 30
0.0
 10
15.4873277096
 20
10.6334927753
 30
0.0
 10
15.4933911064
 20
10.6343673572
 30
0.0
 10
15.4989263772
 20
10.6361075195
 30
0.0
 10
15.5035106041
 20
10.6388389517
 30
0.0
 10
15.5062168478
 20
10.6411963306
 30
0.0
 10
15.5082677826
 20
10.6438988534
 30
0.0
 10
15.5091668075
 20
10.6459180187
 30
0.0
 10
15.5094828243
 20
10.6469449791
 30
0.0
  0
SPLINE
  5
293
100
AcDbEntity
  8
LAYER_FEATURE
100
AcDbSpline
 62
7
  6
CONTINUOUS
 70
0
 71
3
 72
15
 73
11
 74
0
 42
0.0000001
 43
0.0000001
 44
0.0000000001
 40
0.0
 40
0.0
 40
0.0
 40
0.0
 40
0.1080111201
 40
0.2251540935
 40
0.349518949
 40
0.4790128413
 40
0.6113473247
 40
0.7440652158
 40
0.8745927463
 40
1.0
 40
1.0
 40
1.0
 40
1.0
 10
14.9215411431
 20
10.6540197778
 30
0.0
 10
14.9227417684
 20
10.6525115136
 30
0.0
 10
14.9255127004
 20
10.6495770601
 30
0.0
 10
14.9303689585
 20
10.6456382079
 30
0.0
 10
14.9359797088
 20
10.6420951756
 30
0.0
 10
14.9421724353
 20
10.6390417653
 30
0.0
 10
14.9487776495
 20
10.6365685164
 30
0.0
 10
14.9556087147
 20
10.6347389308
 30
0.0
 10
14.9624653174
 20
10.6336180529
 30
0.0
 10
14.967035946
 20
10.6333461895
 30
0.0
 10
14.9692742197
 20
10.6333461895
 30
0.0
  0
SPLINE
  5
294
100
AcDbEntity
  8
LAYER_FEATURE
100
AcDbSpline
 62
7
  6
CONTINUOUS
 70
0
 71
3
 72
14
 73
10
 74
0
 42
0.0000001
 43
0.0000001
 44
0.0000000001
 40
0.0
 40
0.0
 40
0.0
 40
0.0
 40
0.1555937485
 40
0.3032388057
 40
0.5688577084
 40
0.6871764455
 40
0.7969034919
 40
0.9001811927
 40
1.0
 40
1.0
 40
1.0
 40
1.0
 10
14.4461912112
 20
10.6333461895
 30
0.0
 10
14.4478660747
 20
10.6333461895
 30
0.0
 10
14.4511340914
 20
10.6334927753
 30
0.0
 10
14.4571974882
 20
10.6343673572
 30
0.0
 10
14.4627327589
 20
10.6361075195
 30
0.0
 10
14.4673169858
 20
10.6388389517
 30
0.0
 10
14.4700232296
 20
10.6411963306
 30
0.0
 10
14.4720741643
 20
10.6438988534
 30
0.0
 10
14.4729731892
 20
10.6459180187
 30
0.0
 10
14.473289206
 20
10.6469449791
 30
0.0
  0
SPLINE
  5
295
100
AcDbEntity
  8
LAYER_FEATURE
100
AcDbSpline
 62
7
  6
CONTINUOUS
 70
0
 71
3
 72
15
 73
11
 74
0
 42
0.0000001
 43
0.0000001
 44
0.0000000001
 40
0.0
 40
0.0
 40
0.0
 40
0.0
 40
0.1080111201
 40
0.2251540935
 40
0.349518949
 40
0.4790128413
 40
0.6113473247
 40
0.7440652158
 40
0.8745927463
 40
1.0
 40
1.0
 40
1.0
 40
1.0
 10
13.8853475248
 20
10.6540197778
 30
0.0
 10
13.8865481502
 20
10.6525115136
 30
0.0
 10
13.8893190822
 20
10.6495770601
 30
0.0
 10
13.8941753402
 20
10.6456382079
 30
0.0
 10
13.8997860905
 20
10.6420951756
 30
0.0
 10
13.905978817
 20
10.6390417653
 30
0.0
 10
13.9125840313
 20
10.6365685164
 30
0.0
 10
13.9194150965
 20
10.6347389308
 30
0.0
 10
13.9262716992
 20
10.6336180529
 30
0.0
 10
13.9308423277
 20
10.6333461895
 30
0.0
 10
13.9330806015
 20
10.6333461895
 30
0.0
  0
SPLINE
  5
296
100
AcDbEntity
  8
0
100
AcDbSpline
 62
7
  6
CONTINUOUS
 70
0
 71
3
 72
14
 73
10
 74
0
 42
0.0000001
 43
0.0000001
 44
0.0000000001
 40
0.0
 40
0.0
 40
0.0
 40
0.0
 40
0.1555937485
 40
0.3032388057
 40
0.5688577084
 40
0.6871764455
 40
0.7969034919
 40
0.9001811927
 40
1.0
 40
1.0
 40
1.0
 40
1.0
 10
13.409997593
 20
10.6333461895
 30
0.0
 10
13.4116724564
 20
10.6333461895
 30
0.0
 10
13.4149404731
 20
10.6334927753
 30
0.0
 10
13.4210038699
 20
10.6343673572
 30
0.0
 10
13.4265391407
 20
10.6361075195
 30
0.0
 10
13.4311233676
 20
10.6388389517
 30
0.0
 10
13.4338296113
 20
10.6411963306
 30
0.0
 10
13.4358805461
 20
10.6438988534
 30
0.0
 10
13.436779571
 20
10.6459180187
 30
0.0
 10
13.4370955878
 20
10.6469449791
 30
0.0
  0
SPLINE
  5
297
100
AcDbEntity
  8
0
100
AcDbSpline
 62
7
  6
CONTINUOUS
 70
0
 71
3
 72
15
 73
11
 74
0
 42
0.0000001
 43
0.0000001
 44
0.0000000001
 40
0.0
 40
0.0
 40
0.0
 40
0.0
 40
0.1080111201
 40
0.2251540935
 40
0.349518949
 40
0.4790128413
 40
0.6113473247
 40
0.7440652158
 40
0.8745927463
 40
1.0
 40
1.0
 40
1.0
 40
1.0
 10
12.8491539066
 20
10.6540197778
 30
0.0
 10
12.8503545319
 20
10.6525115136
 30
0.0
 10
12.8531254639
 20
10.6495770601
 30
0.0
 10
12.8579817219
 20
10.6456382079
 30
0.0
 10
12.8635924723
 20
10.6420951756
 30
0.0
 10
12.8697851988
 20
10.6390417653
 30
0.0
 10
12.876390413
 20
10.6365685164
 30
0.0
 10
12.8832214782
 20
10.6347389308
 30
0.0
 10
12.8900780809
 20
10.6336180529
 30
0.0
 10
12.8946487095
 20
10.6333461895
 30
0.0
 10
12.8968869832
 20
10.6333461895
 30
0.0
  0
SPLINE
  5
298
100
AcDbEntity
  8
0
100
AcDbSpline
 62
7
  6
CONTINUOUS
 70
0
 71
3
 72
13
 73
9
 74
0
 42
0.0000001
 43
0.0000001
 44
0.0000000001
 40
0.0
 40
0.0
 40
0.0
 40
0.0
 40
0.3028164381
 40
0.5687547987
 40
0.6871501143
 40
0.7969352722
 40
0.9002057799
 40
1.0
 40
1.0
 40
1.0
 40
1.0
 10
12.4016858394
 20
11.2549561578
 30
0.0
 10
12.4005128443
 20
11.2549561578
 30
0.0
 10
12.3983034872
 20
11.2547687019
 30
0.0
 10
12.395730783
 20
11.2539628142
 30
0.0
 10
12.3940800956
 20
11.2529775826
 30
0.0
 10
12.3931051013
 20
11.2521298181
 30
0.0
 10
12.3923684086
 20
11.2511560359
 30
0.0
 10
12.3920446041
 20
11.2504299274
 30
0.0
 10
12.391930241
 20
11.2500606669
 30
0.0
  0
SPLINE
  5
299
100
AcDbEntity
  8
0
100
AcDbSpline
 62
7
  6
CONTINUOUS
 70
0
 71
3
 72
15
 73
11
 74
0
 42
0.0000001
 43
0.0000001
 44
0.0000000001
 40
0.0
 40
0.0
 40
0.0
 40
0.0
 40
0.1000805212
 40
0.21186059
 40
0.3338439566
 40
0.4637371734
 40
0.5987029226
 40
0.7354819219
 40
0.8705834431
 40
1.0
 40
1.0
 40
1.0
 40
1.0
 10
17.4582810195
 20
11.2456320083
 30
0.0
 10
17.4579649176
 20
11.2462761562
 30
0.0
 10
17.4571250509
 20
11.2475576166
 30
0.0
 10
17.4554670311
 20
11.2492971516
 30
0.0
 10
17.4533941398
 20
11.2508932358
 30
0.0
 10
17.4509913927
 20
11.2522920592
 30
0.0
 10
17.4483435497
 20
11.2534395396
 30
0.0
 10
17.4455491973
 20
11.2542975162
 30
0.0
 10
17.4427151343
 20
11.2548259496
 30
0.0
 10
17.44081733
 20
11.2549561578
 30
0.0
 10
17.4398894766
 20
11.2549561578
 30
0.0
  0
ENDSEC
  0
SECTION
  2
OBJECTS
  0
DICTIONARY
  5
C
100
AcDbDictionary
280
0
281
1
  3
ACAD_GROUP
350
D
  3
ACAD_MLINESTYLE
350
17
  3
ACAD_LAYOUT
350
1A
  3
ACAD_PLOTSETTINGS
350
19
  3
ACAD_PLOTSTYLENAME
350
E
  0
DICTIONARY
  5
D
102
{ACAD_REACTORS
330
C
102
}
100
AcDbDictionary
280
0
281
1
  0
ACDBDICTIONARYWDFLT
  5
E
102
{ACAD_REACTORS
330
C
102
}
100
AcDbDictionary
281
1
  3
Normal
350
F
100
AcDbDictionaryWithDefault
340
F
  0
DICTIONARY
  5
17
102
{ACAD_REACTORS
330
C
102
}
100
AcDbDictionary
280
0
281
1
  3
Standard
350
18
  0
DICTIONARY
  5
19
102
{ACAD_REACTORS
330
C
102
}
100
AcDbDictionary
281
1
  0
DICTIONARY
  5
1A
102
{ACAD_REACTORS
330
C
102
}
100
AcDbDictionary
281
1
  3
Model
350
29A
  3
Layout1
350
29B
  0
ACDBPLACEHOLDER
  5
F
102
{ACAD_REACTORS
330
E
102
}
  0
MLINESTYLE
  5
18
102
{ACAD_REACTORS
330
17
102
}
100
AcDbMlineStyle
  2
STANDARD
 70
0
  3

 62
256
 51
90.0
 52
90.0
 71
2
 49
0.5
 62
256
  6
BYLAYER
 49
-0.5
 62
256
  6
BYLAYER
  0
LAYOUT
  5
29A
102
{ACAD_REACTORS
330
1A
102
}
100
AcDbPlotSettings
  1

  2
none_device
  4
ANSI_C_(22.00_x_17.00_Inches)
  6

 40
0.0
 41
0.0
 42
0.0
 43
0.0
 44
558.8
 45
431.8
 46
0.0
 47
0.0
 48
0.0
 49
0.0
140
0.0
141
0.0
142
1.0
143
1.0
 70
1024
 72
0
 73
0
 74
0
  7

 75
0
147
1.0
148
0.0
149
0.0
100
AcDbLayout
  1
Model
 70
0
 71
0
 10
0.0
 20
0.0
 11
22.0
 21
17.0
 12
0.0
 22
0.0
 32
0.0
 14
0.0
 24
0.0
 34
0.0
 15
0.0
 25
0.0
 35
0.0
146
0.0
 13
0.0
 23
0.0
 33
0.0
 16
1.0
 26
0.0
 36
0.0
 17
0.0
 27
1.0
 37
0.0
 76
0
330
21C
345
0
346
0
  0
LAYOUT
  5
29B
102
{ACAD_REACTORS
330
1A
102
}
100
AcDbPlotSettings
  1

  2
none_device
  4
ANSI_C_(22.00_x_17.00_Inches)
  6

 40
0.0
 41
0.0
 42
0.0
 43
0.0
 44
558.8
 45
431.8
 46
0.0
 47
0.0
 48
0.0
 49
0.0
140
0.0
141
0.0
142
1.0
143
1.0
 70
0
 72
0
 73
0
 74
0
  7

 75
0
147
1.0
148
0.0
149
0.0
100
AcDbLayout
  1
Layout1
 70
0
 71
1
 10
0.0
 20
0.0
 11
22.0
 21
17.0
 12
0.0
 22
0.0
 32
0.0
 14
0.0
 24
0.0
 34
0.0
 15
0.0
 25
0.0
 35
0.0
146
0.0
 13
0.0
 23
0.0
 33
0.0
 16
1.0
 26
0.0
 36
0.0
 17
0.0
 27
1.0
 37
0.0
 76
0
330
21D
345
0
346
0
  0
ENDSEC
  0
EOF