999
DXF file: _cgs_temp_output.dxf
999
Pro/ENGINEER 2015110 by Parametric Technology Corporation
  0
SECTION
  2
HEADER
  9
$ACADVER
  1
AC1021
  9
$DWGCODEPAGE
  3
ANSI_1252
  9
$EXTMAX
 10
22.0
 20
17.0
 30
0.0
  9
$EXTMIN
 10
0.0
 20
0.0
 30
0.0
  9
$LIMMIN
 10
0.0
 20
0.0
  9
$LIMMAX
 10
22.0
 20
17.0
  9
$VIEWCTR
 10
11.0
 20
8.5
  9
$VIEWSIZE
 40
17.0
  9
$CLAYER
  8
0
  9
$LTSCALE
 40
1.21
  9
$CELTYPE
  6
BYLAYER
  9
$DIMSCALE
 40
1.0
  9
$DIMASZ
 40
0.1875
  9
$DIMEXO
 40
0.0625
  9
$DIMDLI
 40
0.836
  9
$DIMEXE
 40
0.125
  9
$DIMCEN
 40
0.198
  9
$DIMLFAC
 40
1.0
  9
$DIMBLK
  1
_CLOSED
  9
$DIMALT
 70
0
  9
$DIMALTF
 40
25.4
  9
$DIMTXT
 40
0.15625
  9
$DIMTOL
 70
0
  9
$DIMLIM
 70
0
  9
$DIMTFAC
 40
1.0
  9
$DIMGAP
 40
0.09
  9
$DIMDSEP
 70
46
  9
$AUNITS
 70
0
  9
$PDMODE
 70
3
  9
$PDSIZE
 40
0.3125
  9
$HANDSEED
  5
29C
  9
$TILEMODE
 70
1
  9
$MEASUREMENT
 70
0
  9
$INSUNITS
 70
1
  0
ENDSEC
  0
SECTION
  2
CLASSES
  0
CLASS
  1
ACDBDICTIONARYWDFLT
  2
AcDbDictionaryWithDefault
  3
AutoCAD 2000
 90
0
 91
1
280
0
281
0
  0
CLASS
  1
ACDBPLACEHOLDER
  2
AcDbPlaceHolder
  3
AutoCAD 2000
 90
0
 91
1
280
0
281
0
  0
CLASS
  1
LAYOUT
  2
AcDbLayout
  3
AutoCAD 2000
 90
0
 91
0
280
0
281
0
  0
ENDSEC
  0
SECTION
  2
TABLES
  0
TABLE
  2
VPORT
  5
8
100
AcDbSymbolTable
 70
2
  0
VPORT
  5
1F4
100
AcDbSymbolTableRecord
100
AcDbViewportTableRecord
  2
*ACTIVE
 70
0
 10
0.0
 20
0.0
 11
1.0
 21
1.0
 12
11.0
 22
8.5
 13
0.0
 23
0.0
 14
1.0
 24
1.0
 15
0.0
 25
0.0
 16
0.0
 26
0.0
 36
1.0
 17
0.0
 27
0.0
 37
0.0
 40
17.0
 41
1.2941176471
 42
50.0
 43
0.0
 44
0.0
 50
0.0
 51
0.0
 71
0
 72
100
 73
1
 74
1
 75
0
 76
0
 77
0
 78
0
  0
ENDTAB
  0
TABLE
  2
LTYPE
  5
5
100
AcDbSymbolTable
 70
6
  0
LTYPE
  5
14
100
AcDbSymbolTableRecord
100
AcDbLinetypeTableRecord
  2
BYBLOCK
 70
0
  3

 72
65
 73
0
 40
0.0
  0
LTYPE
  5
15
100
AcDbSymbolTableRecord
100
AcDbLinetypeTableRecord
  2
BYLAYER
 70
0
  3

 72
65
 73
0
 40
0.0
  0
LTYPE
  5
16
100
AcDbSymbolTableRecord
100
AcDbLinetypeTableRecord
  2
CONTINUOUS
 70
64
  3
Solid line
 72
65
 73
0
 40
0.0
  0
LTYPE
  5
1F5
100
AcDbSymbolTableRecord
100
AcDbLinetypeTableRecord
  2
CENTER
 70
64
  3
____ _ ____ _ ____ _ ____ _ ____ _ ____ _ ____
 72
65
 73
4
 40
0.6
 49
0.375
 74
0
 49
-0.075
 74
0
 49
0.075
 74
0
 49
-0.075
 74
0
  0
LTYPE
  5
1F6
100
AcDbSymbolTableRecord
100
AcDbLinetypeTableRecord
  2
HIDDEN
 70
64
  3
- - - - - - - - - - - - - - - - - - - -
 72
65
 73
2
 40
0.2
 49
0.1
 74
0
 49
-0.1
 74
0
  0
LTYPE
  5
1F7
100
AcDbSymbolTableRecord
100
AcDbLinetypeTableRecord
  2
PHANTOM
 70
64
  3
_____ _ _ _____ _ _ _____ _ _ _____
 72
65
 73
6
 40
0.8
 49
0.45
 74
0
 49
-0.05
 74
0
 49
0.1
 74
0
 49
-0.05
 74
0
 49
0.1
 74
0
 49
-0.05
 74
0
  0
LTYPE
  5
1F8
100
AcDbSymbolTableRecord
100
AcDbLinetypeTableRecord
  2
DOT
 70
64
  3
. . . . . . . . . . . . . . . . . . . .
 72
65
 73
2
 40
0.2
 49
0.1
 74
0
 49
-0.1
 74
0
  0
LTYPE
  5
1F9
100
AcDbSymbolTableRecord
100
AcDbLinetypeTableRecord
  2
DASHED
 70
64
  3
- - - - - - - - - - - - - - - - - - - -
 72
65
 73
2
 40
0.2
 49
0.1
 74
0
 49
-0.1
 74
0
  0
ENDTAB
  0
TABLE
  2
LAYER
  5
2
100
AcDbSymbolTable
 70
36
  0
LAYER
  5
10
100
AcDbSymbolTableRecord
100
AcDbLayerTableRecord
  2
0
 70
0
 62
7
  6
CONTINUOUS
370
-3
390
F
  0
LAYER
  5
1FA
100
AcDbSymbolTableRecord
100
AcDbLayerTableRecord
  2
DEFAULT_1
 70
0
 62
7
  6
CENTER
370
-3
390
F
  0
LAYER
  5
1FB
100
AcDbSymbolTableRecord
100
AcDbLayerTableRecord
  2
DEFAULT_2
 70
0
 62
8
  6
HIDDEN
370
-3
390
F
  0
LAYER
  5
1FC
100
AcDbSymbolTableRecord
100
AcDbLayerTableRecord
  2
DEFAULT_3
 70
0
 62
7
  6
PHANTOM
370
-3
390
F
  0
LAYER
  5
1FD
100
AcDbSymbolTableRecord
100
AcDbLayerTableRecord
  2
01_ALL_DTM_PLN
 70
0
 62
7
  6
CONTINUOUS
370
-3
390
F
  0
LAYER
  5
1FE
100
AcDbSymbolTableRecord
100
AcDbLayerTableRecord
  2
01__ASM_ALL_DTM_PLN
 70
0
 62
7
  6
CONTINUOUS
370
-3
390
F
  0
LAYER
  5
1FF
100
AcDbSymbolTableRecord
100
AcDbLayerTableRecord
  2
01__ASM_DEF_DTM_PLN
 70
0
 62
7
  6
CONTINUOUS
370
-3
390
F
  0
LAYER
  5
200
100
AcDbSymbolTableRecord
100
AcDbLayerTableRecord
  2
01___PRT_ALL_DTM_PLN
 70
0
 62
7
  6
CONTINUOUS
370
-3
390
F
  0
LAYER
  5
201
100
AcDbSymbolTableRecord
100
AcDbLayerTableRecord
  2
01___PRT_DEF_DTM_PLN
 70
0
 62
7
  6
CONTINUOUS
370
-3
390
F
  0
LAYER
  5
202
100
AcDbSymbolTableRecord
100
AcDbLayerTableRecord
  2
02_ALL_AXES
 70
0
 62
7
  6
CONTINUOUS
370
-3
390
F
  0
LAYER
  5
203
100
AcDbSymbolTableRecord
100
AcDbLayerTableRecord
  2
02__ASM_ALL_AXES
 70
0
 62
7
  6
CONTINUOUS
370
-3
390
F
  0
LAYER
  5
204
100
AcDbSymbolTableRecord
100
AcDbLayerTableRecord
  2
02___PRT_ALL_AXES
 70
0
 62
7
  6
CONTINUOUS
370
-3
390
F
  0
LAYER
  5
205
100
AcDbSymbolTableRecord
100
AcDbLayerTableRecord
  2
03_ALL_CURVES
 70
0
 62
7
  6
CONTINUOUS
370
-3
390
F
  0
LAYER
  5
206
100
AcDbSymbolTableRecord
100
AcDbLayerTableRecord
  2
03__ASM_ALL_CURVES
 70
0
 62
7
  6
CONTINUOUS
370
-3
390
F
  0
LAYER
  5
207
100
AcDbSymbolTableRecord
100
AcDbLayerTableRecord
  2
03___PRT_ALL_CURVES
 70
0
 62
7
  6
CONTINUOUS
370
-3
390
F
  0
LAYER
  5
208
100
AcDbSymbolTableRecord
100
AcDbLayerTableRecord
  2
04_ALL_DTM_PNT
 70
0
 62
7
  6
CONTINUOUS
370
-3
390
F
  0
LAYER
  5
209
100
AcDbSymbolTableRecord
100
AcDbLayerTableRecord
  2
04__ASM_ALL_DTM_PNT
 70
0
 62
7
  6
CONTINUOUS
370
-3
390
F
  0
LAYER
  5
20A
100
AcDbSymbolTableRecord
100
AcDbLayerTableRecord
  2
04___PRT_ALL_DTM_PNT
 70
0
 62
7
  6
CONTINUOUS
370
-3
390
F
  0
LAYER
  5
20B
100
AcDbSymbolTableRecord
100
AcDbLayerTableRecord
  2
05_ALL_DTM_CSYS
 70
0
 62
7
  6
CONTINUOUS
370
-3
390
F
  0
LAYER
  5
20C
100
AcDbSymbolTableRecord
100
AcDbLayerTableRecord
  2
05__ASM_ALL_DTM_CSYS
 70
0
 62
7
  6
CONTINUOUS
370
-3
390
F
  0
LAYER
  5
20D
100
AcDbSymbolTableRecord
100
AcDbLayerTableRecord
  2
05__ASM_DEF_DTM_CSYS
 70
0
 62
7
  6
CONTINUOUS
370
-3
390
F
  0
LAYER
  5
20E
100
AcDbSymbolTableRecord
100
AcDbLayerTableRecord
  2
05___PRT_ALL_DTM_CSYS
 70
0
 62
7
  6
CONTINUOUS
370
-3
390
F
  0
LAYER
  5
20F
100
AcDbSymbolTableRecord
100
AcDbLayerTableRecord
  2
05___PRT_DEF_DTM_CSYS
 70
0
 62
7
  6
CONTINUOUS
370
-3
390
F
  0
LAYER
  5
210
100
AcDbSymbolTableRecord
100
AcDbLayerTableRecord
  2
06_ALL_SURFS
 70
0
 62
7
  6
CONTINUOUS
370
-3
390
F
  0
LAYER
  5
211
100
AcDbSymbolTableRecord
100
AcDbLayerTableRecord
  2
06__ASM_ALL_SURFS
 70
0
 62
7
  6
CONTINUOUS
370
-3
390
F
  0
LAYER
  5
212
100
AcDbSymbolTableRecord
100
AcDbLayerTableRecord
  2
06___PRT_ALL_SURFS
 70
0
 62
7
  6
CONTINUOUS
370
-3
390
F
  0
LAYER
  5
213
100
AcDbSymbolTableRecord
100
AcDbLayerTableRecord
  2
07__ASM_ALL_SKELETONS
 70
0
 62
7
  6
CONTINUOUS
370
-3
390
F
  0
LAYER
  5
214
100
AcDbSymbolTableRecord
100
AcDbLayerTableRecord
  2
LAYER_DIM
 70
0
 62
7
  6
CONTINUOUS
370
-3
390
F
  0
LAYER
  5
215
100
AcDbSymbolTableRecord
100
AcDbLayerTableRecord
  2
LAYER_FEATURE
 70
0
 62
7
  6
CONTINUOUS
370
-3
390
F
  0
LAYER
  5
216
100
AcDbSymbolTableRecord
100
AcDbLayerTableRecord
  2
LAYER_GEOM_FEAT
 70
0
 62
7
  6
CONTINUOUS
370
-3
390
F
  0
LAYER
  5
217
100
AcDbSymbolTableRecord
100
AcDbLayerTableRecord
  2
LAYER_PARAMETER_DIM
 70
0
 62
7
  6
CONTINUOUS
370
-3
390
F
  0
LAYER
  5
218
100
AcDbSymbolTableRecord
100
AcDbLayerTableRecord
  2
LAYER_PROTRUSION_FEAT
 70
0
 62
7
  6
CONTINUOUS
370
-3
390
F
  0
LAYER
  5
219
100
AcDbSymbolTableRecord
100
AcDbLayerTableRecord
  2
LAYER_ROUND_FEAT
 70
0
 62
7
  6
CONTINUOUS
370
-3
390
F
  0
ENDTAB
  0
TABLE
  2
STYLE
  5
3
100
AcDbSymbolTable
 70
1
  0
STYLE
  5
11
100
AcDbSymbolTableRecord
100
AcDbTextStyleTableRecord
  2
STANDARD
 70
0
 40
0.0
 41
0.8
 50
0.0
 71
0
 42
0.2
  3
txt
  4

  0
STYLE
  5
21A
100
AcDbSymbolTableRecord
100
AcDbTextStyleTableRecord
  2
TEXTSTYLE_1
 70
0
 40
0.0
 41
0.8
 50
0.0
 71
0
 42
0.2
  3
gdt
  4

  0
ENDTAB
  0
TABLE
  2
VIEW
  5
6
100
AcDbSymbolTable
 70
0
  0
ENDTAB
  0
TABLE
  2
UCS
  5
7
100
AcDbSymbolTable
 70
0
  0
ENDTAB
  0
TABLE
  2
APPID
  5
9
100
AcDbSymbolTable
 70
1
  0
APPID
  5
21B
100
AcDbSymbolTableRecord
100
AcDbRegAppTableRecord
  2
ACAD
 70
0
  0
ENDTAB
  0
TABLE
  2
BLOCK_RECORD
  5
1
100
AcDbSymbolTable
 70
0
  0
BLOCK_RECORD
  5
21C
100
AcDbSymbolTableRecord
100
AcDbBlockTableRecord
  2
*Model_Space
  0
BLOCK_RECORD
  5
21D
100
AcDbSymbolTableRecord
100
AcDbBlockTableRecord
  2
*Paper_Space
  0
ENDTAB
  0
TABLE
  2
DIMSTYLE
  5
A
100
AcDbSymbolTable
 70
1
100
AcDbDimStyleTable
 71
0
  0
DIMSTYLE
105
21E
100
AcDbSymbolTableRecord
100
AcDbDimStyleTableRecord
  2
STANDARD
 70
0
  3

  4

 40
1.0
 41
0.1875
 42
0.0625
 43
0.38
 44
0.125
 45
0.0
 46
0.0
 47
0.0001
 48
0.0001
140
0.15625
141
0.09
142
0.0
143
25.4
144
1.0
145
0.0
146
1.0
147
0.09
 71
0.0
 72
0.0
 73
1
 74
1
 75
0
 76
0
 77
0
 78
4
170
0
171
2
172
0
173
0
174
0
175
0
176
0
177
0
178
0
270
2
271
4
272
4
273
2
274
2
275
0
280
0
281
0
282
0
283
1
284
4
285
0
286
0
287
3
288
0
340
11
278
46
  0
ENDTAB
  0
ENDSEC
  0
SECTION
  2
BLOCKS
  0
BLOCK
  5
20
100
AcDbEntity
  8
0
100
AcDbBlockBegin
  2
*Model_Space
 70
0
 10
0.0
 20
0.0
 30
0.0
  3
*Model_Space
  1

  0
ENDBLK
  5
21
100
AcDbEntity
  8
0
100
AcDbBlockEnd
  0
BLOCK
  5
1C
100
AcDbEntity
  8
0
100
AcDbBlockBegin
  2
*Paper_Space
 70
0
 10
0.0
 20
0.0
 30
0.0
  3
*Paper_Space
  1

  0
ENDBLK
  5
1D
100
AcDbEntity
  8
0
100
AcDbBlockEnd
  0
ENDSEC
  0
SECTION
  2
ENTITIES
  0
MTEXT
  5
21F
100
AcDbEntity
  8
0
100
AcDbMText
 62
7
  6
CONTINUOUS
  7
STANDARD
 71
1
 72
1
 10
15.9560215477
 20
0.9479130325
 30
0.0
 11
1.0
 21
0.0
 31
0.0
 44
0.9
  1
SCALE: 1:1.000
 40
0.3
 41
3.36
  0
LINE
  5
220
100
AcDbEntity
  8
0
100
AcDbLine
 62
7
  6
CONTINUOUS
 10
0.0
 20
0.0
 11
0.0
 21
17.0
  0
LINE
  5
221
100
AcDbEntity
  8
0
100
AcDbLine
 62
7
  6
CONTINUOUS
 10
0.0
 20
0.0
 11
22.0
 21
0.0
  0
LINE
  5
222
100
AcDbEntity
  8
0
100
AcDbLine
 62
7
  6
CONTINUOUS
 10
0.0
 20
17.0
 11
22.0
 21
17.0
  0
LINE
  5
223
100
AcDbEntity
  8
0
100
AcDbLine
 62
7
  6
CONTINUOUS
 10
22.0
 20
0.0
 11
22.0
 21
17.0
  0
LINE
  5
224
100
AcDbEntity
  8
0
100
AcDbLine
 62
7
  6
CONTINUOUS
 10
4.6303672762
 20
5.7101198968
 11
4.6303672762
 21
5.6251198968
  0
LINE
  5
225
100
AcDbEntity
  8
0
100
AcDbLine
 62
7
  6
CONTINUOUS
 10
4.6303672762
 20
5.6251198968
 11
4.7196406616
 21
5.3299225688
  0
LINE
  5
226
100
AcDbEntity
  8
0
100
AcDbLine
 62
7
  6
CONTINUOUS
 10
5.1303672762
 20
5.6251198968
 11
5.1303672762
 21
5.6751198968
  0
LINE
  5
227
100
AcDbEntity
  8
0
100
AcDbLine
 62
7
  6
CONTINUOUS
 10
5.0410938907
 20
5.3299225688
 11
5.1303672762
 21
5.6251198968
  0
LINE
  5
228
100
AcDbEntity
  8
LAYER_FEATURE
100
AcDbLine
 62
7
  6
CONTINUOUS
 10
5.2553672762
 20
5.6751198968
 11
5.2553672762
 21
5.6251198968
  0
LINE
  5
229
100
AcDbEntity
  8
LAYER_FEATURE
100
AcDbLine
 62
7
  6
CONTINUOUS
 10
5.2553672762
 20
5.6251198968
 11
5.3446406616
 21
5.3299225688
  0
LINE
  5
22A
100
AcDbEntity
  8
LAYER_FEATURE
100
AcDbLine
 62
7
  6
CONTINUOUS
 10
5.7553672762
 20
5.6251198968
 11
5.7553672762
 21
5.6751198968
  0
LINE
  5
22B
100
AcDbEntity
  8
LAYER_FEATURE
100
AcDbLine
 62
7
  6
CONTINUOUS
 10
5.6660938907
 20
5.3299225688
 11
5.7553672762
 21
5.6251198968
  0
LINE
  5
22C
100
AcDbEntity
  8
LAYER_FEATURE
100
AcDbLine
 62
7
  6
CONTINUOUS
 10
5.8803672762
 20
5.6751198968
 11
5.8803672762
 21
5.6251198968
  0
LINE
  5
22D
100
AcDbEntity
  8
0
100
AcDbLine
 62
7
  6
CONTINUOUS
 10
4.7395820483
 20
5.3151198968
 11
5.021152504
 21
5.3151198968
  0
LINE
  5
22E
100
AcDbEntity
  8
LAYER_FEATURE
100
AcDbLine
 62
7
  6
CONTINUOUS
 10
5.3645820483
 20
5.3151198968
 11
5.646152504
 21
5.3151198968
  0
LINE
  5
22F
100
AcDbEntity
  8
LAYER_FEATURE
100
AcDbLine
 62
7
  6
CONTINUOUS
 10
5.9895820483
 20
5.3151198968
 11
6.271152504
 21
5.3151198968
  0
LINE
  5
230
100
AcDbEntity
  8
LAYER_FEATURE
100
AcDbLine
 62
7
  6
CONTINUOUS
 10
6.6145820483
 20
5.3151198968
 11
6.896152504
 21
5.3151198968
  0
LINE
  5
231
100
AcDbEntity
  8
LAYER_FEATURE
100
AcDbLine
 62
7
  6
CONTINUOUS
 10
7.2395820483
 20
5.3151198968
 11
7.521152504
 21
5.3151198968
  0
LINE
  5
232
100
AcDbEntity
  8
LAYER_FEATURE
100
AcDbLine
 62
7
  6
CONTINUOUS
 10
5.8803672762
 20
5.6251198968
 11
5.9696406616
 21
5.3299225688
  0
LINE
  5
233
100
AcDbEntity
  8
LAYER_FEATURE
100
AcDbLine
 62
7
  6
CONTINUOUS
 10
6.2910938907
 20
5.3299225688
 11
6.3803672762
 21
5.6251198968
  0
LINE
  5
234
100
AcDbEntity
  8
LAYER_FEATURE
100
AcDbLine
 62
7
  6
CONTINUOUS
 10
5.1303672762
 20
5.6751198968
 11
5.2553672762
 21
5.6751198968
  0
LINE
  5
235
100
AcDbEntity
  8
LAYER_FEATURE
100
AcDbLine
 62
7
  6
CONTINUOUS
 10
5.7553672762
 20
5.6751198968
 11
5.8803672762
 21
5.6751198968
  0
LINE
  5
236
100
AcDbEntity
  8
LAYER_FEATURE
100
AcDbLine
 62
7
  6
CONTINUOUS
 10
6.3803672762
 20
5.6751198968
 11
6.5053672762
 21
5.6751198968
  0
LINE
  5
237
100
AcDbEntity
  8
LAYER_FEATURE
100
AcDbLine
 62
7
  6
CONTINUOUS
 10
7.0053672762
 20
5.6751198968
 11
7.1303672762
 21
5.6751198968
  0
LINE
  5
238
100
AcDbEntity
  8
0
100
AcDbLine
 62
7
  6
CONTINUOUS
 10
7.6153672762
 20
5.7251198968
 11
4.6453672762
 21
5.7251198968
  0
LINE
  5
239
100
AcDbEntity
  8
LAYER_FEATURE
100
AcDbLine
 62
7
  6
CONTINUOUS
 10
6.3803672762
 20
5.6251198968
 11
6.3803672762
 21
5.6751198968
  0
LINE
  5
23A
100
AcDbEntity
  8
LAYER_FEATURE
100
AcDbLine
 62
7
  6
CONTINUOUS
 10
6.5053672762
 20
5.6751198968
 11
6.5053672762
 21
5.6251198968
  0
LINE
  5
23B
100
AcDbEntity
  8
LAYER_FEATURE
100
AcDbLine
 62
7
  6
CONTINUOUS
 10
6.5053672762
 20
5.6251198968
 11
6.5946406616
 21
5.3299225688
  0
LINE
  5
23C
100
AcDbEntity
  8
LAYER_FEATURE
100
AcDbLine
 62
7
  6
CONTINUOUS
 10
6.9160938907
 20
5.3299225688
 11
7.0053672762
 21
5.6251198968
  0
LINE
  5
23D
100
AcDbEntity
  8
LAYER_FEATURE
100
AcDbLine
 62
7
  6
CONTINUOUS
 10
7.0053672762
 20
5.6251198968
 11
7.0053672762
 21
5.6751198968
  0
LINE
  5
23E
100
AcDbEntity
  8
LAYER_FEATURE
100
AcDbLine
 62
7
  6
CONTINUOUS
 10
7.1303672762
 20
5.6751198968
 11
7.1303672762
 21
5.6251198968
  0
LINE
  5
23F
100
AcDbEntity
  8
LAYER_FEATURE
100
AcDbLine
 62
7
  6
CONTINUOUS
 10
7.1303672762
 20
5.6251198968
 11
7.2196406616
 21
5.3299225688
  0
LINE
  5
240
100
AcDbEntity
  8
0
100
AcDbLine
 62
7
  6
CONTINUOUS
 10
7.6303672762
 20
5.6251198968
 11
7.6303672762
 21
5.7101198968
  0
LINE
  5
241
100
AcDbEntity
  8
LAYER_FEATURE
100
AcDbLine
 62
7
  6
CONTINUOUS
 10
7.5410938907
 20
5.3299225688
 11
7.6303672762
 21
5.6251198968
  0
LINE
  5
242
100
AcDbEntity
  8
0
100
AcDbLine
 62
7
  6
CONTINUOUS
 10
7.5708720839
 20
10.6000477814
 11
4.5708720839
 21
10.6000477814
  0
LINE
  5
243
100
AcDbEntity
  8
0
100
AcDbLine
 62
7
  6
CONTINUOUS
 10
4.5708720839
 20
14.6000477814
 11
4.5708720839
 21
10.6000477814
  0
LINE
  5
244
100
AcDbEntity
  8
0
100
AcDbLine
 62
7
  6
CONTINUOUS
 10
7.5708720839
 20
10.6000477814
 11
7.5708720839
 21
14.6000477814
  0
LINE
  5
245
100
AcDbEntity
  8
0
100
AcDbLine
 62
7
  6
CONTINUOUS
 10
4.5708720839
 20
14.6000477814
 11
7.5708720839
 21
14.6000477814
  0
LINE
  5
246
100
AcDbEntity
  8
LAYER_FEATURE
100
AcDbLine
 62
7
  6
CONTINUOUS
 10
13.5603552569
 20
5.2556247044
 11
13.5603552569
 21
5.5656247044
  0
LINE
  5
247
100
AcDbEntity
  8
0
100
AcDbLine
 62
7
  6
CONTINUOUS
 10
13.5603552569
 20
5.5656247044
 11
13.5603552569
 21
5.6656247044
  0
LINE
  5
248
100
AcDbEntity
  8
LAYER_FEATURE
100
AcDbLine
 62
7
  6
CONTINUOUS
 10
13.5603552569
 20
5.2556247044
 11
17.5603552569
 21
5.2556247044
  0
LINE
  5
249
100
AcDbEntity
  8
LAYER_FEATURE
100
AcDbLine
 62
7
  6
CONTINUOUS
 10
17.5603552569
 20
5.5656247044
 11
13.5603552569
 21
5.5656247044
  0
LINE
  5
24A
100
AcDbEntity
  8
0
100
AcDbLine
 62
7
  6
CONTINUOUS
 10
13.5603552569
 20
5.6656247044
 11
17.5603552569
 21
5.6656247044
  0
LINE
  5
24B
100
AcDbEntity
  8
0
100
AcDbLine
 62
7
  6
CONTINUOUS
 10
17.5603552569
 20
5.6656247044
 11
17.5603552569
 21
5.5656247044
  0
LINE
  5
24C
100
AcDbEntity
  8
LAYER_FEATURE
100
AcDbLine
 62
7
  6
CONTINUOUS
 10
17.5603552569
 20
5.2556247044
 11
17.5603552569
 21
5.5656247044
  0
LINE
  5
24D
100
AcDbEntity
  8
0
100
AcDbLine
 62
7
  6
CONTINUOUS
 10
13.6147918722
 20
11.0094202203
 11
13.7870656493
 21
10.8259226187
  0
LINE
  5
24E
100
AcDbEntity
  8
0
100
AcDbLine
 62
7
  6
CONTINUOUS
 10
13.5888633135
 20
11.0622570676
 11
13.6147918722
 21
11.0094202203
  0
LINE
  5
24F
100
AcDbEntity
  8
LAYER_FEATURE
100
AcDbLine
 62
7
  6
CONTINUOUS
 10
14.1904549934
 20
11.0094202203
 11
14.3627287705
 21
10.8259226187
  0
LINE
  5
250
100
AcDbEntity
  8
0
100
AcDbLine
 62
7
  6
CONTINUOUS
 10
14.0753223692
 20
11.0094202203
 11
14.0600702759
 21
11.0405007187
  0
LINE
  5
251
100
AcDbEntity
  8
0
100
AcDbLine
 62
7
  6
CONTINUOUS
 10
13.8099483174
 20
10.8167211302
 11
14.0692918813
 21
10.8167211302
  0
LINE
  5
252
100
AcDbEntity
  8
LAYER_FEATURE
100
AcDbLine
 62
7
  6
CONTINUOUS
 10
14.3856114387
 20
10.8167211302
 11
14.6449550025
 21
10.8167211302
  0
LINE
  5
253
100
AcDbEntity
  8
LAYER_FEATURE
100
AcDbLine
 62
7
  6
CONTINUOUS
 10
14.9612745599
 20
10.8167211302
 11
15.2206181238
 21
10.8167211302
  0
LINE
  5
254
100
AcDbEntity
  8
LAYER_FEATURE
100
AcDbLine
 62
7
  6
CONTINUOUS
 10
15.5369376812
 20
10.8167211302
 11
15.796281245
 21
10.8167211302
  0
LINE
  5
255
100
AcDbEntity
  8
LAYER_FEATURE
100
AcDbLine
 62
7
  6
CONTINUOUS
 10
16.1126008024
 20
10.8167211302
 11
16.3719443663
 21
10.8167211302
  0
LINE
  5
256
100
AcDbEntity
  8
LAYER_FEATURE
100
AcDbLine
 62
7
  6
CONTINUOUS
 10
14.1752029001
 20
11.0405007187
 11
14.1904549934
 21
11.0094202203
  0
LINE
  5
257
100
AcDbEntity
  8
LAYER_FEATURE
100
AcDbLine
 62
7
  6
CONTINUOUS
 10
14.7661181147
 20
11.0094202203
 11
14.9383918918
 21
10.8259226187
  0
LINE
  5
258
100
AcDbEntity
  8
0
100
AcDbLine
 62
7
  6
CONTINUOUS
 10
14.08314368
 20
10.8259226187
 11
14.0753223692
 21
11.0094202203
  0
LINE
  5
259
100
AcDbEntity
  8
0
100
AcDbLine
 62
7
  6
CONTINUOUS
 10
14.5566132094
 20
14.1999934167
 11
13.5883479158
 21
11.0666857782
  0
LINE
  5
25A
100
AcDbEntity
  8
LAYER_FEATURE
100
AcDbLine
 62
7
  6
CONTINUOUS
 10
14.0600702759
 20
11.0405007187
 11
14.1752029001
 21
11.0405007187
  0
LINE
  5
25B
100
AcDbEntity
  8
LAYER_FEATURE
100
AcDbLine
 62
7
  6
CONTINUOUS
 10
14.6357333971
 20
11.0405007187
 11
14.7508660214
 21
11.0405007187
  0
LINE
  5
25C
100
AcDbEntity
  8
LAYER_FEATURE
100
AcDbLine
 62
7
  6
CONTINUOUS
 10
15.2113965184
 20
11.0405007187
 11
15.3265291426
 21
11.0405007187
  0
LINE
  5
25D
100
AcDbEntity
  8
LAYER_FEATURE
100
AcDbLine
 62
7
  6
CONTINUOUS
 10
15.7870596396
 20
11.0405007187
 11
15.9021922639
 21
11.0405007187
  0
LINE
  5
25E
100
AcDbEntity
  8
0
100
AcDbLine
 62
7
  6
CONTINUOUS
 10
16.3336547526
 20
11.0715812171
 11
13.5981036004
 21
11.0715812171
  0
LINE
  5
25F
100
AcDbEntity
  8
LAYER_FEATURE
100
AcDbLine
 62
7
  6
CONTINUOUS
 10
14.6509854904
 20
11.0094202203
 11
14.6357333971
 21
11.0405007187
  0
LINE
  5
260
100
AcDbEntity
  8
0
100
AcDbLine
 62
7
  6
CONTINUOUS
 10
14.0828351722
 20
10.8235222769
 11
14.08314368
 21
10.8259226187
  0
LINE
  5
261
100
AcDbEntity
  8
LAYER_FEATURE
100
AcDbLine
 62
7
  6
CONTINUOUS
 10
14.7508660214
 20
11.0405007187
 11
14.7661181147
 21
11.0094202203
  0
LINE
  5
262
100
AcDbEntity
  8
LAYER_FEATURE
100
AcDbLine
 62
7
  6
CONTINUOUS
 10
15.3417812359
 20
11.0094202203
 11
15.514055013
 21
10.8259226187
  0
LINE
  5
263
100
AcDbEntity
  8
LAYER_FEATURE
100
AcDbLine
 62
7
  6
CONTINUOUS
 10
14.6588068012
 20
10.8259226187
 11
14.6509854904
 21
11.0094202203
  0
LINE
  5
264
100
AcDbEntity
  8
0
100
AcDbLine
 62
7
  6
CONTINUOUS
 10
14.0849269696
 20
11.0405007187
 11
14.0753223692
 21
11.0094202203
  0
LINE
  5
265
100
AcDbEntity
  8
0
100
AcDbLine
 62
7
  6
CONTINUOUS
 10
14.0835454344
 20
10.8257984671
 11
14.1498934483
 21
11.0405007187
  0
LINE
  5
266
100
AcDbEntity
  8
LAYER_FEATURE
100
AcDbLine
 62
7
  6
CONTINUOUS
 10
15.2266486117
 20
11.0094202203
 11
15.2113965184
 21
11.0405007187
  0
LINE
  5
267
100
AcDbEntity
  8
LAYER_FEATURE
100
AcDbLine
 62
7
  6
CONTINUOUS
 10
15.9174443572
 20
11.0094202203
 11
16.0897181343
 21
10.8259226187
  0
LINE
  5
268
100
AcDbEntity
  8
LAYER_FEATURE
100
AcDbLine
 62
7
  6
CONTINUOUS
 10
15.3265291426
 20
11.0405007187
 11
15.3417812359
 21
11.0094202203
  0
LINE
  5
269
100
AcDbEntity
  8
LAYER_FEATURE
100
AcDbLine
 62
7
  6
CONTINUOUS
 10
14.6584982935
 20
10.8235222769
 11
14.6588068012
 21
10.8259226187
  0
LINE
  5
26A
100
AcDbEntity
  8
LAYER_FEATURE
100
AcDbLine
 62
7
  6
CONTINUOUS
 10
14.6605900909
 20
11.0405007187
 11
14.6509854904
 21
11.0094202203
  0
LINE
  5
26B
100
AcDbEntity
  8
LAYER_FEATURE
100
AcDbLine
 62
7
  6
CONTINUOUS
 10
15.8023117329
 20
11.0094202203
 11
15.7870596396
 21
11.0405007187
  0
LINE
  5
26C
100
AcDbEntity
  8
LAYER_FEATURE
100
AcDbLine
 62
7
  6
CONTINUOUS
 10
15.2344699225
 20
10.8259226187
 11
15.2266486117
 21
11.0094202203
  0
LINE
  5
26D
100
AcDbEntity
  8
LAYER_FEATURE
100
AcDbLine
 62
7
  6
CONTINUOUS
 10
14.6592085557
 20
10.8257984671
 11
14.7255565696
 21
11.0405007187
  0
LINE
  5
26E
100
AcDbEntity
  8
LAYER_FEATURE
100
AcDbLine
 62
7
  6
CONTINUOUS
 10
15.9021922639
 20
11.0405007187
 11
15.9174443572
 21
11.0094202203
  0
LINE
  5
26F
100
AcDbEntity
  8
LAYER_FEATURE
100
AcDbLine
 62
7
  6
CONTINUOUS
 10
15.2341614147
 20
10.8235222769
 11
15.2344699225
 21
10.8259226187
  0
LINE
  5
270
100
AcDbEntity
  8
0
100
AcDbLine
 62
7
  6
CONTINUOUS
 10
16.3779748542
 20
11.0094202203
 11
16.3520462955
 21
11.0622570676
  0
LINE
  5
271
100
AcDbEntity
  8
LAYER_FEATURE
100
AcDbLine
 62
7
  6
CONTINUOUS
 10
15.8101330437
 20
10.8259226187
 11
15.8023117329
 21
11.0094202203
  0
LINE
  5
272
100
AcDbEntity
  8
LAYER_FEATURE
100
AcDbLine
 62
7
  6
CONTINUOUS
 10
15.2362532121
 20
11.0405007187
 11
15.2266486117
 21
11.0094202203
  0
LINE
  5
273
100
AcDbEntity
  8
LAYER_FEATURE
100
AcDbLine
 62
7
  6
CONTINUOUS
 10
15.2348716769
 20
10.8257984671
 11
15.3012196908
 21
11.0405007187
  0
LINE
  5
274
100
AcDbEntity
  8
LAYER_FEATURE
100
AcDbLine
 62
7
  6
CONTINUOUS
 10
15.809824536
 20
10.8235222769
 11
15.8101330437
 21
10.8259226187
  0
LINE
  5
275
100
AcDbEntity
  8
LAYER_FEATURE
100
AcDbLine
 62
7
  6
CONTINUOUS
 10
16.385796165
 20
10.8259226187
 11
16.3779748542
 21
11.0094202203
  0
LINE
  5
276
100
AcDbEntity
  8
LAYER_FEATURE
100
AcDbLine
 62
7
  6
CONTINUOUS
 10
15.8119163334
 20
11.0405007187
 11
15.8023117329
 21
11.0094202203
  0
LINE
  5
277
100
AcDbEntity
  8
LAYER_FEATURE
100
AcDbLine
 62
7
  6
CONTINUOUS
 10
15.8105347982
 20
10.8257984671
 11
15.8768828121
 21
11.0405007187
  0
LINE
  5
278
100
AcDbEntity
  8
LAYER_FEATURE
100
AcDbLine
 62
7
  6
CONTINUOUS
 10
16.3854876573
 20
10.8235222769
 11
16.385796165
 21
10.8259226187
  0
LINE
  5
279
100
AcDbEntity
  8
LAYER_FEATURE
100
AcDbLine
 62
7
  6
CONTINUOUS
 10
17.3462401478
 20
14.1427278588
 11
16.3779748542
 21
11.0094202203
  0
LINE
  5
27A
100
AcDbEntity
  8
LAYER_FEATURE
100
AcDbLine
 62
7
  6
CONTINUOUS
 10
16.3861979195
 20
10.8257984671
 11
17.3537592219
 21
13.9568279894
  0
LINE
  5
27B
100
AcDbEntity
  8
LAYER_FEATURE
100
AcDbLine
 62
7
  6
CONTINUOUS
 10
17.3540614586
 20
13.9592302572
 11
17.3537529509
 21
13.9568299154
  0
LINE
  5
27C
100
AcDbEntity
  8
0
100
AcDbLine
 62
7
  6
CONTINUOUS
 10
14.5663688941
 20
14.2048888557
 11
17.3019200462
 21
14.2048888557
  0
LINE
  5
27D
100
AcDbEntity
  8
LAYER_FEATURE
100
AcDbLine
 62
7
  6
CONTINUOUS
 10
17.3540614586
 20
13.9592302572
 11
17.3462401478
 21
14.1427278588
  0
LINE
  5
27E
100
AcDbEntity
  8
0
100
AcDbLine
 62
7
  6
CONTINUOUS
 10
17.3203115892
 20
14.1955647061
 11
17.3462401478
 21
14.1427278588
  0
ARC
  5
27F
100
AcDbEntity
  8
0
100
AcDbCircle
 62
7
  6
CONTINUOUS
 10
4.7395820483
 20
5.3359532301
 40
0.0208333333
100
AcDbArc
 50
196.8263326308
 51
270.0
  0
ARC
  5
280
100
AcDbEntity
  8
0
100
AcDbCircle
 62
7
  6
CONTINUOUS
 10
5.021152504
 20
5.3359532301
 40
0.0208333333
100
AcDbArc
 50
270.0
 51
343.1736673692
  0
ARC
  5
281
100
AcDbEntity
  8
LAYER_FEATURE
100
AcDbCircle
 62
7
  6
CONTINUOUS
 10
5.3645820483
 20
5.3359532301
 40
0.0208333333
100
AcDbArc
 50
196.8263326308
 51
270.0
  0
ARC
  5
282
100
AcDbEntity
  8
LAYER_FEATURE
100
AcDbCircle
 62
7
  6
CONTINUOUS
 10
5.646152504
 20
5.3359532301
 40
0.0208333333
100
AcDbArc
 50
270.0
 51
343.1736673692
  0
ARC
  5
283
100
AcDbEntity
  8
LAYER_FEATURE
100
AcDbCircle
 62
7
  6
CONTINUOUS
 10
5.9895820483
 20
5.3359532301
 40
0.0208333333
100
AcDbArc
 50
196.8263326308
 51
270.0
  0
ARC
  5
284
100
AcDbEntity
  8
LAYER_FEATURE
100
AcDbCircle
 62
7
  6
CONTINUOUS
 10
6.271152504
 20
5.3359532301
 40
0.0208333333
100
AcDbArc
 50
270.0
 51
343.1736673692
  0
ARC
  5
285
100
AcDbEntity
  8
LAYER_FEATURE
100
AcDbCircle
 62
7
  6
CONTINUOUS
 10
6.6145820483
 20
5.3359532301
 40
0.0208333333
100
AcDbArc
 50
196.8263326308
 51
270.0
  0
ARC
  5
286
100
AcDbEntity
  8
LAYER_FEATURE
100
AcDbCircle
 62
7
  6
CONTINUOUS
 10
6.896152504
 20
5.3359532301
 40
0.0208333333
100
AcDbArc
 50
270.0
 51
343.1736673692
  0
ARC
  5
287
100
AcDbEntity
  8
LAYER_FEATURE
100
AcDbCircle
 62
7
  6
CONTINUOUS
 10
7.521152504
 20
5.3359532301
 40
0.0208333333
100
AcDbArc
 50
270.0
 51
343.1736673692
  0
ARC
  5
288
100
AcDbEntity
  8
LAYER_FEATURE
100
AcDbCircle
 62
7
  6
CONTINUOUS
 10
7.2395820483
 20
5.3359532301
 40
0.0208333333
100
AcDbArc
 50
196.8263326308
 51
270.0
  0
ARC
  5
289
100
AcDbEntity
  8
0
100
AcDbCircle
 62
7
  6
CONTINUOUS
 10
4.6453672762
 20
5.7101198968
 40
0.015
100
AcDbArc
 50
90.0
 51
180.0
  0
ARC
  5
28A
100
AcDbEntity
  8
0
100
AcDbCircle
 62
7
  6
CONTINUOUS
 10
7.6153672762
 20
5.7101198968
 40
0.015
100
AcDbArc
 50
0.0
 51
90.0
  0
SPLINE
  5
28B
100
AcDbEntity
  8
0
100
AcDbSpline
 62
7
  6
CONTINUOUS
 70
0
 71
3
 72
15
 73
11
 74
0
 42
0.0000001
 43
0.0000001
 44
0.0000000001
 40
0.0
 40
0.0
 40
0.0
 40
0.0
 40
0.1294188691
 40
0.2645243566
 40
0.4013037879
 40
0.5362659887
 40
0.666153283
 40
0.7881331421
 40
0.8999164885
 40
1.0
 40
1.0
 40
1.0
 40
1.0
 10
17.3019200462
 20
14.2048888557
 30
0.0
 10
17.3028479161
 20
14.2048888557
 30
0.0
 10
17.3047457637
 20
14.2047586227
 30
0.0
 10
17.307579874
 20
14.2042301888
 30
0.0
 10
17.3103742304
 20
14.2033722002
 30
0.0
 10
17.3130220002
 20
14.2022247211
 30
0.0
 10
17.3154246909
 20
14.2008259878
 30
0.0
 10
17.317497532
 20
14.1992299056
 30
0.0
 10
17.3191555452
 20
14.1974903453
 30
0.0
 10
17.3199954779
 20
14.1962088732
 30
0.0
 10
17.3203115892
 20
14.1955647061
 30
0.0
  0
SPLINE
  5
28C
100
AcDbEntity
  8
0
100
AcDbSpline
 62
7
  6
CONTINUOUS
 70
0
 71
3
 72
10
 73
6
 74
0
 42
0.0000001
 43
0.0000001
 44
0.0000000001
 40
0.0
 40
0.0
 40
0.0
 40
0.0
 40
0.2343709392
 40
0.4761719437
 40
1.0
 40
1.0
 40
1.0
 40
1.0
 10
13.5883479741
 20
11.0666857415
 30
0.0
 10
13.5882427563
 20
11.0663459813
 30
0.0
 10
13.5881048502
 20
11.0656294951
 30
0.0
 10
13.588141747
 20
11.0641038025
 30
0.0
 10
13.588513101
 20
11.0629707257
 30
0.0
 10
13.5888633135
 20
11.0622570676
 30
0.0
  0
SPLINE
  5
28D
100
AcDbEntity
  8
0
100
AcDbSpline
 62
7
  6
CONTINUOUS
 70
0
 71
3
 72
13
 73
9
 74
0
 42
0.0000001
 43
0.0000001
 44
0.0000000001
 40
0.0
 40
0.0
 40
0.0
 40
0.0
 40
0.099790583
 40
0.203057025
 40
0.3128390415
 40
0.4312321768
 40
0.6971765462
 40
1.0
 40
1.0
 40
1.0
 40
1.0
 10
14.5566132677
 20
14.19999338
 30
0.0
 10
14.5567276179
 20
14.2003626298
 30
0.0
 10
14.5570514095
 20
14.2010887144
 30
0.0
 10
14.5577880968
 20
14.2020624468
 30
0.0
 10
14.5587630513
 20
14.2029101966
 30
0.0
 10
14.560413712
 20
14.203895482
 30
0.0
 10
14.5629864707
 20
14.2047013563
 30
0.0
 10
14.5651958717
 20
14.2048888557
 30
0.0
 10
14.5663688941
 20
14.2048888557
 30
0.0
  0
SPLINE
  5
28E
100
AcDbEntity
  8
LAYER_FEATURE
100
AcDbSpline
 62
7
  6
CONTINUOUS
 70
0
 71
3
 72
14
 73
10
 74
0
 42
0.0000001
 43
0.0000001
 44
0.0000000001
 40
0.0
 40
0.0
 40
0.0
 40
0.0
 40
0.1556519212
 40
0.3032876397
 40
0.5688146149
 40
0.6871114186
 40
0.7968508048
 40
0.9001553733
 40
1.0
 40
1.0
 40
1.0
 40
1.0
 10
16.3719443663
 20
10.8167211302
 30
0.0
 10
16.372782114
 20
10.8167211302
 30
0.0
 10
16.3744163983
 20
10.8167942708
 30
0.0
 10
16.3774478837
 20
10.8172315422
 30
0.0
 10
16.380214869
 20
10.8181014922
 30
0.0
 10
16.3825064427
 20
10.8194670681
 30
0.0
 10
16.383859819
 20
10.8206454831
 30
0.0
 10
16.3848861137
 20
10.8219968151
 30
0.0
 10
16.3853343765
 20
10.8230071888
 30
0.0
 10
16.3854927993
 20
10.8235206887
 30
0.0
  0
SPLINE
  5
28F
100
AcDbEntity
  8
LAYER_FEATURE
100
AcDbSpline
 62
7
  6
CONTINUOUS
 70
0
 71
3
 72
15
 73
11
 74
0
 42
0.0000001
 43
0.0000001
 44
0.0000000001
 40
0.0
 40
0.0
 40
0.0
 40
0.0
 40
0.1113710339
 40
0.2305994659
 40
0.3557829805
 40
0.4849985533
 40
0.6162204169
 40
0.7473217971
 40
0.8760887741
 40
1.0
 40
1.0
 40
1.0
 40
1.0
 10
16.0897181343
 20
10.8259226187
 30
0.0
 10
16.0903602993
 20
10.8252386159
 30
0.0
 10
16.0917920293
 20
10.823916467
 30
0.0
 10
16.094218806
 20
10.8221481122
 30
0.0
 10
16.0969485112
 20
10.8205701863
 30
0.0
 10
16.0999081435
 20
10.819219561
 30
0.0
 10
16.1030265575
 20
10.8181310693
 30
0.0
 10
16.1062269915
 20
10.8173293282
 30
0.0
 10
16.1094272088
 20
10.8168392128
 30
0.0
 10
16.111556953
 20
10.8167211302
 30
0.0
 10
16.1126008024
 20
10.8167211302
 30
0.0
  0
SPLINE
  5
290
100
AcDbEntity
  8
LAYER_FEATURE
100
AcDbSpline
 62
7
  6
CONTINUOUS
 70
0
 71
3
 72
14
 73
10
 74
0
 42
0.0000001
 43
0.0000001
 44
0.0000000001
 40
0.0
 40
0.0
 40
0.0
 40
0.0
 40
0.1556519212
 40
0.3032876397
 40
0.5688146149
 40
0.6871114186
 40
0.7968508048
 40
0.9001553733
 40
1.0
 40
1.0
 40
1.0
 40
1.0
 10
15.796281245
 20
10.8167211302
 30
0.0
 10
15.7971189927
 20
10.8167211302
 30
0.0
 10
15.798753277
 20
10.8167942708
 30
0.0
 10
15.8017847624
 20
10.8172315422
 30
0.0
 10
15.8045517477
 20
10.8181014922
 30
0.0
 10
15.8068433214
 20
10.8194670681
 30
0.0
 10
15.8081966977
 20
10.8206454831
 30
0.0
 10
15.8092229925
 20
10.8219968151
 30
0.0
 10
15.8096712553
 20
10.8230071888
 30
0.0
 10
15.809829678
 20
10.8235206887
 30
0.0
  0
SPLINE
  5
291
100
AcDbEntity
  8
LAYER_FEATURE
100
AcDbSpline
 62
7
  6
CONTINUOUS
 70
0
 71
3
 72
15
 73
11
 74
0
 42
0.0000001
 43
0.0000001
 44
0.0000000001
 40
0.0
 40
0.0
 40
0.0
 40
0.0
 40
0.1113710339
 40
0.2305994659
 40
0.3557829805
 40
0.4849985533
 40
0.6162204169
 40
0.7473217971
 40
0.8760887741
 40
1.0
 40
1.0
 40
1.0
 40
1.0
 10
15.514055013
 20
10.8259226187
 30
0.0
 10
15.514697178
 20
10.8252386159
 30
0.0
 10
15.5161289081
 20
10.823916467
 30
0.0
 10
15.5185556847
 20
10.8221481122
 30
0.0
 10
15.52128539
 20
10.8205701863
 30
0.0
 10
15.5242450222
 20
10.819219561
 30
0.0
 10
15.5273634362
 20
10.8181310693
 30
0.0
 10
15.5305638703
 20
10.8173293282
 30
0.0
 10
15.5337640876
 20
10.8168392128
 30
0.0
 10
15.5358938318
 20
10.8167211302
 30
0.0
 10
15.5369376812
 20
10.8167211302
 30
0.0
  0
SPLINE
  5
292
100
AcDbEntity
  8
LAYER_FEATURE
100
AcDbSpline
 62
7
  6
CONTINUOUS
 70
0
 71
3
 72
14
 73
10
 74
0
 42
0.0000001
 43
0.0000001
 44
0.0000000001
 40
0.0
 40
0.0
 40
0.0
 40
0.0
 40
0.1556519212
 40
0.3032876397
 40
0.5688146149
 40
0.6871114186
 40
0.7968508048
 40
0.9001553733
 40
1.0
 40
1.0
 40
1.0
 40
1.0
 10
15.2206181238
 20
10.8167211302
 30
0.0
 10
15.2214558715
 20
10.8167211302
 30
0.0
 10
15.2230901557
 20
10.8167942708
 30
0.0
 10
15.2261216412
 20
10.8172315422
 30
0.0
 10
15.2288886265
 20
10.8181014922
 30
0.0
 10
15.2311802002
 20
10.8194670681
 30
0.0
 10
15.2325335765
 20
10.8206454831
 30
0.0
 10
15.2335598712
 20
10.8219968151
 30
0.0
 10
15.234008134
 20
10.8230071888
 30
0.0
 10
15.2341665568
 20
10.8235206887
 30
0.0
  0
SPLINE
  5
293
100
AcDbEntity
  8
LAYER_FEATURE
100
AcDbSpline
 62
7
  6
CONTINUOUS
 70
0
 71
3
 72
15
 73
11
 74
0
 42
0.0000001
 43
0.0000001
 44
0.0000000001
 40
0.0
 40
0.0
 40
0.0
 40
0.0
 40
0.1113710339
 40
0.2305994659
 40
0.3557829805
 40
0.4849985533
 40
0.6162204169
 40
0.7473217971
 40
0.8760887741
 40
1.0
 40
1.0
 40
1.0
 40
1.0
 10
14.9383918918
 20
10.8259226187
 30
0.0
 10
14.9390340568
 20
10.8252386159
 30
0.0
 10
14.9404657868
 20
10.823916467
 30
0.0
 10
14.9428925635
 20
10.8221481122
 30
0.0
 10
14.9456222687
 20
10.8205701863
 30
0.0
 10
14.948581901
 20
10.819219561
 30
0.0
 10
14.951700315
 20
10.8181310693
 30
0.0
 10
14.954900749
 20
10.8173293282
 30
0.0
 10
14.9581009663
 20
10.8168392128
 30
0.0
 10
14.9602307105
 20
10.8167211302
 30
0.0
 10
14.9612745599
 20
10.8167211302
 30
0.0
  0
SPLINE
  5
294
100
AcDbEntity
  8
LAYER_FEATURE
100
AcDbSpline
 62
7
  6
CONTINUOUS
 70
0
 71
3
 72
14
 73
10
 74
0
 42
0.0000001
 43
0.0000001
 44
0.0000000001
 40
0.0
 40
0.0
 40
0.0
 40
0.0
 40
0.1556519212
 40
0.3032876397
 40
0.5688146149
 40
0.6871114186
 40
0.7968508048
 40
0.9001553733
 40
1.0
 40
1.0
 40
1.0
 40
1.0
 10
14.6449550025
 20
10.8167211302
 30
0.0
 10
14.6457927502
 20
10.8167211302
 30
0.0
 10
14.6474270345
 20
10.8167942708
 30
0.0
 10
14.6504585199
 20
10.8172315422
 30
0.0
 10
14.6532255052
 20
10.8181014922
 30
0.0
 10
14.6555170789
 20
10.8194670681
 30
0.0
 10
14.6568704552
 20
10.8206454831
 30
0.0
 10
14.65789675
 20
10.8219968151
 30
0.0
 10
14.6583450128
 20
10.8230071888
 30
0.0
 10
14.6585034355
 20
10.8235206887
 30
0.0
  0
SPLINE
  5
295
100
AcDbEntity
  8
LAYER_FEATURE
100
AcDbSpline
 62
7
  6
CONTINUOUS
 70
0
 71
3
 72
15
 73
11
 74
0
 42
0.0000001
 43
0.0000001
 44
0.0000000001
 40
0.0
 40
0.0
 40
0.0
 40
0.0
 40
0.1113710339
 40
0.2305994659
 40
0.3557829805
 40
0.4849985533
 40
0.6162204169
 40
0.7473217971
 40
0.8760887741
 40
1.0
 40
1.0
 40
1.0
 40
1.0
 10
14.3627287705
 20
10.8259226187
 30
0.0
 10
14.3633709355
 20
10.8252386159
 30
0.0
 10
14.3648026656
 20
10.823916467
 30
0.0
 10
14.3672294422
 20
10.8221481122
 30
0.0
 10
14.3699591475
 20
10.8205701863
 30
0.0
 10
14.3729187797
 20
10.819219561
 30
0.0
 10
14.3760371937
 20
10.8181310693
 30
0.0
 10
14.3792376278
 20
10.8173293282
 30
0.0
 10
14.382437845
 20
10.8168392128
 30
0.0
 10
14.3845675892
 20
10.8167211302
 30
0.0
 10
14.3856114387
 20
10.8167211302
 30
0.0
  0
SPLINE
  5
296
100
AcDbEntity
  8
0
100
AcDbSpline
 62
7
  6
CONTINUOUS
 70
0
 71
3
 72
14
 73
10
 74
0
 42
0.0000001
 43
0.0000001
 44
0.0000000001
 40
0.0
 40
0.0
 40
0.0
 40
0.0
 40
0.1556519212
 40
0.3032876397
 40
0.5688146149
 40
0.6871114186
 40
0.7968508048
 40
0.9001553733
 40
1.0
 40
1.0
 40
1.0
 40
1.0
 10
14.0692918813
 20
10.8167211302
 30
0.0
 10
14.070129629
 20
10.8167211302
 30
0.0
 10
14.0717639132
 20
10.8167942708
 30
0.0
 10
14.0747953987
 20
10.8172315422
 30
0.0
 10
14.077562384
 20
10.8181014922
 30
0.0
 10
14.0798539577
 20
10.8194670681
 30
0.0
 10
14.081207334
 20
10.8206454831
 30
0.0
 10
14.0822336287
 20
10.8219968151
 30
0.0
 10
14.0826818915
 20
10.8230071888
 30
0.0
 10
14.0828403143
 20
10.8235206887
 30
0.0
  0
SPLINE
  5
297
100
AcDbEntity
  8
0
100
AcDbSpline
 62
7
  6
CONTINUOUS
 70
0
 71
3
 72
15
 73
11
 74
0
 42
0.0000001
 43
0.0000001
 44
0.0000000001
 40
0.0
 40
0.0
 40
0.0
 40
0.0
 40
0.1113710339
 40
0.2305994659
 40
0.3557829805
 40
0.4849985533
 40
0.6162204169
 40
0.7473217971
 40
0.8760887741
 40
1.0
 40
1.0
 40
1.0
 40
1.0
 10
13.7870656493
 20
10.8259226187
 30
0.0
 10
13.7877078143
 20
10.8252386159
 30
0.0
 10
13.7891395443
 20
10.823916467
 30
0.0
 10
13.791566321
 20
10.8221481122
 30
0.0
 10
13.7942960262
 20
10.8205701863
 30
0.0
 10
13.7972556585
 20
10.819219561
 30
0.0
 10
13.8003740725
 20
10.8181310693
 30
0.0
 10
13.8035745065
 20
10.8173293282
 30
0.0
 10
13.8067747238
 20
10.8168392128
 30
0.0
 10
13.808904468
 20
10.8167211302
 30
0.0
 10
13.8099483174
 20
10.8167211302
 30
0.0
  0
SPLINE
  5
298
100
AcDbEntity
  8
0
100
AcDbSpline
 62
7
  6
CONTINUOUS
 70
0
 71
3
 72
13
 73
9
 74
0
 42
0.0000001
 43
0.0000001
 44
0.0000000001
 40
0.0
 40
0.0
 40
0.0
 40
0.0
 40
0.3028234538
 40
0.5687678232
 40
0.6871609585
 40
0.796942975
 40
0.900209417
 40
1.0
 40
1.0
 40
1.0
 40
1.0
 10
13.5981036004
 20
11.0715812171
 30
0.0
 10
13.5969305781
 20
11.0715812171
 30
0.0
 10
13.594721177
 20
11.0713937178
 30
0.0
 10
13.5921484184
 20
11.0705878435
 30
0.0
 10
13.5904977576
 20
11.0696025581
 30
0.0
 10
13.5895228032
 20
11.0687548083
 30
0.0
 10
13.5887861159
 20
11.0677810759
 30
0.0
 10
13.5884623243
 20
11.0670549913
 30
0.0
 10
13.5883479741
 20
11.0666857415
 30
0.0
  0
SPLINE
  5
299
100
AcDbEntity
  8
0
100
AcDbSpline
 62
7
  6
CONTINUOUS
 70
0
 71
3
 72
15
 73
11
 74
0
 42
0.0000001
 43
0.0000001
 44
0.0000000001
 40
0.0
 40
0.0
 40
0.0
 40
0.0
 40
0.1000835115
 40
0.2118668579
 40
0.333846717
 40
0.4637340113
 40
0.5986962121
 40
0.7354756434
 40
0.8705811309
 40
1.0
 40
1.0
 40
1.0
 40
1.0
 10
16.3520462955
 20
11.0622570676
 30
0.0
 10
16.3517301842
 20
11.0629012347
 30
0.0
 10
16.3508902516
 20
11.0641827068
 30
0.0
 10
16.3492322384
 20
11.065922267
 30
0.0
 10
16.3471593973
 20
11.0675183493
 30
0.0
 10
16.3447567065
 20
11.0689170826
 30
0.0
 10
16.3421089368
 20
11.0700645617
 30
0.0
 10
16.3393145803
 20
11.0709225503
 30
0.0
 10
16.33648047
 20
11.0714509842
 30
0.0
 10
16.3345826225
 20
11.0715812171
 30
0.0
 10
16.3336547526
 20
11.0715812171
 30
0.0
  0
ENDSEC
  0
SECTION
  2
OBJECTS
  0
DICTIONARY
  5
C
100
AcDbDictionary
280
0
281
1
  3
ACAD_GROUP
350
D
  3
ACAD_MLINESTYLE
350
17
  3
ACAD_LAYOUT
350
1A
  3
ACAD_PLOTSETTINGS
350
19
  3
ACAD_PLOTSTYLENAME
350
E
  0
DICTIONARY
  5
D
102
{ACAD_REACTORS
330
C
102
}
100
AcDbDictionary
280
0
281
1
  0
ACDBDICTIONARYWDFLT
  5
E
102
{ACAD_REACTORS
330
C
102
}
100
AcDbDictionary
281
1
  3
Normal
350
F
100
AcDbDictionaryWithDefault
340
F
  0
DICTIONARY
  5
17
102
{ACAD_REACTORS
330
C
102
}
100
AcDbDictionary
280
0
281
1
  3
Standard
350
18
  0
DICTIONARY
  5
19
102
{ACAD_REACTORS
330
C
102
}
100
AcDbDictionary
281
1
  0
DICTIONARY
  5
1A
102
{ACAD_REACTORS
330
C
102
}
100
AcDbDictionary
281
1
  3
Model
350
29A
  3
Layout1
350
29B
  0
ACDBPLACEHOLDER
  5
F
102
{ACAD_REACTORS
330
E
102
}
  0
MLINESTYLE
  5
18
102
{ACAD_REACTORS
330
17
102
}
100
AcDbMlineStyle
  2
STANDARD
 70
0
  3

 62
256
 51
90.0
 52
90.0
 71
2
 49
0.5
 62
256
  6
BYLAYER
 49
-0.5
 62
256
  6
BYLAYER
  0
LAYOUT
  5
29A
102
{ACAD_REACTORS
330
1A
102
}
100
AcDbPlotSettings
  1

  2
none_device
  4
ANSI_C_(22.00_x_17.00_Inches)
  6

 40
0.0
 41
0.0
 42
0.0
 43
0.0
 44
558.8
 45
431.8
 46
0.0
 47
0.0
 48
0.0
 49
0.0
140
0.0
141
0.0
142
1.0
143
1.0
 70
1024
 72
0
 73
0
 74
0
  7

 75
0
147
1.0
148
0.0
149
0.0
100
AcDbLayout
  1
Model
 70
0
 71
0
 10
0.0
 20
0.0
 11
22.0
 21
17.0
 12
0.0
 22
0.0
 32
0.0
 14
0.0
 24
0.0
 34
0.0
 15
0.0
 25
0.0
 35
0.0
146
0.0
 13
0.0
 23
0.0
 33
0.0
 16
1.0
 26
0.0
 36
0.0
 17
0.0
 27
1.0
 37
0.0
 76
0
330
21C
345
0
346
0
  0
LAYOUT
  5
29B
102
{ACAD_REACTORS
330
1A
102
}
100
AcDbPlotSettings
  1

  2
none_device
  4
ANSI_C_(22.00_x_17.00_Inches)
  6

 40
0.0
 41
0.0
 42
0.0
 43
0.0
 44
558.8
 45
431.8
 46
0.0
 47
0.0
 48
0.0
 49
0.0
140
0.0
141
0.0
142
1.0
143
1.0
 70
0
 72
0
 73
0
 74
0
  7

 75
0
147
1.0
148
0.0
149
0.0
100
AcDbLayout
  1
Layout1
 70
0
 71
1
 10
0.0
 20
0.0
 11
22.0
 21
17.0
 12
0.0
 22
0.0
 32
0.0
 14
0.0
 24
0.0
 34
0.0
 15
0.0
 25
0.0
 35
0.0
146
0.0
 13
0.0
 23
0.0
 33
0.0
 16
1.0
 26
0.0
 36
0.0
 17
0.0
 27
1.0
 37
0.0
 76
0
330
21D
345
0
346
0
  0
ENDSEC
  0
EOF