999
DXF file: _cgs_temp_output.dxf
999
Pro/ENGINEER 2015110 by Parametric Technology Corporation
  0
SECTION
  2
HEADER
  9
$ACADVER
  1
AC1021
  9
$DWGCODEPAGE
  3
ANSI_1252
  9
$EXTMAX
 10
22.0
 20
17.0
 30
0.0
  9
$EXTMIN
 10
0.0
 20
0.0
 30
0.0
  9
$LIMMIN
 10
0.0
 20
0.0
  9
$LIMMAX
 10
22.0
 20
17.0
  9
$VIEWCTR
 10
11.0
 20
8.5
  9
$VIEWSIZE
 40
17.0
  9
$CLAYER
  8
0
  9
$LTSCALE
 40
1.21
  9
$CELTYPE
  6
BYLAYER
  9
$DIMSCALE
 40
1.0
  9
$DIMASZ
 40
0.1875
  9
$DIMEXO
 40
0.0625
  9
$DIMDLI
 40
0.836
  9
$DIMEXE
 40
0.125
  9
$DIMCEN
 40
0.198
  9
$DIMLFAC
 40
1.0
  9
$DIMBLK
  1
_CLOSED
  9
$DIMALT
 70
0
  9
$DIMALTF
 40
25.4
  9
$DIMTXT
 40
0.15625
  9
$DIMTOL
 70
0
  9
$DIMLIM
 70
0
  9
$DIMTFAC
 40
1.0
  9
$DIMGAP
 40
0.09
  9
$DIMDSEP
 70
46
  9
$AUNITS
 70
0
  9
$PDMODE
 70
3
  9
$PDSIZE
 40
0.3125
  9
$HANDSEED
  5
290
  9
$TILEMODE
 70
1
  9
$MEASUREMENT
 70
0
  9
$INSUNITS
 70
1
  0
ENDSEC
  0
SECTION
  2
CLASSES
  0
CLASS
  1
ACDBDICTIONARYWDFLT
  2
AcDbDictionaryWithDefault
  3
AutoCAD 2000
 90
0
 91
1
280
0
281
0
  0
CLASS
  1
ACDBPLACEHOLDER
  2
AcDbPlaceHolder
  3
AutoCAD 2000
 90
0
 91
1
280
0
281
0
  0
CLASS
  1
LAYOUT
  2
AcDbLayout
  3
AutoCAD 2000
 90
0
 91
0
280
0
281
0
  0
ENDSEC
  0
SECTION
  2
TABLES
  0
TABLE
  2
VPORT
  5
8
100
AcDbSymbolTable
 70
2
  0
VPORT
  5
1F4
100
AcDbSymbolTableRecord
100
AcDbViewportTableRecord
  2
*ACTIVE
 70
0
 10
0.0
 20
0.0
 11
1.0
 21
1.0
 12
11.0
 22
8.5
 13
0.0
 23
0.0
 14
1.0
 24
1.0
 15
0.0
 25
0.0
 16
0.0
 26
0.0
 36
1.0
 17
0.0
 27
0.0
 37
0.0
 40
17.0
 41
1.2941176471
 42
50.0
 43
0.0
 44
0.0
 50
0.0
 51
0.0
 71
0
 72
100
 73
1
 74
1
 75
0
 76
0
 77
0
 78
0
  0
ENDTAB
  0
TABLE
  2
LTYPE
  5
5
100
AcDbSymbolTable
 70
6
  0
LTYPE
  5
14
100
AcDbSymbolTableRecord
100
AcDbLinetypeTableRecord
  2
BYBLOCK
 70
0
  3

 72
65
 73
0
 40
0.0
  0
LTYPE
  5
15
100
AcDbSymbolTableRecord
100
AcDbLinetypeTableRecord
  2
BYLAYER
 70
0
  3

 72
65
 73
0
 40
0.0
  0
LTYPE
  5
16
100
AcDbSymbolTableRecord
100
AcDbLinetypeTableRecord
  2
CONTINUOUS
 70
64
  3
Solid line
 72
65
 73
0
 40
0.0
  0
LTYPE
  5
1F5
100
AcDbSymbolTableRecord
100
AcDbLinetypeTableRecord
  2
CENTER
 70
64
  3
____ _ ____ _ ____ _ ____ _ ____ _ ____ _ ____
 72
65
 73
4
 40
0.6
 49
0.375
 74
0
 49
-0.075
 74
0
 49
0.075
 74
0
 49
-0.075
 74
0
  0
LTYPE
  5
1F6
100
AcDbSymbolTableRecord
100
AcDbLinetypeTableRecord
  2
HIDDEN
 70
64
  3
- - - - - - - - - - - - - - - - - - - -
 72
65
 73
2
 40
0.2
 49
0.1
 74
0
 49
-0.1
 74
0
  0
LTYPE
  5
1F7
100
AcDbSymbolTableRecord
100
AcDbLinetypeTableRecord
  2
PHANTOM
 70
64
  3
_____ _ _ _____ _ _ _____ _ _ _____
 72
65
 73
6
 40
0.8
 49
0.45
 74
0
 49
-0.05
 74
0
 49
0.1
 74
0
 49
-0.05
 74
0
 49
0.1
 74
0
 49
-0.05
 74
0
  0
LTYPE
  5
1F8
100
AcDbSymbolTableRecord
100
AcDbLinetypeTableRecord
  2
DOT
 70
64
  3
. . . . . . . . . . . . . . . . . . . .
 72
65
 73
2
 40
0.2
 49
0.1
 74
0
 49
-0.1
 74
0
  0
LTYPE
  5
1F9
100
AcDbSymbolTableRecord
100
AcDbLinetypeTableRecord
  2
DASHED
 70
64
  3
- - - - - - - - - - - - - - - - - - - -
 72
65
 73
2
 40
0.2
 49
0.1
 74
0
 49
-0.1
 74
0
  0
ENDTAB
  0
TABLE
  2
LAYER
  5
2
100
AcDbSymbolTable
 70
36
  0
LAYER
  5
10
100
AcDbSymbolTableRecord
100
AcDbLayerTableRecord
  2
0
 70
0
 62
7
  6
CONTINUOUS
370
-3
390
F
  0
LAYER
  5
1FA
100
AcDbSymbolTableRecord
100
AcDbLayerTableRecord
  2
DEFAULT_1
 70
0
 62
7
  6
CENTER
370
-3
390
F
  0
LAYER
  5
1FB
100
AcDbSymbolTableRecord
100
AcDbLayerTableRecord
  2
DEFAULT_2
 70
0
 62
8
  6
HIDDEN
370
-3
390
F
  0
LAYER
  5
1FC
100
AcDbSymbolTableRecord
100
AcDbLayerTableRecord
  2
DEFAULT_3
 70
0
 62
7
  6
PHANTOM
370
-3
390
F
  0
LAYER
  5
1FD
100
AcDbSymbolTableRecord
100
AcDbLayerTableRecord
  2
01_ALL_DTM_PLN
 70
0
 62
7
  6
CONTINUOUS
370
-3
390
F
  0
LAYER
  5
1FE
100
AcDbSymbolTableRecord
100
AcDbLayerTableRecord
  2
01__ASM_ALL_DTM_PLN
 70
0
 62
7
  6
CONTINUOUS
370
-3
390
F
  0
LAYER
  5
1FF
100
AcDbSymbolTableRecord
100
AcDbLayerTableRecord
  2
01__ASM_DEF_DTM_PLN
 70
0
 62
7
  6
CONTINUOUS
370
-3
390
F
  0
LAYER
  5
200
100
AcDbSymbolTableRecord
100
AcDbLayerTableRecord
  2
01___PRT_ALL_DTM_PLN
 70
0
 62
7
  6
CONTINUOUS
370
-3
390
F
  0
LAYER
  5
201
100
AcDbSymbolTableRecord
100
AcDbLayerTableRecord
  2
01___PRT_DEF_DTM_PLN
 70
0
 62
7
  6
CONTINUOUS
370
-3
390
F
  0
LAYER
  5
202
100
AcDbSymbolTableRecord
100
AcDbLayerTableRecord
  2
02_ALL_AXES
 70
0
 62
7
  6
CONTINUOUS
370
-3
390
F
  0
LAYER
  5
203
100
AcDbSymbolTableRecord
100
AcDbLayerTableRecord
  2
02__ASM_ALL_AXES
 70
0
 62
7
  6
CONTINUOUS
370
-3
390
F
  0
LAYER
  5
204
100
AcDbSymbolTableRecord
100
AcDbLayerTableRecord
  2
02___PRT_ALL_AXES
 70
0
 62
7
  6
CONTINUOUS
370
-3
390
F
  0
LAYER
  5
205
100
AcDbSymbolTableRecord
100
AcDbLayerTableRecord
  2
03_ALL_CURVES
 70
0
 62
7
  6
CONTINUOUS
370
-3
390
F
  0
LAYER
  5
206
100
AcDbSymbolTableRecord
100
AcDbLayerTableRecord
  2
03__ASM_ALL_CURVES
 70
0
 62
7
  6
CONTINUOUS
370
-3
390
F
  0
LAYER
  5
207
100
AcDbSymbolTableRecord
100
AcDbLayerTableRecord
  2
03___PRT_ALL_CURVES
 70
0
 62
7
  6
CONTINUOUS
370
-3
390
F
  0
LAYER
  5
208
100
AcDbSymbolTableRecord
100
AcDbLayerTableRecord
  2
04_ALL_DTM_PNT
 70
0
 62
7
  6
CONTINUOUS
370
-3
390
F
  0
LAYER
  5
209
100
AcDbSymbolTableRecord
100
AcDbLayerTableRecord
  2
04__ASM_ALL_DTM_PNT
 70
0
 62
7
  6
CONTINUOUS
370
-3
390
F
  0
LAYER
  5
20A
100
AcDbSymbolTableRecord
100
AcDbLayerTableRecord
  2
04___PRT_ALL_DTM_PNT
 70
0
 62
7
  6
CONTINUOUS
370
-3
390
F
  0
LAYER
  5
20B
100
AcDbSymbolTableRecord
100
AcDbLayerTableRecord
  2
05_ALL_DTM_CSYS
 70
0
 62
7
  6
CONTINUOUS
370
-3
390
F
  0
LAYER
  5
20C
100
AcDbSymbolTableRecord
100
AcDbLayerTableRecord
  2
05__ASM_ALL_DTM_CSYS
 70
0
 62
7
  6
CONTINUOUS
370
-3
390
F
  0
LAYER
  5
20D
100
AcDbSymbolTableRecord
100
AcDbLayerTableRecord
  2
05__ASM_DEF_DTM_CSYS
 70
0
 62
7
  6
CONTINUOUS
370
-3
390
F
  0
LAYER
  5
20E
100
AcDbSymbolTableRecord
100
AcDbLayerTableRecord
  2
05___PRT_ALL_DTM_CSYS
 70
0
 62
7
  6
CONTINUOUS
370
-3
390
F
  0
LAYER
  5
20F
100
AcDbSymbolTableRecord
100
AcDbLayerTableRecord
  2
05___PRT_DEF_DTM_CSYS
 70
0
 62
7
  6
CONTINUOUS
370
-3
390
F
  0
LAYER
  5
210
100
AcDbSymbolTableRecord
100
AcDbLayerTableRecord
  2
06_ALL_SURFS
 70
0
 62
7
  6
CONTINUOUS
370
-3
390
F
  0
LAYER
  5
211
100
AcDbSymbolTableRecord
100
AcDbLayerTableRecord
  2
06__ASM_ALL_SURFS
 70
0
 62
7
  6
CONTINUOUS
370
-3
390
F
  0
LAYER
  5
212
100
AcDbSymbolTableRecord
100
AcDbLayerTableRecord
  2
06___PRT_ALL_SURFS
 70
0
 62
7
  6
CONTINUOUS
370
-3
390
F
  0
LAYER
  5
213
100
AcDbSymbolTableRecord
100
AcDbLayerTableRecord
  2
07__ASM_ALL_SKELETONS
 70
0
 62
7
  6
CONTINUOUS
370
-3
390
F
  0
ENDTAB
  0
TABLE
  2
STYLE
  5
3
100
AcDbSymbolTable
 70
1
  0
STYLE
  5
11
100
AcDbSymbolTableRecord
100
AcDbTextStyleTableRecord
  2
STANDARD
 70
0
 40
0.0
 41
0.8
 50
0.0
 71
0
 42
0.2
  3
txt
  4

  0
STYLE
  5
214
100
AcDbSymbolTableRecord
100
AcDbTextStyleTableRecord
  2
TEXTSTYLE_1
 70
0
 40
0.0
 41
0.8
 50
0.0
 71
0
 42
0.2
  3
gdt
  4

  0
ENDTAB
  0
TABLE
  2
VIEW
  5
6
100
AcDbSymbolTable
 70
0
  0
ENDTAB
  0
TABLE
  2
UCS
  5
7
100
AcDbSymbolTable
 70
0
  0
ENDTAB
  0
TABLE
  2
APPID
  5
9
100
AcDbSymbolTable
 70
1
  0
APPID
  5
215
100
AcDbSymbolTableRecord
100
AcDbRegAppTableRecord
  2
ACAD
 70
0
  0
ENDTAB
  0
TABLE
  2
BLOCK_RECORD
  5
1
100
AcDbSymbolTable
 70
0
  0
BLOCK_RECORD
  5
216
100
AcDbSymbolTableRecord
100
AcDbBlockTableRecord
  2
*Model_Space
  0
BLOCK_RECORD
  5
217
100
AcDbSymbolTableRecord
100
AcDbBlockTableRecord
  2
*Paper_Space
  0
ENDTAB
  0
TABLE
  2
DIMSTYLE
  5
A
100
AcDbSymbolTable
 70
1
100
AcDbDimStyleTable
 71
0
  0
DIMSTYLE
105
218
100
AcDbSymbolTableRecord
100
AcDbDimStyleTableRecord
  2
STANDARD
 70
0
  3

  4

 40
1.0
 41
0.1875
 42
0.0625
 43
0.38
 44
0.125
 45
0.0
 46
0.0
 47
0.0001
 48
0.0001
140
0.15625
141
0.09
142
0.0
143
25.4
144
1.0
145
0.0
146
1.0
147
0.09
 71
0.0
 72
0.0
 73
1
 74
1
 75
0
 76
0
 77
0
 78
4
170
0
171
2
172
0
173
0
174
0
175
0
176
0
177
0
178
0
270
2
271
4
272
4
273
2
274
2
275
0
280
0
281
0
282
0
283
1
284
4
285
0
286
0
287
3
288
0
340
11
278
46
  0
ENDTAB
  0
ENDSEC
  0
SECTION
  2
BLOCKS
  0
BLOCK
  5
20
100
AcDbEntity
  8
0
100
AcDbBlockBegin
  2
*Model_Space
 70
0
 10
0.0
 20
0.0
 30
0.0
  3
*Model_Space
  1

  0
ENDBLK
  5
21
100
AcDbEntity
  8
0
100
AcDbBlockEnd
  0
BLOCK
  5
1C
100
AcDbEntity
  8
0
100
AcDbBlockBegin
  2
*Paper_Space
 70
0
 10
0.0
 20
0.0
 30
0.0
  3
*Paper_Space
  1

  0
ENDBLK
  5
1D
100
AcDbEntity
  8
0
100
AcDbBlockEnd
  0
ENDSEC
  0
SECTION
  2
ENTITIES
  0
MTEXT
  5
219
100
AcDbEntity
  8
0
100
AcDbMText
 62
7
  6
CONTINUOUS
  7
STANDARD
 71
1
 72
1
 10
15.9560215477
 20
0.9479130325
 30
0.0
 11
1.0
 21
0.0
 31
0.0
 44
0.9
  1
SCALE: 1:3.000
 40
0.3
 41
3.36
  0
LINE
  5
21A
100
AcDbEntity
  8
0
100
AcDbLine
 62
7
  6
CONTINUOUS
 10
0.0
 20
0.0
 11
0.0
 21
17.0
  0
LINE
  5
21B
100
AcDbEntity
  8
0
100
AcDbLine
 62
7
  6
CONTINUOUS
 10
0.0
 20
0.0
 11
22.0
 21
0.0
  0
LINE
  5
21C
100
AcDbEntity
  8
0
100
AcDbLine
 62
7
  6
CONTINUOUS
 10
0.0
 20
17.0
 11
22.0
 21
17.0
  0
LINE
  5
21D
100
AcDbEntity
  8
0
100
AcDbLine
 62
7
  6
CONTINUOUS
 10
22.0
 20
0.0
 11
22.0
 21
17.0
  0
LINE
  5
21E
100
AcDbEntity
  8
0
100
AcDbLine
 62
7
  6
CONTINUOUS
 10
4.3587137329
 20
5.7451198968
 11
4.3587137329
 21
5.5407891881
  0
LINE
  5
21F
100
AcDbEntity
  8
0
100
AcDbLine
 62
7
  6
CONTINUOUS
 10
4.4694420793
 20
5.4915765897
 11
4.4694420793
 21
5.4796671408
  0
LINE
  5
220
100
AcDbEntity
  8
0
100
AcDbLine
 62
7
  6
CONTINUOUS
 10
4.8385365675
 20
5.4796671408
 11
4.8385365675
 21
5.4915765897
  0
LINE
  5
221
100
AcDbEntity
  8
0
100
AcDbLine
 62
7
  6
CONTINUOUS
 10
5.0599932604
 20
5.4915765897
 11
5.0599932604
 21
5.4796671408
  0
LINE
  5
222
100
AcDbEntity
  8
0
100
AcDbLine
 62
7
  6
CONTINUOUS
 10
5.4290877486
 20
5.4796671408
 11
5.4290877486
 21
5.4915765897
  0
LINE
  5
223
100
AcDbEntity
  8
0
100
AcDbLine
 62
7
  6
CONTINUOUS
 10
5.6505444415
 20
5.4915765897
 11
5.6505444415
 21
5.4796671408
  0
LINE
  5
224
100
AcDbEntity
  8
0
100
AcDbLine
 62
7
  6
CONTINUOUS
 10
6.0196389297
 20
5.4796671408
 11
6.0196389297
 21
5.4915765897
  0
LINE
  5
225
100
AcDbEntity
  8
0
100
AcDbLine
 62
7
  6
CONTINUOUS
 10
6.2410956226
 20
5.4915765897
 11
6.2410956226
 21
5.4796671408
  0
LINE
  5
226
100
AcDbEntity
  8
0
100
AcDbLine
 62
7
  6
CONTINUOUS
 10
4.3587137329
 20
5.5407891881
 11
4.4202294809
 21
5.5407891881
  0
LINE
  5
227
100
AcDbEntity
  8
0
100
AcDbLine
 62
7
  6
CONTINUOUS
 10
4.8877491659
 20
5.5407891881
 11
5.010780662
 21
5.5407891881
  0
LINE
  5
228
100
AcDbEntity
  8
0
100
AcDbLine
 62
7
  6
CONTINUOUS
 10
5.478300347
 20
5.5407891881
 11
5.6013318431
 21
5.5407891881
  0
LINE
  5
229
100
AcDbEntity
  8
0
100
AcDbLine
 62
7
  6
CONTINUOUS
 10
6.0688515281
 20
5.5407891881
 11
6.1918830242
 21
5.5407891881
  0
LINE
  5
22A
100
AcDbEntity
  8
0
100
AcDbLine
 62
7
  6
CONTINUOUS
 10
6.6594027092
 20
5.5407891881
 11
6.7824342053
 21
5.5407891881
  0
LINE
  5
22B
100
AcDbEntity
  8
0
100
AcDbLine
 62
7
  6
CONTINUOUS
 10
7.2499538903
 20
5.5407891881
 11
7.3729853864
 21
5.5407891881
  0
LINE
  5
22C
100
AcDbEntity
  8
0
100
AcDbLine
 62
7
  6
CONTINUOUS
 10
7.8405050714
 20
5.5407891881
 11
7.9020208195
 21
5.5407891881
  0
LINE
  5
22D
100
AcDbEntity
  8
0
100
AcDbLine
 62
7
  6
CONTINUOUS
 10
7.9020208195
 20
5.7451198968
 11
4.3587137329
 21
5.7451198968
  0
LINE
  5
22E
100
AcDbEntity
  8
0
100
AcDbLine
 62
7
  6
CONTINUOUS
 10
6.6101901108
 20
5.4796671408
 11
6.6101901108
 21
5.4915765897
  0
LINE
  5
22F
100
AcDbEntity
  8
0
100
AcDbLine
 62
7
  6
CONTINUOUS
 10
6.8316468037
 20
5.4915765897
 11
6.8316468037
 21
5.4796671408
  0
LINE
  5
230
100
AcDbEntity
  8
0
100
AcDbLine
 62
7
  6
CONTINUOUS
 10
7.2007412919
 20
5.4796671408
 11
7.2007412919
 21
5.4915765897
  0
LINE
  5
231
100
AcDbEntity
  8
0
100
AcDbLine
 62
7
  6
CONTINUOUS
 10
7.4221979848
 20
5.4915765897
 11
7.4221979848
 21
5.4796671408
  0
LINE
  5
232
100
AcDbEntity
  8
0
100
AcDbLine
 62
7
  6
CONTINUOUS
 10
7.791292473
 20
5.4796671408
 11
7.791292473
 21
5.4915765897
  0
LINE
  5
233
100
AcDbEntity
  8
0
100
AcDbLine
 62
7
  6
CONTINUOUS
 10
7.9020208195
 20
5.5407891881
 11
7.9020208195
 21
5.7451198968
  0
LINE
  5
234
100
AcDbEntity
  8
0
100
AcDbLine
 62
7
  6
CONTINUOUS
 10
4.2992185406
 20
14.0764257341
 11
4.2992185406
 21
11.1236698286
  0
LINE
  5
235
100
AcDbEntity
  8
0
100
AcDbLine
 62
7
  6
CONTINUOUS
 10
7.8425256272
 20
11.1236698286
 11
4.2992185406
 21
11.1236698286
  0
LINE
  5
236
100
AcDbEntity
  8
0
100
AcDbLine
 62
7
  6
CONTINUOUS
 10
4.2992185406
 20
14.0764257341
 11
7.8425256272
 21
14.0764257341
  0
LINE
  5
237
100
AcDbEntity
  8
0
100
AcDbLine
 62
7
  6
CONTINUOUS
 10
7.8425256272
 20
14.0764257341
 11
7.8425256272
 21
11.1236698286
  0
LINE
  5
238
100
AcDbEntity
  8
0
100
AcDbLine
 62
7
  6
CONTINUOUS
 10
14.0839773042
 20
5.2356247044
 11
14.0839773042
 21
5.6856247044
  0
LINE
  5
239
100
AcDbEntity
  8
0
100
AcDbLine
 62
7
  6
CONTINUOUS
 10
17.0367332097
 20
5.2356247044
 11
14.0839773042
 21
5.2356247044
  0
LINE
  5
23A
100
AcDbEntity
  8
0
100
AcDbLine
 62
7
  6
CONTINUOUS
 10
17.0367332097
 20
5.4812939958
 11
14.0839773042
 21
5.4812939958
  0
LINE
  5
23B
100
AcDbEntity
  8
0
100
AcDbLine
 62
7
  6
CONTINUOUS
 10
17.0367332097
 20
5.6856247044
 11
14.0839773042
 21
5.6856247044
  0
LINE
  5
23C
100
AcDbEntity
  8
0
100
AcDbLine
 62
7
  6
CONTINUOUS
 10
17.0367332097
 20
5.2356247044
 11
17.0367332097
 21
5.6856247044
  0
LINE
  5
23D
100
AcDbEntity
  8
0
100
AcDbLine
 62
7
  6
CONTINUOUS
 10
13.4507654015
 20
11.4941806566
 11
13.5130948223
 21
11.3671666513
  0
LINE
  5
23E
100
AcDbEntity
  8
0
100
AcDbLine
 62
7
  6
CONTINUOUS
 10
13.630094286
 20
11.3365756095
 11
13.6337271665
 21
11.3291725774
  0
LINE
  5
23F
100
AcDbEntity
  8
0
100
AcDbLine
 62
7
  6
CONTINUOUS
 10
13.9736857027
 20
11.3291725774
 11
13.9700528222
 21
11.3365756095
  0
LINE
  5
240
100
AcDbEntity
  8
0
100
AcDbLine
 62
7
  6
CONTINUOUS
 10
14.1655281674
 20
13.8071538149
 11
13.4507654015
 21
11.4941806566
  0
LINE
  5
241
100
AcDbEntity
  8
0
100
AcDbLine
 62
7
  6
CONTINUOUS
 10
14.1740279439
 20
11.3365756095
 11
14.1776608244
 21
11.3291725774
  0
LINE
  5
242
100
AcDbEntity
  8
0
100
AcDbLine
 62
7
  6
CONTINUOUS
 10
14.5176193605
 20
11.3291725774
 11
14.51398648
 21
11.3365756095
  0
LINE
  5
243
100
AcDbEntity
  8
0
100
AcDbLine
 62
7
  6
CONTINUOUS
 10
13.5130948223
 20
11.3671666513
 11
13.5697545783
 21
11.3671666513
  0
LINE
  5
244
100
AcDbEntity
  8
0
100
AcDbLine
 62
7
  6
CONTINUOUS
 10
14.0003687241
 20
11.3671666513
 11
14.1136882362
 21
11.3671666513
  0
LINE
  5
245
100
AcDbEntity
  8
0
100
AcDbLine
 62
7
  6
CONTINUOUS
 10
14.544302382
 20
11.3671666513
 11
14.657621894
 21
11.3671666513
  0
LINE
  5
246
100
AcDbEntity
  8
0
100
AcDbLine
 62
7
  6
CONTINUOUS
 10
15.0882360399
 20
11.3671666513
 11
15.2015555519
 21
11.3671666513
  0
LINE
  5
247
100
AcDbEntity
  8
0
100
AcDbLine
 62
7
  6
CONTINUOUS
 10
15.6321696977
 20
11.3671666513
 11
15.7454892098
 21
11.3671666513
  0
LINE
  5
248
100
AcDbEntity
  8
0
100
AcDbLine
 62
7
  6
CONTINUOUS
 10
16.1761033556
 20
11.3671666513
 11
16.2894228677
 21
11.3671666513
  0
LINE
  5
249
100
AcDbEntity
  8
0
100
AcDbLine
 62
7
  6
CONTINUOUS
 10
16.7200370135
 20
11.3671666513
 11
16.7766967695
 21
11.3671666513
  0
LINE
  5
24A
100
AcDbEntity
  8
0
100
AcDbLine
 62
7
  6
CONTINUOUS
 10
14.7179616017
 20
11.3365756095
 11
14.7215944822
 21
11.3291725774
  0
LINE
  5
24B
100
AcDbEntity
  8
0
100
AcDbLine
 62
7
  6
CONTINUOUS
 10
14.0086055591
 20
11.3671666513
 11
13.9800267183
 21
11.2746854887
  0
LINE
  5
24C
100
AcDbEntity
  8
0
100
AcDbLine
 62
7
  6
CONTINUOUS
 10
16.7143673487
 20
11.4941806566
 11
13.4507654015
 21
11.4941806566
  0
LINE
  5
24D
100
AcDbEntity
  8
0
100
AcDbLine
 62
7
  6
CONTINUOUS
 10
15.0615530184
 20
11.3291725774
 11
15.0579201379
 21
11.3365756095
  0
LINE
  5
24E
100
AcDbEntity
  8
0
100
AcDbLine
 62
7
  6
CONTINUOUS
 10
15.2618952596
 20
11.3365756095
 11
15.2655281401
 21
11.3291725774
  0
LINE
  5
24F
100
AcDbEntity
  8
0
100
AcDbLine
 62
7
  6
CONTINUOUS
 10
14.552539217
 20
11.3671666513
 11
14.5239603762
 21
11.2746854887
  0
LINE
  5
250
100
AcDbEntity
  8
0
100
AcDbLine
 62
7
  6
CONTINUOUS
 10
15.6054866763
 20
11.3291725774
 11
15.6018537958
 21
11.3365756095
  0
LINE
  5
251
100
AcDbEntity
  8
0
100
AcDbLine
 62
7
  6
CONTINUOUS
 10
15.8058289175
 20
11.3365756095
 11
15.809461798
 21
11.3291725774
  0
LINE
  5
252
100
AcDbEntity
  8
0
100
AcDbLine
 62
7
  6
CONTINUOUS
 10
15.0964728748
 20
11.3671666513
 11
15.0678940341
 21
11.2746854887
  0
LINE
  5
253
100
AcDbEntity
  8
0
100
AcDbLine
 62
7
  6
CONTINUOUS
 10
16.1494203342
 20
11.3291725774
 11
16.1457874537
 21
11.3365756095
  0
LINE
  5
254
100
AcDbEntity
  8
0
100
AcDbLine
 62
7
  6
CONTINUOUS
 10
16.3497625754
 20
11.3365756095
 11
16.3533954559
 21
11.3291725774
  0
LINE
  5
255
100
AcDbEntity
  8
0
100
AcDbLine
 62
7
  6
CONTINUOUS
 10
15.6404065327
 20
11.3671666513
 11
15.611827692
 21
11.2746854887
  0
LINE
  5
256
100
AcDbEntity
  8
0
100
AcDbLine
 62
7
  6
CONTINUOUS
 10
16.693353992
 20
11.3291725774
 11
16.6897211115
 21
11.3365756095
  0
LINE
  5
257
100
AcDbEntity
  8
0
100
AcDbLine
 62
7
  6
CONTINUOUS
 10
16.7766967695
 20
11.3671666513
 11
16.7143673487
 21
11.4941806566
  0
LINE
  5
258
100
AcDbEntity
  8
0
100
AcDbLine
 62
7
  6
CONTINUOUS
 10
16.1843401906
 20
11.3671666513
 11
16.1557613498
 21
11.2746854887
  0
LINE
  5
259
100
AcDbEntity
  8
0
100
AcDbLine
 62
7
  6
CONTINUOUS
 10
14.1655281674
 20
13.8071538149
 11
17.4291301147
 21
13.8071538149
  0
LINE
  5
25A
100
AcDbEntity
  8
0
100
AcDbLine
 62
7
  6
CONTINUOUS
 10
17.4291301147
 20
13.8071538149
 11
16.7143673487
 21
11.4941806566
  0
LINE
  5
25B
100
AcDbEntity
  8
0
100
AcDbLine
 62
7
  6
CONTINUOUS
 10
16.7282738485
 20
11.3671666513
 11
16.6996950077
 21
11.2746854887
  0
LINE
  5
25C
100
AcDbEntity
  8
0
100
AcDbLine
 62
7
  6
CONTINUOUS
 10
17.4914595355
 20
13.6801398096
 11
16.7766967695
 21
11.3671666513
  0
LINE
  5
25D
100
AcDbEntity
  8
0
100
AcDbLine
 62
7
  6
CONTINUOUS
 10
17.4914595355
 20
13.6801398096
 11
17.4291301147
 21
13.8071538149
  0
ARC
  5
25E
100
AcDbEntity
  8
0
100
AcDbCircle
 62
7
  6
CONTINUOUS
 10
4.6539893234
 20
5.4796671408
 40
0.1845472441
100
AcDbArc
 50
180.0
 51
360.0
  0
ARC
  5
25F
100
AcDbEntity
  8
0
100
AcDbCircle
 62
7
  6
CONTINUOUS
 10
5.2445405045
 20
5.4796671408
 40
0.1845472441
100
AcDbArc
 50
180.0
 51
360.0
  0
ARC
  5
260
100
AcDbEntity
  8
0
100
AcDbCircle
 62
7
  6
CONTINUOUS
 10
7.6067452289
 20
5.4796671408
 40
0.1845472441
100
AcDbArc
 50
180.0
 51
360.0
  0
ARC
  5
261
100
AcDbEntity
  8
0
100
AcDbCircle
 62
7
  6
CONTINUOUS
 10
7.0161940478
 20
5.4796671408
 40
0.1845472441
100
AcDbArc
 50
180.0
 51
360.0
  0
ARC
  5
262
100
AcDbEntity
  8
0
100
AcDbCircle
 62
7
  6
CONTINUOUS
 10
6.4256428667
 20
5.4796671408
 40
0.1845472441
100
AcDbArc
 50
180.0
 51
360.0
  0
ARC
  5
263
100
AcDbEntity
  8
0
100
AcDbCircle
 62
7
  6
CONTINUOUS
 10
5.8350916856
 20
5.4796671408
 40
0.1845472441
100
AcDbArc
 50
180.0
 51
360.0
  0
ARC
  5
264
100
AcDbEntity
  8
0
100
AcDbCircle
 62
7
  6
CONTINUOUS
 10
4.4202294809
 20
5.4915765897
 40
0.0492125984
100
AcDbArc
 50
0.0
 51
90.0
  0
ARC
  5
265
100
AcDbEntity
  8
0
100
AcDbCircle
 62
7
  6
CONTINUOUS
 10
4.8877491659
 20
5.4915765897
 40
0.0492125984
100
AcDbArc
 50
90.0
 51
180.0
  0
ARC
  5
266
100
AcDbEntity
  8
0
100
AcDbCircle
 62
7
  6
CONTINUOUS
 10
5.010780662
 20
5.4915765897
 40
0.0492125984
100
AcDbArc
 50
0.0
 51
90.0
  0
ARC
  5
267
100
AcDbEntity
  8
0
100
AcDbCircle
 62
7
  6
CONTINUOUS
 10
5.478300347
 20
5.4915765897
 40
0.0492125984
100
AcDbArc
 50
90.0
 51
180.0
  0
ARC
  5
268
100
AcDbEntity
  8
0
100
AcDbCircle
 62
7
  6
CONTINUOUS
 10
5.6013318431
 20
5.4915765897
 40
0.0492125984
100
AcDbArc
 50
0.0
 51
90.0
  0
ARC
  5
269
100
AcDbEntity
  8
0
100
AcDbCircle
 62
7
  6
CONTINUOUS
 10
6.0688515281
 20
5.4915765897
 40
0.0492125984
100
AcDbArc
 50
90.0
 51
180.0
  0
ARC
  5
26A
100
AcDbEntity
  8
0
100
AcDbCircle
 62
7
  6
CONTINUOUS
 10
6.1918830242
 20
5.4915765897
 40
0.0492125984
100
AcDbArc
 50
0.0
 51
90.0
  0
ARC
  5
26B
100
AcDbEntity
  8
0
100
AcDbCircle
 62
7
  6
CONTINUOUS
 10
6.6594027092
 20
5.4915765897
 40
0.0492125984
100
AcDbArc
 50
90.0
 51
180.0
  0
ARC
  5
26C
100
AcDbEntity
  8
0
100
AcDbCircle
 62
7
  6
CONTINUOUS
 10
6.7824342053
 20
5.4915765897
 40
0.0492125984
100
AcDbArc
 50
0.0
 51
90.0
  0
ARC
  5
26D
100
AcDbEntity
  8
0
100
AcDbCircle
 62
7
  6
CONTINUOUS
 10
7.2499538903
 20
5.4915765897
 40
0.0492125984
100
AcDbArc
 50
90.0
 51
180.0
  0
ARC
  5
26E
100
AcDbEntity
  8
0
100
AcDbCircle
 62
7
  6
CONTINUOUS
 10
7.3729853864
 20
5.4915765897
 40
0.0492125984
100
AcDbArc
 50
0.0
 51
90.0
  0
ARC
  5
26F
100
AcDbEntity
  8
0
100
AcDbCircle
 62
7
  6
CONTINUOUS
 10
7.8405050714
 20
5.4915765897
 40
0.0492125984
100
AcDbArc
 50
90.0
 51
180.0
  0
SPLINE
  5
270
100
AcDbEntity
  8
0
100
AcDbSpline
 62
7
  6
CONTINUOUS
 70
0
 71
3
 72
12
 73
8
 74
0
 42
0.0000001
 43
0.0000001
 44
0.0000000001
 40
0.0
 40
0.0
 40
0.0
 40
0.0
 40
0.0998505338
 40
0.2032590524
 40
0.4308039528
 40
0.6965961173
 40
1.0
 40
1.0
 40
1.0
 40
1.0
 10
13.9683618709
 20
11.3511055119
 30
0.0
 10
13.9687361387
 20
11.3523168798
 30
0.0
 10
13.9697985458
 20
11.3546996543
 30
0.0
 10
13.9731251422
 20
11.3590935268
 30
0.0
 10
13.9795141369
 20
11.3635026305
 30
0.0
 10
13.9892593791
 20
11.3665517401
 30
0.0
 10
13.996516206
 20
11.3671666513
 30
0.0
 10
14.0003687241
 20
11.3671666513
 30
0.0
  0
SPLINE
  5
271
100
AcDbEntity
  8
0
100
AcDbSpline
 62
7
  6
CONTINUOUS
 70
0
 71
3
 72
12
 73
8
 74
0
 42
0.0000001
 43
0.0000001
 44
0.0000000001
 40
0.0
 40
0.0
 40
0.0
 40
0.0
 40
0.0998505338
 40
0.2032590524
 40
0.4308039528
 40
0.6965961173
 40
1.0
 40
1.0
 40
1.0
 40
1.0
 10
14.5122955288
 20
11.3511055119
 30
0.0
 10
14.5126697965
 20
11.3523168798
 30
0.0
 10
14.5137322037
 20
11.3546996543
 30
0.0
 10
14.5170588001
 20
11.3590935268
 30
0.0
 10
14.5234477948
 20
11.3635026305
 30
0.0
 10
14.533193037
 20
11.3665517401
 30
0.0
 10
14.5404498639
 20
11.3671666513
 30
0.0
 10
14.544302382
 20
11.3671666513
 30
0.0
  0
SPLINE
  5
272
100
AcDbEntity
  8
0
100
AcDbSpline
 62
7
  6
CONTINUOUS
 70
0
 71
3
 72
12
 73
8
 74
0
 42
0.0000001
 43
0.0000001
 44
0.0000000001
 40
0.0
 40
0.0
 40
0.0
 40
0.0
 40
0.0998505338
 40
0.2032590524
 40
0.4308039528
 40
0.6965961173
 40
1.0
 40
1.0
 40
1.0
 40
1.0
 10
15.0562291866
 20
11.3511055119
 30
0.0
 10
15.0566034544
 20
11.3523168798
 30
0.0
 10
15.0576658616
 20
11.3546996543
 30
0.0
 10
15.0609924579
 20
11.3590935268
 30
0.0
 10
15.0673814527
 20
11.3635026305
 30
0.0
 10
15.0771266949
 20
11.3665517401
 30
0.0
 10
15.0843835218
 20
11.3671666513
 30
0.0
 10
15.0882360399
 20
11.3671666513
 30
0.0
  0
SPLINE
  5
273
100
AcDbEntity
  8
0
100
AcDbSpline
 62
7
  6
CONTINUOUS
 70
0
 71
3
 72
12
 73
8
 74
0
 42
0.0000001
 43
0.0000001
 44
0.0000000001
 40
0.0
 40
0.0
 40
0.0
 40
0.0
 40
0.0998505338
 40
0.2032590524
 40
0.4308039528
 40
0.6965961173
 40
1.0
 40
1.0
 40
1.0
 40
1.0
 10
15.6001628445
 20
11.3511055119
 30
0.0
 10
15.6005371123
 20
11.3523168798
 30
0.0
 10
15.6015995195
 20
11.3546996543
 30
0.0
 10
15.6049261158
 20
11.3590935268
 30
0.0
 10
15.6113151105
 20
11.3635026305
 30
0.0
 10
15.6210603528
 20
11.3665517401
 30
0.0
 10
15.6283171796
 20
11.3671666513
 30
0.0
 10
15.6321696977
 20
11.3671666513
 30
0.0
  0
SPLINE
  5
274
100
AcDbEntity
  8
0
100
AcDbSpline
 62
7
  6
CONTINUOUS
 70
0
 71
3
 72
12
 73
8
 74
0
 42
0.0000001
 43
0.0000001
 44
0.0000000001
 40
0.0
 40
0.0
 40
0.0
 40
0.0
 40
0.0998505338
 40
0.2032590524
 40
0.4308039528
 40
0.6965961173
 40
1.0
 40
1.0
 40
1.0
 40
1.0
 10
16.1440965024
 20
11.3511055119
 30
0.0
 10
16.1444707702
 20
11.3523168798
 30
0.0
 10
16.1455331774
 20
11.3546996543
 30
0.0
 10
16.1488597737
 20
11.3590935268
 30
0.0
 10
16.1552487684
 20
11.3635026305
 30
0.0
 10
16.1649940106
 20
11.3665517401
 30
0.0
 10
16.1722508375
 20
11.3671666513
 30
0.0
 10
16.1761033556
 20
11.3671666513
 30
0.0
  0
SPLINE
  5
275
100
AcDbEntity
  8
0
100
AcDbSpline
 62
7
  6
CONTINUOUS
 70
0
 71
3
 72
12
 73
8
 74
0
 42
0.0000001
 43
0.0000001
 44
0.0000000001
 40
0.0
 40
0.0
 40
0.0
 40
0.0
 40
0.0998505338
 40
0.2032590524
 40
0.4308039528
 40
0.6965961173
 40
1.0
 40
1.0
 40
1.0
 40
1.0
 10
16.6880301603
 20
11.3511055119
 30
0.0
 10
16.688404428
 20
11.3523168798
 30
0.0
 10
16.6894668352
 20
11.3546996543
 30
0.0
 10
16.6927934316
 20
11.3590935268
 30
0.0
 10
16.6991824263
 20
11.3635026305
 30
0.0
 10
16.7089276685
 20
11.3665517401
 30
0.0
 10
16.7161844954
 20
11.3671666513
 30
0.0
 10
16.7200370135
 20
11.3671666513
 30
0.0
  0
SPLINE
  5
276
100
AcDbEntity
  8
0
100
AcDbSpline
 62
7
  6
CONTINUOUS
 70
0
 71
3
 72
21
 73
17
 74
0
 42
0.0000001
 43
0.0000001
 44
0.0000000001
 40
0.0
 40
0.0
 40
0.0
 40
0.0
 40
0.0543735795
 40
0.1140101516
 40
0.1786178538
 40
0.2474788896
 40
0.3935211486
 40
0.5422962535
 40
0.6144167033
 40
0.6833078875
 40
0.747952252
 40
0.8076310572
 40
0.8620456295
 40
0.9114641588
 40
0.9568685624
 40
1.0
 40
1.0
 40
1.0
 40
1.0
 10
16.3533954559
 20
11.3291725774
 30
0.0
 10
16.3566498836
 20
11.322540751
 30
0.0
 10
16.3649153499
 20
11.309322566
 30
0.0
 10
16.3809757625
 20
11.2910249945
 30
0.0
 10
16.4008379204
 20
11.2737735879
 30
0.0
 10
16.4322906094
 20
11.2523694321
 30
0.0
 10
16.4773316751
 20
11.2312369209
 30
0.0
 10
16.5258788541
 20
11.2186094419
 30
0.0
 10
16.5650798448
 20
11.2143618348
 30
0.0
 10
16.593079051
 20
11.2142899951
 30
0.0
 10
16.6192249866
 20
11.2173008352
 30
0.0
 10
16.6428386572
 20
11.2233293317
 30
0.0
 10
16.6633097219
 20
11.2322488849
 30
0.0
 10
16.6800971157
 20
11.2439019892
 30
0.0
 10
16.6926764815
 20
11.2580649077
 30
0.0
 10
16.6979646011
 20
11.2690868727
 30
0.0
 10
16.6996949635
 20
11.2746855024
 30
0.0
  0
SPLINE
  5
277
100
AcDbEntity
  8
0
100
AcDbSpline
 62
7
  6
CONTINUOUS
 70
0
 71
3
 72
22
 73
18
 74
0
 42
0.0000001
 43
0.0000001
 44
0.0000000001
 40
0.0
 40
0.0
 40
0.0
 40
0.0
 40
0.0543510446
 40
0.1139967155
 40
0.17858412
 40
0.2474339296
 40
0.3195212835
 40
0.3936286797
 40
0.542377399
 40
0.6144844489
 40
0.6833628404
 40
0.7479964754
 40
0.80766483
 40
0.8620687011
 40
0.9114782297
 40
0.9568753218
 40
1.0
 40
1.0
 40
1.0
 40
1.0
 10
15.809461798
 20
11.3291725774
 30
0.0
 10
15.8127154506
 20
11.3225423305
 30
0.0
 10
15.8209835134
 20
11.3093249328
 30
0.0
 10
15.8370405341
 20
11.2910244608
 30
0.0
 10
15.8569055485
 20
11.2737754208
 30
0.0
 10
15.8800364679
 20
11.258026624
 30
0.0
 10
15.9058335916
 20
11.2441867946
 30
0.0
 10
15.9428757456
 20
11.2287698721
 30
0.0
 10
15.9819505442
 20
11.2186078464
 30
0.0
 10
16.0211446073
 20
11.214362658
 30
0.0
 10
16.0491449486
 20
11.2142905928
 30
0.0
 10
16.0752906925
 20
11.2173005299
 30
0.0
 10
16.0989044651
 20
11.223328969
 30
0.0
 10
16.1193749531
 20
11.2322494893
 30
0.0
 10
16.1361621826
 20
11.2439020882
 30
0.0
 10
16.1487436167
 20
11.2580640564
 30
0.0
 10
16.1540290935
 20
11.269087326
 30
0.0
 10
16.155760458
 20
11.2746857663
 30
0.0
  0
SPLINE
  5
278
100
AcDbEntity
  8
0
100
AcDbSpline
 62
7
  6
CONTINUOUS
 70
0
 71
3
 72
22
 73
18
 74
0
 42
0.0000001
 43
0.0000001
 44
0.0000000001
 40
0.0
 40
0.0
 40
0.0
 40
0.0
 40
0.0543510446
 40
0.1139967155
 40
0.17858412
 40
0.2474339296
 40
0.3195212835
 40
0.3936286797
 40
0.542377399
 40
0.6144844489
 40
0.6833628404
 40
0.7479964754
 40
0.80766483
 40
0.8620687011
 40
0.9114782297
 40
0.9568753218
 40
1.0
 40
1.0
 40
1.0
 40
1.0
 10
15.2655281401
 20
11.3291725774
 30
0.0
 10
15.2687817927
 20
11.3225423305
 30
0.0
 10
15.2770498555
 20
11.3093249328
 30
0.0
 10
15.2931068762
 20
11.2910244608
 30
0.0
 10
15.3129718906
 20
11.2737754208
 30
0.0
 10
15.3361028101
 20
11.258026624
 30
0.0
 10
15.3618999337
 20
11.2441867946
 30
0.0
 10
15.3989420877
 20
11.2287698721
 30
0.0
 10
15.4380168863
 20
11.2186078464
 30
0.0
 10
15.4772109494
 20
11.214362658
 30
0.0
 10
15.5052112907
 20
11.2142905928
 30
0.0
 10
15.5313570347
 20
11.2173005299
 30
0.0
 10
15.5549708072
 20
11.223328969
 30
0.0
 10
15.5754412953
 20
11.2322494893
 30
0.0
 10
15.5922285247
 20
11.2439020882
 30
0.0
 10
15.6048099588
 20
11.2580640564
 30
0.0
 10
15.6100954356
 20
11.269087326
 30
0.0
 10
15.6118268001
 20
11.2746857663
 30
0.0
  0
SPLINE
  5
279
100
AcDbEntity
  8
0
100
AcDbSpline
 62
7
  6
CONTINUOUS
 70
0
 71
3
 72
22
 73
18
 74
0
 42
0.0000001
 43
0.0000001
 44
0.0000000001
 40
0.0
 40
0.0
 40
0.0
 40
0.0
 40
0.0543510446
 40
0.1139967155
 40
0.17858412
 40
0.2474339296
 40
0.3195212835
 40
0.3936286797
 40
0.542377399
 40
0.6144844489
 40
0.6833628404
 40
0.7479964754
 40
0.80766483
 40
0.8620687011
 40
0.9114782297
 40
0.9568753218
 40
1.0
 40
1.0
 40
1.0
 40
1.0
 10
14.7215944822
 20
11.3291725774
 30
0.0
 10
14.7248481349
 20
11.3225423305
 30
0.0
 10
14.7331161976
 20
11.3093249328
 30
0.0
 10
14.7491732183
 20
11.2910244608
 30
0.0
 10
14.7690382327
 20
11.2737754208
 30
0.0
 10
14.7921691522
 20
11.258026624
 30
0.0
 10
14.8179662758
 20
11.2441867946
 30
0.0
 10
14.8550084299
 20
11.2287698721
 30
0.0
 10
14.8940832285
 20
11.2186078464
 30
0.0
 10
14.9332772916
 20
11.214362658
 30
0.0
 10
14.9612776328
 20
11.2142905928
 30
0.0
 10
14.9874233768
 20
11.2173005299
 30
0.0
 10
15.0110371493
 20
11.223328969
 30
0.0
 10
15.0315076374
 20
11.2322494893
 30
0.0
 10
15.0482948668
 20
11.2439020882
 30
0.0
 10
15.060876301
 20
11.2580640564
 30
0.0
 10
15.0661617777
 20
11.269087326
 30
0.0
 10
15.0678931422
 20
11.2746857663
 30
0.0
  0
SPLINE
  5
27A
100
AcDbEntity
  8
0
100
AcDbSpline
 62
7
  6
CONTINUOUS
 70
0
 71
3
 72
22
 73
18
 74
0
 42
0.0000001
 43
0.0000001
 44
0.0000000001
 40
0.0
 40
0.0
 40
0.0
 40
0.0
 40
0.054345074
 40
0.1139985565
 40
0.1785847663
 40
0.2474342473
 40
0.3195218409
 40
0.3936290662
 40
0.5423775077
 40
0.6144853621
 40
0.6833648956
 40
0.7479963711
 40
0.8076650251
 40
0.8620708814
 40
0.9114791599
 40
0.9568760715
 40
1.0
 40
1.0
 40
1.0
 40
1.0
 10
14.1776608244
 20
11.3291725774
 30
0.0
 10
14.1809141152
 20
11.3225430677
 30
0.0
 10
14.1891834673
 20
11.3093262556
 30
0.0
 10
14.2052388937
 20
11.2910244766
 30
0.0
 10
14.22510438
 20
11.2737744636
 30
0.0
 10
14.2482363797
 20
11.2580276736
 30
0.0
 10
14.2740328725
 20
11.2441870744
 30
0.0
 10
14.3110744056
 20
11.2287684738
 30
0.0
 10
14.3501500066
 20
11.218609858
 30
0.0
 10
14.389343838
 20
11.2143620207
 30
0.0
 10
14.4173442682
 20
11.2142897372
 30
0.0
 10
14.4434895758
 20
11.217302073
 30
0.0
 10
14.4671033891
 20
11.2233295517
 30
0.0
 10
14.4875748774
 20
11.2322483206
 30
0.0
 10
14.504361332
 20
11.2439026836
 30
0.0
 10
14.5169406062
 20
11.2580654376
 30
0.0
 10
14.5222288658
 20
11.2690872084
 30
0.0
 10
14.5239601685
 20
11.274685553
 30
0.0
  0
SPLINE
  5
27B
100
AcDbEntity
  8
0
100
AcDbSpline
 62
7
  6
CONTINUOUS
 70
0
 71
3
 72
22
 73
18
 74
0
 42
0.0000001
 43
0.0000001
 44
0.0000000001
 40
0.0
 40
0.0
 40
0.0
 40
0.0
 40
0.054345074
 40
0.1139985565
 40
0.1785847663
 40
0.2474342473
 40
0.3195218409
 40
0.3936290662
 40
0.5423775077
 40
0.6144853621
 40
0.6833648956
 40
0.7479963711
 40
0.8076650251
 40
0.8620708814
 40
0.9114791599
 40
0.9568760715
 40
1.0
 40
1.0
 40
1.0
 40
1.0
 10
13.6337271665
 20
11.3291725774
 30
0.0
 10
13.6369804573
 20
11.3225430677
 30
0.0
 10
13.6452498094
 20
11.3093262556
 30
0.0
 10
13.6613052358
 20
11.2910244766
 30
0.0
 10
13.6811707221
 20
11.2737744636
 30
0.0
 10
13.7043027218
 20
11.2580276736
 30
0.0
 10
13.7300992147
 20
11.2441870744
 30
0.0
 10
13.7671407478
 20
11.2287684738
 30
0.0
 10
13.8062163488
 20
11.218609858
 30
0.0
 10
13.8454101802
 20
11.2143620207
 30
0.0
 10
13.8734106103
 20
11.2142897372
 30
0.0
 10
13.899555918
 20
11.217302073
 30
0.0
 10
13.9231697312
 20
11.2233295517
 30
0.0
 10
13.9436412195
 20
11.2322483206
 30
0.0
 10
13.9604276742
 20
11.2439026836
 30
0.0
 10
13.9730069483
 20
11.2580654376
 30
0.0
 10
13.978295208
 20
11.2690872084
 30
0.0
 10
13.9800265107
 20
11.274685553
 30
0.0
  0
SPLINE
  5
27C
100
AcDbEntity
  8
0
100
AcDbSpline
 62
7
  6
CONTINUOUS
 70
0
 71
3
 72
12
 73
8
 74
0
 42
0.0000001
 43
0.0000001
 44
0.0000000001
 40
0.0
 40
0.0
 40
0.0
 40
0.0
 40
0.2645727256
 40
0.5363567732
 40
0.6665431021
 40
0.7886507673
 40
1.0
 40
1.0
 40
1.0
 40
1.0
 10
13.5697545783
 20
11.3671666513
 30
0.0
 10
13.5759665495
 20
11.3671666513
 30
0.0
 10
13.5885829516
 20
11.365461383
 30
0.0
 10
13.6033988837
 20
11.3600398773
 30
0.0
 10
13.6140694071
 20
11.3538336603
 30
0.0
 10
13.6226888819
 20
11.3471886907
 30
0.0
 10
13.6279081707
 20
11.3410304441
 30
0.0
 10
13.630094286
 20
11.3365756095
 30
0.0
  0
SPLINE
  5
27D
100
AcDbEntity
  8
0
100
AcDbSpline
 62
7
  6
CONTINUOUS
 70
0
 71
3
 72
12
 73
8
 74
0
 42
0.0000001
 43
0.0000001
 44
0.0000000001
 40
0.0
 40
0.0
 40
0.0
 40
0.0
 40
0.2645727256
 40
0.5363567732
 40
0.6665431021
 40
0.7886507673
 40
1.0
 40
1.0
 40
1.0
 40
1.0
 10
14.1136882362
 20
11.3671666513
 30
0.0
 10
14.1199002074
 20
11.3671666513
 30
0.0
 10
14.1325166094
 20
11.365461383
 30
0.0
 10
14.1473325416
 20
11.3600398773
 30
0.0
 10
14.158003065
 20
11.3538336603
 30
0.0
 10
14.1666225397
 20
11.3471886907
 30
0.0
 10
14.1718418286
 20
11.3410304441
 30
0.0
 10
14.1740279439
 20
11.3365756095
 30
0.0
  0
SPLINE
  5
27E
100
AcDbEntity
  8
0
100
AcDbSpline
 62
7
  6
CONTINUOUS
 70
0
 71
3
 72
12
 73
8
 74
0
 42
0.0000001
 43
0.0000001
 44
0.0000000001
 40
0.0
 40
0.0
 40
0.0
 40
0.0
 40
0.2645727256
 40
0.5363567732
 40
0.6665431021
 40
0.7886507673
 40
1.0
 40
1.0
 40
1.0
 40
1.0
 10
14.657621894
 20
11.3671666513
 30
0.0
 10
14.6638338653
 20
11.3671666513
 30
0.0
 10
14.6764502673
 20
11.365461383
 30
0.0
 10
14.6912661995
 20
11.3600398773
 30
0.0
 10
14.7019367229
 20
11.3538336603
 30
0.0
 10
14.7105561976
 20
11.3471886907
 30
0.0
 10
14.7157754865
 20
11.3410304441
 30
0.0
 10
14.7179616017
 20
11.3365756095
 30
0.0
  0
SPLINE
  5
27F
100
AcDbEntity
  8
0
100
AcDbSpline
 62
7
  6
CONTINUOUS
 70
0
 71
3
 72
12
 73
8
 74
0
 42
0.0000001
 43
0.0000001
 44
0.0000000001
 40
0.0
 40
0.0
 40
0.0
 40
0.0
 40
0.2645727256
 40
0.5363567732
 40
0.6665431021
 40
0.7886507673
 40
1.0
 40
1.0
 40
1.0
 40
1.0
 10
15.2015555519
 20
11.3671666513
 30
0.0
 10
15.2077675232
 20
11.3671666513
 30
0.0
 10
15.2203839252
 20
11.365461383
 30
0.0
 10
15.2351998574
 20
11.3600398773
 30
0.0
 10
15.2458703807
 20
11.3538336603
 30
0.0
 10
15.2544898555
 20
11.3471886907
 30
0.0
 10
15.2597091443
 20
11.3410304441
 30
0.0
 10
15.2618952596
 20
11.3365756095
 30
0.0
  0
SPLINE
  5
280
100
AcDbEntity
  8
0
100
AcDbSpline
 62
7
  6
CONTINUOUS
 70
0
 71
3
 72
12
 73
8
 74
0
 42
0.0000001
 43
0.0000001
 44
0.0000000001
 40
0.0
 40
0.0
 40
0.0
 40
0.0
 40
0.2645727256
 40
0.5363567732
 40
0.6665431021
 40
0.7886507673
 40
1.0
 40
1.0
 40
1.0
 40
1.0
 10
15.7454892098
 20
11.3671666513
 30
0.0
 10
15.751701181
 20
11.3671666513
 30
0.0
 10
15.7643175831
 20
11.365461383
 30
0.0
 10
15.7791335152
 20
11.3600398773
 30
0.0
 10
15.7898040386
 20
11.3538336603
 30
0.0
 10
15.7984235134
 20
11.3471886907
 30
0.0
 10
15.8036428022
 20
11.3410304441
 30
0.0
 10
15.8058289175
 20
11.3365756095
 30
0.0
  0
SPLINE
  5
281
100
AcDbEntity
  8
0
100
AcDbSpline
 62
7
  6
CONTINUOUS
 70
0
 71
3
 72
12
 73
8
 74
0
 42
0.0000001
 43
0.0000001
 44
0.0000000001
 40
0.0
 40
0.0
 40
0.0
 40
0.0
 40
0.2645727256
 40
0.5363567732
 40
0.6665431021
 40
0.7886507673
 40
1.0
 40
1.0
 40
1.0
 40
1.0
 10
16.2894228677
 20
11.3671666513
 30
0.0
 10
16.2956348389
 20
11.3671666513
 30
0.0
 10
16.3082512409
 20
11.365461383
 30
0.0
 10
16.3230671731
 20
11.3600398773
 30
0.0
 10
16.3337376965
 20
11.3538336603
 30
0.0
 10
16.3423571712
 20
11.3471886907
 30
0.0
 10
16.3475764601
 20
11.3410304441
 30
0.0
 10
16.3497625754
 20
11.3365756095
 30
0.0
  0
SPLINE
  5
282
100
AcDbEntity
  8
0
100
AcDbSpline
 62
7
  6
CONTINUOUS
 70
0
 71
3
 72
11
 73
7
 74
0
 42
0.0000001
 43
0.0000001
 44
0.0000000001
 40
0.0
 40
0.0
 40
0.0
 40
0.0
 40
0.2336627515
 40
0.4744485601
 40
0.7285753422
 40
1.0
 40
1.0
 40
1.0
 40
1.0
 10
16.155760458
 20
11.2746857663
 30
0.0
 10
16.1570520311
 20
11.2788621223
 30
0.0
 10
16.1587466254
 20
11.2876580418
 30
0.0
 10
16.1584500216
 20
11.3013759156
 30
0.0
 10
16.1553669681
 20
11.3154572106
 30
0.0
 10
16.1516574034
 20
11.3246139095
 30
0.0
 10
16.1494203342
 20
11.3291725774
 30
0.0
  0
SPLINE
  5
283
100
AcDbEntity
  8
0
100
AcDbSpline
 62
7
  6
CONTINUOUS
 70
0
 71
3
 72
11
 73
7
 74
0
 42
0.0000001
 43
0.0000001
 44
0.0000000001
 40
0.0
 40
0.0
 40
0.0
 40
0.0
 40
0.2337006148
 40
0.4744600685
 40
0.7284408233
 40
1.0
 40
1.0
 40
1.0
 40
1.0
 10
16.6996949635
 20
11.2746855024
 30
0.0
 10
16.7009860311
 20
11.2788627829
 30
0.0
 10
16.7026800589
 20
11.287659114
 30
0.0
 10
16.7023822822
 20
11.3013741701
 30
0.0
 10
16.699305179
 20
11.3154562103
 30
0.0
 10
16.695592183
 20
11.3246116237
 30
0.0
 10
16.693353992
 20
11.3291725774
 30
0.0
  0
SPLINE
  5
284
100
AcDbEntity
  8
0
100
AcDbSpline
 62
7
  6
CONTINUOUS
 70
0
 71
3
 72
11
 73
7
 74
0
 42
0.0000001
 43
0.0000001
 44
0.0000000001
 40
0.0
 40
0.0
 40
0.0
 40
0.0
 40
0.2336627515
 40
0.4744485601
 40
0.7285753422
 40
1.0
 40
1.0
 40
1.0
 40
1.0
 10
15.0678931422
 20
11.2746857663
 30
0.0
 10
15.0691847153
 20
11.2788621223
 30
0.0
 10
15.0708793097
 20
11.2876580418
 30
0.0
 10
15.0705827059
 20
11.3013759156
 30
0.0
 10
15.0674996523
 20
11.3154572106
 30
0.0
 10
15.0637900877
 20
11.3246139095
 30
0.0
 10
15.0615530184
 20
11.3291725774
 30
0.0
  0
SPLINE
  5
285
100
AcDbEntity
  8
0
100
AcDbSpline
 62
7
  6
CONTINUOUS
 70
0
 71
3
 72
9
 73
5
 74
0
 42
0.0000001
 43
0.0000001
 44
0.0000000001
 40
0.0
 40
0.0
 40
0.0
 40
0.0
 40
0.5259296871
 40
1.0
 40
1.0
 40
1.0
 40
1.0
 10
13.9700528222
 20
11.3365756095
 30
0.0
 10
13.9689020884
 20
11.3389205585
 30
0.0
 10
13.9672904279
 20
11.3437319533
 30
0.0
 10
13.9676668299
 20
11.3488559184
 30
0.0
 10
13.9683618709
 20
11.3511055119
 30
0.0
  0
SPLINE
  5
286
100
AcDbEntity
  8
0
100
AcDbSpline
 62
7
  6
CONTINUOUS
 70
0
 71
3
 72
11
 73
7
 74
0
 42
0.0000001
 43
0.0000001
 44
0.0000000001
 40
0.0
 40
0.0
 40
0.0
 40
0.0
 40
0.2336532332
 40
0.4744671424
 40
0.7286301049
 40
1.0
 40
1.0
 40
1.0
 40
1.0
 10
13.9800265107
 20
11.274685553
 30
0.0
 10
13.9813180067
 20
11.2788617378
 30
0.0
 10
13.9830116054
 20
11.2876581474
 30
0.0
 10
13.9827155905
 20
11.3013770684
 30
0.0
 10
13.9796304319
 20
11.315458053
 30
0.0
 10
13.9759223163
 20
11.3246148379
 30
0.0
 10
13.9736857027
 20
11.3291725774
 30
0.0
  0
SPLINE
  5
287
100
AcDbEntity
  8
0
100
AcDbSpline
 62
7
  6
CONTINUOUS
 70
0
 71
3
 72
9
 73
5
 74
0
 42
0.0000001
 43
0.0000001
 44
0.0000000001
 40
0.0
 40
0.0
 40
0.0
 40
0.0
 40
0.5259296871
 40
1.0
 40
1.0
 40
1.0
 40
1.0
 10
14.51398648
 20
11.3365756095
 30
0.0
 10
14.5128357462
 20
11.3389205585
 30
0.0
 10
14.5112240858
 20
11.3437319533
 30
0.0
 10
14.5116004878
 20
11.3488559184
 30
0.0
 10
14.5122955288
 20
11.3511055119
 30
0.0
  0
SPLINE
  5
288
100
AcDbEntity
  8
0
100
AcDbSpline
 62
7
  6
CONTINUOUS
 70
0
 71
3
 72
9
 73
5
 74
0
 42
0.0000001
 43
0.0000001
 44
0.0000000001
 40
0.0
 40
0.0
 40
0.0
 40
0.0
 40
0.5259296871
 40
1.0
 40
1.0
 40
1.0
 40
1.0
 10
15.0579201379
 20
11.3365756095
 30
0.0
 10
15.0567694041
 20
11.3389205585
 30
0.0
 10
15.0551577437
 20
11.3437319533
 30
0.0
 10
15.0555341457
 20
11.3488559184
 30
0.0
 10
15.0562291866
 20
11.3511055119
 30
0.0
  0
SPLINE
  5
289
100
AcDbEntity
  8
0
100
AcDbSpline
 62
7
  6
CONTINUOUS
 70
0
 71
3
 72
9
 73
5
 74
0
 42
0.0000001
 43
0.0000001
 44
0.0000000001
 40
0.0
 40
0.0
 40
0.0
 40
0.0
 40
0.5259296871
 40
1.0
 40
1.0
 40
1.0
 40
1.0
 10
15.6018537958
 20
11.3365756095
 30
0.0
 10
15.600703062
 20
11.3389205585
 30
0.0
 10
15.5990914016
 20
11.3437319533
 30
0.0
 10
15.5994678035
 20
11.3488559184
 30
0.0
 10
15.6001628445
 20
11.3511055119
 30
0.0
  0
SPLINE
  5
28A
100
AcDbEntity
  8
0
100
AcDbSpline
 62
7
  6
CONTINUOUS
 70
0
 71
3
 72
11
 73
7
 74
0
 42
0.0000001
 43
0.0000001
 44
0.0000000001
 40
0.0
 40
0.0
 40
0.0
 40
0.0
 40
0.2336627515
 40
0.4744485601
 40
0.7285753422
 40
1.0
 40
1.0
 40
1.0
 40
1.0
 10
15.6118268001
 20
11.2746857663
 30
0.0
 10
15.6131183732
 20
11.2788621223
 30
0.0
 10
15.6148129676
 20
11.2876580418
 30
0.0
 10
15.6145163638
 20
11.3013759156
 30
0.0
 10
15.6114333102
 20
11.3154572106
 30
0.0
 10
15.6077237456
 20
11.3246139095
 30
0.0
 10
15.6054866763
 20
11.3291725774
 30
0.0
  0
SPLINE
  5
28B
100
AcDbEntity
  8
0
100
AcDbSpline
 62
7
  6
CONTINUOUS
 70
0
 71
3
 72
9
 73
5
 74
0
 42
0.0000001
 43
0.0000001
 44
0.0000000001
 40
0.0
 40
0.0
 40
0.0
 40
0.0
 40
0.5259296871
 40
1.0
 40
1.0
 40
1.0
 40
1.0
 10
16.1457874537
 20
11.3365756095
 30
0.0
 10
16.1446367199
 20
11.3389205585
 30
0.0
 10
16.1430250594
 20
11.3437319533
 30
0.0
 10
16.1434014614
 20
11.3488559184
 30
0.0
 10
16.1440965024
 20
11.3511055119
 30
0.0
  0
SPLINE
  5
28C
100
AcDbEntity
  8
0
100
AcDbSpline
 62
7
  6
CONTINUOUS
 70
0
 71
3
 72
11
 73
7
 74
0
 42
0.0000001
 43
0.0000001
 44
0.0000000001
 40
0.0
 40
0.0
 40
0.0
 40
0.0
 40
0.2336532332
 40
0.4744671424
 40
0.7286301049
 40
1.0
 40
1.0
 40
1.0
 40
1.0
 10
14.5239601685
 20
11.274685553
 30
0.0
 10
14.5252516646
 20
11.2788617378
 30
0.0
 10
14.5269452632
 20
11.2876581474
 30
0.0
 10
14.5266492483
 20
11.3013770684
 30
0.0
 10
14.5235640898
 20
11.315458053
 30
0.0
 10
14.5198559742
 20
11.3246148379
 30
0.0
 10
14.5176193605
 20
11.3291725774
 30
0.0
  0
SPLINE
  5
28D
100
AcDbEntity
  8
0
100
AcDbSpline
 62
7
  6
CONTINUOUS
 70
0
 71
3
 72
9
 73
5
 74
0
 42
0.0000001
 43
0.0000001
 44
0.0000000001
 40
0.0
 40
0.0
 40
0.0
 40
0.0
 40
0.5259296871
 40
1.0
 40
1.0
 40
1.0
 40
1.0
 10
16.6897211115
 20
11.3365756095
 30
0.0
 10
16.6885703777
 20
11.3389205585
 30
0.0
 10
16.6869587173
 20
11.3437319533
 30
0.0
 10
16.6873351193
 20
11.3488559184
 30
0.0
 10
16.6880301603
 20
11.3511055119
 30
0.0
  0
ENDSEC
  0
SECTION
  2
OBJECTS
  0
DICTIONARY
  5
C
100
AcDbDictionary
280
0
281
1
  3
ACAD_GROUP
350
D
  3
ACAD_MLINESTYLE
350
17
  3
ACAD_LAYOUT
350
1A
  3
ACAD_PLOTSETTINGS
350
19
  3
ACAD_PLOTSTYLENAME
350
E
  0
DICTIONARY
  5
D
102
{ACAD_REACTORS
330
C
102
}
100
AcDbDictionary
280
0
281
1
  0
ACDBDICTIONARYWDFLT
  5
E
102
{ACAD_REACTORS
330
C
102
}
100
AcDbDictionary
281
1
  3
Normal
350
F
100
AcDbDictionaryWithDefault
340
F
  0
DICTIONARY
  5
17
102
{ACAD_REACTORS
330
C
102
}
100
AcDbDictionary
280
0
281
1
  3
Standard
350
18
  0
DICTIONARY
  5
19
102
{ACAD_REACTORS
330
C
102
}
100
AcDbDictionary
281
1
  0
DICTIONARY
  5
1A
102
{ACAD_REACTORS
330
C
102
}
100
AcDbDictionary
281
1
  3
Model
350
28E
  3
Layout1
350
28F
  0
ACDBPLACEHOLDER
  5
F
102
{ACAD_REACTORS
330
E
102
}
  0
MLINESTYLE
  5
18
102
{ACAD_REACTORS
330
17
102
}
100
AcDbMlineStyle
  2
STANDARD
 70
0
  3

 62
256
 51
90.0
 52
90.0
 71
2
 49
0.5
 62
256
  6
BYLAYER
 49
-0.5
 62
256
  6
BYLAYER
  0
LAYOUT
  5
28E
102
{ACAD_REACTORS
330
1A
102
}
100
AcDbPlotSettings
  1

  2
none_device
  4
ANSI_C_(22.00_x_17.00_Inches)
  6

 40
0.0
 41
0.0
 42
0.0
 43
0.0
 44
558.8
 45
431.8
 46
0.0
 47
0.0
 48
0.0
 49
0.0
140
0.0
141
0.0
142
1.0
143
1.0
 70
1024
 72
0
 73
0
 74
0
  7

 75
0
147
1.0
148
0.0
149
0.0
100
AcDbLayout
  1
Model
 70
0
 71
0
 10
0.0
 20
0.0
 11
22.0
 21
17.0
 12
0.0
 22
0.0
 32
0.0
 14
0.0
 24
0.0
 34
0.0
 15
0.0
 25
0.0
 35
0.0
146
0.0
 13
0.0
 23
0.0
 33
0.0
 16
1.0
 26
0.0
 36
0.0
 17
0.0
 27
1.0
 37
0.0
 76
0
330
216
345
0
346
0
  0
LAYOUT
  5
28F
102
{ACAD_REACTORS
330
1A
102
}
100
AcDbPlotSettings
  1

  2
none_device
  4
ANSI_C_(22.00_x_17.00_Inches)
  6

 40
0.0
 41
0.0
 42
0.0
 43
0.0
 44
558.8
 45
431.8
 46
0.0
 47
0.0
 48
0.0
 49
0.0
140
0.0
141
0.0
142
1.0
143
1.0
 70
0
 72
0
 73
0
 74
0
  7

 75
0
147
1.0
148
0.0
149
0.0
100
AcDbLayout
  1
Layout1
 70
0
 71
1
 10
0.0
 20
0.0
 11
22.0
 21
17.0
 12
0.0
 22
0.0
 32
0.0
 14
0.0
 24
0.0
 34
0.0
 15
0.0
 25
0.0
 35
0.0
146
0.0
 13
0.0
 23
0.0
 33
0.0
 16
1.0
 26
0.0
 36
0.0
 17
0.0
 27
1.0
 37
0.0
 76
0
330
217
345
0
346
0
  0
ENDSEC
  0
EOF