999
DXF file: _cgs_temp_output.dxf
999
Pro/ENGINEER 2015110 by Parametric Technology Corporation
  0
SECTION
  2
HEADER
  9
$ACADVER
  1
AC1021
  9
$DWGCODEPAGE
  3
ANSI_1252
  9
$EXTMAX
 10
22.0
 20
17.0
 30
0.0
  9
$EXTMIN
 10
0.0
 20
0.0
 30
0.0
  9
$LIMMIN
 10
0.0
 20
0.0
  9
$LIMMAX
 10
22.0
 20
17.0
  9
$VIEWCTR
 10
11.0
 20
8.5
  9
$VIEWSIZE
 40
17.0
  9
$CLAYER
  8
0
  9
$LTSCALE
 40
1.21
  9
$CELTYPE
  6
BYLAYER
  9
$DIMSCALE
 40
1.0
  9
$DIMASZ
 40
0.1875
  9
$DIMEXO
 40
0.0625
  9
$DIMDLI
 40
0.836
  9
$DIMEXE
 40
0.125
  9
$DIMCEN
 40
0.198
  9
$DIMLFAC
 40
1.0
  9
$DIMBLK
  1
_CLOSED
  9
$DIMALT
 70
0
  9
$DIMALTF
 40
25.4
  9
$DIMTXT
 40
0.15625
  9
$DIMTOL
 70
0
  9
$DIMLIM
 70
0
  9
$DIMTFAC
 40
1.0
  9
$DIMGAP
 40
0.09
  9
$DIMDSEP
 70
46
  9
$AUNITS
 70
0
  9
$PDMODE
 70
3
  9
$PDSIZE
 40
0.3125
  9
$HANDSEED
  5
290
  9
$TILEMODE
 70
1
  9
$MEASUREMENT
 70
0
  9
$INSUNITS
 70
1
  0
ENDSEC
  0
SECTION
  2
CLASSES
  0
CLASS
  1
ACDBDICTIONARYWDFLT
  2
AcDbDictionaryWithDefault
  3
AutoCAD 2000
 90
0
 91
1
280
0
281
0
  0
CLASS
  1
ACDBPLACEHOLDER
  2
AcDbPlaceHolder
  3
AutoCAD 2000
 90
0
 91
1
280
0
281
0
  0
CLASS
  1
LAYOUT
  2
AcDbLayout
  3
AutoCAD 2000
 90
0
 91
0
280
0
281
0
  0
ENDSEC
  0
SECTION
  2
TABLES
  0
TABLE
  2
VPORT
  5
8
100
AcDbSymbolTable
 70
2
  0
VPORT
  5
1F4
100
AcDbSymbolTableRecord
100
AcDbViewportTableRecord
  2
*ACTIVE
 70
0
 10
0.0
 20
0.0
 11
1.0
 21
1.0
 12
11.0
 22
8.5
 13
0.0
 23
0.0
 14
1.0
 24
1.0
 15
0.0
 25
0.0
 16
0.0
 26
0.0
 36
1.0
 17
0.0
 27
0.0
 37
0.0
 40
17.0
 41
1.2941176471
 42
50.0
 43
0.0
 44
0.0
 50
0.0
 51
0.0
 71
0
 72
100
 73
1
 74
1
 75
0
 76
0
 77
0
 78
0
  0
ENDTAB
  0
TABLE
  2
LTYPE
  5
5
100
AcDbSymbolTable
 70
6
  0
LTYPE
  5
14
100
AcDbSymbolTableRecord
100
AcDbLinetypeTableRecord
  2
BYBLOCK
 70
0
  3

 72
65
 73
0
 40
0.0
  0
LTYPE
  5
15
100
AcDbSymbolTableRecord
100
AcDbLinetypeTableRecord
  2
BYLAYER
 70
0
  3

 72
65
 73
0
 40
0.0
  0
LTYPE
  5
16
100
AcDbSymbolTableRecord
100
AcDbLinetypeTableRecord
  2
CONTINUOUS
 70
64
  3
Solid line
 72
65
 73
0
 40
0.0
  0
LTYPE
  5
1F5
100
AcDbSymbolTableRecord
100
AcDbLinetypeTableRecord
  2
CENTER
 70
64
  3
____ _ ____ _ ____ _ ____ _ ____ _ ____ _ ____
 72
65
 73
4
 40
0.6
 49
0.375
 74
0
 49
-0.075
 74
0
 49
0.075
 74
0
 49
-0.075
 74
0
  0
LTYPE
  5
1F6
100
AcDbSymbolTableRecord
100
AcDbLinetypeTableRecord
  2
HIDDEN
 70
64
  3
- - - - - - - - - - - - - - - - - - - -
 72
65
 73
2
 40
0.2
 49
0.1
 74
0
 49
-0.1
 74
0
  0
LTYPE
  5
1F7
100
AcDbSymbolTableRecord
100
AcDbLinetypeTableRecord
  2
PHANTOM
 70
64
  3
_____ _ _ _____ _ _ _____ _ _ _____
 72
65
 73
6
 40
0.8
 49
0.45
 74
0
 49
-0.05
 74
0
 49
0.1
 74
0
 49
-0.05
 74
0
 49
0.1
 74
0
 49
-0.05
 74
0
  0
LTYPE
  5
1F8
100
AcDbSymbolTableRecord
100
AcDbLinetypeTableRecord
  2
DOT
 70
64
  3
. . . . . . . . . . . . . . . . . . . .
 72
65
 73
2
 40
0.2
 49
0.1
 74
0
 49
-0.1
 74
0
  0
LTYPE
  5
1F9
100
AcDbSymbolTableRecord
100
AcDbLinetypeTableRecord
  2
DASHED
 70
64
  3
- - - - - - - - - - - - - - - - - - - -
 72
65
 73
2
 40
0.2
 49
0.1
 74
0
 49
-0.1
 74
0
  0
ENDTAB
  0
TABLE
  2
LAYER
  5
2
100
AcDbSymbolTable
 70
36
  0
LAYER
  5
10
100
AcDbSymbolTableRecord
100
AcDbLayerTableRecord
  2
0
 70
0
 62
7
  6
CONTINUOUS
370
-3
390
F
  0
LAYER
  5
1FA
100
AcDbSymbolTableRecord
100
AcDbLayerTableRecord
  2
DEFAULT_1
 70
0
 62
7
  6
CENTER
370
-3
390
F
  0
LAYER
  5
1FB
100
AcDbSymbolTableRecord
100
AcDbLayerTableRecord
  2
DEFAULT_2
 70
0
 62
8
  6
HIDDEN
370
-3
390
F
  0
LAYER
  5
1FC
100
AcDbSymbolTableRecord
100
AcDbLayerTableRecord
  2
DEFAULT_3
 70
0
 62
7
  6
PHANTOM
370
-3
390
F
  0
LAYER
  5
1FD
100
AcDbSymbolTableRecord
100
AcDbLayerTableRecord
  2
01_ALL_DTM_PLN
 70
0
 62
7
  6
CONTINUOUS
370
-3
390
F
  0
LAYER
  5
1FE
100
AcDbSymbolTableRecord
100
AcDbLayerTableRecord
  2
01__ASM_ALL_DTM_PLN
 70
0
 62
7
  6
CONTINUOUS
370
-3
390
F
  0
LAYER
  5
1FF
100
AcDbSymbolTableRecord
100
AcDbLayerTableRecord
  2
01__ASM_DEF_DTM_PLN
 70
0
 62
7
  6
CONTINUOUS
370
-3
390
F
  0
LAYER
  5
200
100
AcDbSymbolTableRecord
100
AcDbLayerTableRecord
  2
01___PRT_ALL_DTM_PLN
 70
0
 62
7
  6
CONTINUOUS
370
-3
390
F
  0
LAYER
  5
201
100
AcDbSymbolTableRecord
100
AcDbLayerTableRecord
  2
01___PRT_DEF_DTM_PLN
 70
0
 62
7
  6
CONTINUOUS
370
-3
390
F
  0
LAYER
  5
202
100
AcDbSymbolTableRecord
100
AcDbLayerTableRecord
  2
02_ALL_AXES
 70
0
 62
7
  6
CONTINUOUS
370
-3
390
F
  0
LAYER
  5
203
100
AcDbSymbolTableRecord
100
AcDbLayerTableRecord
  2
02__ASM_ALL_AXES
 70
0
 62
7
  6
CONTINUOUS
370
-3
390
F
  0
LAYER
  5
204
100
AcDbSymbolTableRecord
100
AcDbLayerTableRecord
  2
02___PRT_ALL_AXES
 70
0
 62
7
  6
CONTINUOUS
370
-3
390
F
  0
LAYER
  5
205
100
AcDbSymbolTableRecord
100
AcDbLayerTableRecord
  2
03_ALL_CURVES
 70
0
 62
7
  6
CONTINUOUS
370
-3
390
F
  0
LAYER
  5
206
100
AcDbSymbolTableRecord
100
AcDbLayerTableRecord
  2
03__ASM_ALL_CURVES
 70
0
 62
7
  6
CONTINUOUS
370
-3
390
F
  0
LAYER
  5
207
100
AcDbSymbolTableRecord
100
AcDbLayerTableRecord
  2
03___PRT_ALL_CURVES
 70
0
 62
7
  6
CONTINUOUS
370
-3
390
F
  0
LAYER
  5
208
100
AcDbSymbolTableRecord
100
AcDbLayerTableRecord
  2
04_ALL_DTM_PNT
 70
0
 62
7
  6
CONTINUOUS
370
-3
390
F
  0
LAYER
  5
209
100
AcDbSymbolTableRecord
100
AcDbLayerTableRecord
  2
04__ASM_ALL_DTM_PNT
 70
0
 62
7
  6
CONTINUOUS
370
-3
390
F
  0
LAYER
  5
20A
100
AcDbSymbolTableRecord
100
AcDbLayerTableRecord
  2
04___PRT_ALL_DTM_PNT
 70
0
 62
7
  6
CONTINUOUS
370
-3
390
F
  0
LAYER
  5
20B
100
AcDbSymbolTableRecord
100
AcDbLayerTableRecord
  2
05_ALL_DTM_CSYS
 70
0
 62
7
  6
CONTINUOUS
370
-3
390
F
  0
LAYER
  5
20C
100
AcDbSymbolTableRecord
100
AcDbLayerTableRecord
  2
05__ASM_ALL_DTM_CSYS
 70
0
 62
7
  6
CONTINUOUS
370
-3
390
F
  0
LAYER
  5
20D
100
AcDbSymbolTableRecord
100
AcDbLayerTableRecord
  2
05__ASM_DEF_DTM_CSYS
 70
0
 62
7
  6
CONTINUOUS
370
-3
390
F
  0
LAYER
  5
20E
100
AcDbSymbolTableRecord
100
AcDbLayerTableRecord
  2
05___PRT_ALL_DTM_CSYS
 70
0
 62
7
  6
CONTINUOUS
370
-3
390
F
  0
LAYER
  5
20F
100
AcDbSymbolTableRecord
100
AcDbLayerTableRecord
  2
05___PRT_DEF_DTM_CSYS
 70
0
 62
7
  6
CONTINUOUS
370
-3
390
F
  0
LAYER
  5
210
100
AcDbSymbolTableRecord
100
AcDbLayerTableRecord
  2
06_ALL_SURFS
 70
0
 62
7
  6
CONTINUOUS
370
-3
390
F
  0
LAYER
  5
211
100
AcDbSymbolTableRecord
100
AcDbLayerTableRecord
  2
06__ASM_ALL_SURFS
 70
0
 62
7
  6
CONTINUOUS
370
-3
390
F
  0
LAYER
  5
212
100
AcDbSymbolTableRecord
100
AcDbLayerTableRecord
  2
06___PRT_ALL_SURFS
 70
0
 62
7
  6
CONTINUOUS
370
-3
390
F
  0
LAYER
  5
213
100
AcDbSymbolTableRecord
100
AcDbLayerTableRecord
  2
07__ASM_ALL_SKELETONS
 70
0
 62
7
  6
CONTINUOUS
370
-3
390
F
  0
ENDTAB
  0
TABLE
  2
STYLE
  5
3
100
AcDbSymbolTable
 70
1
  0
STYLE
  5
11
100
AcDbSymbolTableRecord
100
AcDbTextStyleTableRecord
  2
STANDARD
 70
0
 40
0.0
 41
0.8
 50
0.0
 71
0
 42
0.2
  3
txt
  4

  0
STYLE
  5
214
100
AcDbSymbolTableRecord
100
AcDbTextStyleTableRecord
  2
TEXTSTYLE_1
 70
0
 40
0.0
 41
0.8
 50
0.0
 71
0
 42
0.2
  3
gdt
  4

  0
ENDTAB
  0
TABLE
  2
VIEW
  5
6
100
AcDbSymbolTable
 70
0
  0
ENDTAB
  0
TABLE
  2
UCS
  5
7
100
AcDbSymbolTable
 70
0
  0
ENDTAB
  0
TABLE
  2
APPID
  5
9
100
AcDbSymbolTable
 70
1
  0
APPID
  5
215
100
AcDbSymbolTableRecord
100
AcDbRegAppTableRecord
  2
ACAD
 70
0
  0
ENDTAB
  0
TABLE
  2
BLOCK_RECORD
  5
1
100
AcDbSymbolTable
 70
0
  0
BLOCK_RECORD
  5
216
100
AcDbSymbolTableRecord
100
AcDbBlockTableRecord
  2
*Model_Space
  0
BLOCK_RECORD
  5
217
100
AcDbSymbolTableRecord
100
AcDbBlockTableRecord
  2
*Paper_Space
  0
ENDTAB
  0
TABLE
  2
DIMSTYLE
  5
A
100
AcDbSymbolTable
 70
1
100
AcDbDimStyleTable
 71
0
  0
DIMSTYLE
105
218
100
AcDbSymbolTableRecord
100
AcDbDimStyleTableRecord
  2
STANDARD
 70
0
  3

  4

 40
1.0
 41
0.1875
 42
0.0625
 43
0.38
 44
0.125
 45
0.0
 46
0.0
 47
0.0001
 48
0.0001
140
0.15625
141
0.09
142
0.0
143
25.4
144
1.0
145
0.0
146
1.0
147
0.09
 71
0.0
 72
0.0
 73
1
 74
1
 75
0
 76
0
 77
0
 78
4
170
0
171
2
172
0
173
0
174
0
175
0
176
0
177
0
178
0
270
2
271
4
272
4
273
2
274
2
275
0
280
0
281
0
282
0
283
1
284
4
285
0
286
0
287
3
288
0
340
11
278
46
  0
ENDTAB
  0
ENDSEC
  0
SECTION
  2
BLOCKS
  0
BLOCK
  5
20
100
AcDbEntity
  8
0
100
AcDbBlockBegin
  2
*Model_Space
 70
0
 10
0.0
 20
0.0
 30
0.0
  3
*Model_Space
  1

  0
ENDBLK
  5
21
100
AcDbEntity
  8
0
100
AcDbBlockEnd
  0
BLOCK
  5
1C
100
AcDbEntity
  8
0
100
AcDbBlockBegin
  2
*Paper_Space
 70
0
 10
0.0
 20
0.0
 30
0.0
  3
*Paper_Space
  1

  0
ENDBLK
  5
1D
100
AcDbEntity
  8
0
100
AcDbBlockEnd
  0
ENDSEC
  0
SECTION
  2
ENTITIES
  0
MTEXT
  5
219
100
AcDbEntity
  8
0
100
AcDbMText
 62
7
  6
CONTINUOUS
  7
STANDARD
 71
1
 72
1
 10
15.9560215477
 20
0.9479130325
 30
0.0
 11
1.0
 21
0.0
 31
0.0
 44
0.9
  1
SCALE: 1:0.500
 40
0.3
 41
3.36
  0
LINE
  5
21A
100
AcDbEntity
  8
0
100
AcDbLine
 62
7
  6
CONTINUOUS
 10
0.0
 20
0.0
 11
0.0
 21
17.0
  0
LINE
  5
21B
100
AcDbEntity
  8
0
100
AcDbLine
 62
7
  6
CONTINUOUS
 10
0.0
 20
0.0
 11
22.0
 21
0.0
  0
LINE
  5
21C
100
AcDbEntity
  8
0
100
AcDbLine
 62
7
  6
CONTINUOUS
 10
0.0
 20
17.0
 11
22.0
 21
17.0
  0
LINE
  5
21D
100
AcDbEntity
  8
0
100
AcDbLine
 62
7
  6
CONTINUOUS
 10
22.0
 20
0.0
 11
22.0
 21
17.0
  0
LINE
  5
21E
100
AcDbEntity
  8
0
100
AcDbLine
 62
7
  6
CONTINUOUS
 10
4.949264914
 20
5.6500411566
 11
4.949264914
 21
5.5555529676
  0
LINE
  5
21F
100
AcDbEntity
  8
0
100
AcDbLine
 62
7
  6
CONTINUOUS
 10
5.0230838116
 20
5.5227445687
 11
5.0230838116
 21
5.513230133
  0
LINE
  5
220
100
AcDbEntity
  8
0
100
AcDbLine
 62
7
  6
CONTINUOUS
 10
5.2691468037
 20
5.513230133
 11
5.2691468037
 21
5.5227445687
  0
LINE
  5
221
100
AcDbEntity
  8
0
100
AcDbLine
 62
7
  6
CONTINUOUS
 10
5.416784599
 20
5.5227445687
 11
5.416784599
 21
5.513230133
  0
LINE
  5
222
100
AcDbEntity
  8
0
100
AcDbLine
 62
7
  6
CONTINUOUS
 10
5.6628475911
 20
5.513230133
 11
5.6628475911
 21
5.5227445687
  0
LINE
  5
223
100
AcDbEntity
  8
0
100
AcDbLine
 62
7
  6
CONTINUOUS
 10
5.8104853864
 20
5.5227445687
 11
5.8104853864
 21
5.513230133
  0
LINE
  5
224
100
AcDbEntity
  8
0
100
AcDbLine
 62
7
  6
CONTINUOUS
 10
6.0565483785
 20
5.513230133
 11
6.0565483785
 21
5.5227445687
  0
LINE
  5
225
100
AcDbEntity
  8
0
100
AcDbLine
 62
7
  6
CONTINUOUS
 10
6.2041861738
 20
5.5227445687
 11
6.2041861738
 21
5.513230133
  0
LINE
  5
226
100
AcDbEntity
  8
0
100
AcDbLine
 62
7
  6
CONTINUOUS
 10
4.949264914
 20
5.5555529676
 11
4.9902754126
 21
5.5555529676
  0
LINE
  5
227
100
AcDbEntity
  8
0
100
AcDbLine
 62
7
  6
CONTINUOUS
 10
5.3019552027
 20
5.5555529676
 11
5.3839762001
 21
5.5555529676
  0
LINE
  5
228
100
AcDbEntity
  8
0
100
AcDbLine
 62
7
  6
CONTINUOUS
 10
5.6956559901
 20
5.5555529676
 11
5.7776769875
 21
5.5555529676
  0
LINE
  5
229
100
AcDbEntity
  8
0
100
AcDbLine
 62
7
  6
CONTINUOUS
 10
6.0893567775
 20
5.5555529676
 11
6.1713777749
 21
5.5555529676
  0
LINE
  5
22A
100
AcDbEntity
  8
0
100
AcDbLine
 62
7
  6
CONTINUOUS
 10
6.4830575649
 20
5.5555529676
 11
6.5650785623
 21
5.5555529676
  0
LINE
  5
22B
100
AcDbEntity
  8
0
100
AcDbLine
 62
7
  6
CONTINUOUS
 10
6.8767583523
 20
5.5555529676
 11
6.9587793497
 21
5.5555529676
  0
LINE
  5
22C
100
AcDbEntity
  8
0
100
AcDbLine
 62
7
  6
CONTINUOUS
 10
7.2704591397
 20
5.5555529676
 11
7.3114696384
 21
5.5555529676
  0
LINE
  5
22D
100
AcDbEntity
  8
0
100
AcDbLine
 62
7
  6
CONTINUOUS
 10
7.3114696384
 20
5.6500411566
 11
4.949264914
 21
5.6500411566
  0
LINE
  5
22E
100
AcDbEntity
  8
0
100
AcDbLine
 62
7
  6
CONTINUOUS
 10
6.4502491659
 20
5.513230133
 11
6.4502491659
 21
5.5227445687
  0
LINE
  5
22F
100
AcDbEntity
  8
0
100
AcDbLine
 62
7
  6
CONTINUOUS
 10
6.5978869612
 20
5.5227445687
 11
6.5978869612
 21
5.513230133
  0
LINE
  5
230
100
AcDbEntity
  8
0
100
AcDbLine
 62
7
  6
CONTINUOUS
 10
6.8439499533
 20
5.513230133
 11
6.8439499533
 21
5.5227445687
  0
LINE
  5
231
100
AcDbEntity
  8
0
100
AcDbLine
 62
7
  6
CONTINUOUS
 10
6.9915877486
 20
5.5227445687
 11
6.9915877486
 21
5.513230133
  0
LINE
  5
232
100
AcDbEntity
  8
0
100
AcDbLine
 62
7
  6
CONTINUOUS
 10
7.2376507407
 20
5.513230133
 11
7.2376507407
 21
5.5227445687
  0
LINE
  5
233
100
AcDbEntity
  8
0
100
AcDbLine
 62
7
  6
CONTINUOUS
 10
7.3114696384
 20
5.5555529676
 11
7.3114696384
 21
5.6500411566
  0
LINE
  5
234
100
AcDbEntity
  8
0
100
AcDbLine
 62
7
  6
CONTINUOUS
 10
7.2519744461
 20
9.7457170727
 11
4.8897697217
 21
9.7457170727
  0
LINE
  5
235
100
AcDbEntity
  8
0
100
AcDbLine
 62
7
  6
CONTINUOUS
 10
4.8897697217
 20
15.45437849
 11
4.8897697217
 21
9.7457170727
  0
LINE
  5
236
100
AcDbEntity
  8
0
100
AcDbLine
 62
7
  6
CONTINUOUS
 10
7.2519744461
 20
15.45437849
 11
7.2519744461
 21
9.7457170727
  0
LINE
  5
237
100
AcDbEntity
  8
0
100
AcDbLine
 62
7
  6
CONTINUOUS
 10
4.8897697217
 20
15.45437849
 11
7.2519744461
 21
15.45437849
  0
LINE
  5
238
100
AcDbEntity
  8
0
100
AcDbLine
 62
7
  6
CONTINUOUS
 10
12.7060245483
 20
5.3307034446
 11
12.7060245483
 21
5.5905459643
  0
LINE
  5
239
100
AcDbEntity
  8
0
100
AcDbLine
 62
7
  6
CONTINUOUS
 10
18.4146859656
 20
5.3307034446
 11
12.7060245483
 21
5.3307034446
  0
LINE
  5
23A
100
AcDbEntity
  8
0
100
AcDbLine
 62
7
  6
CONTINUOUS
 10
18.4146859656
 20
5.4960577753
 11
12.7060245483
 21
5.4960577753
  0
LINE
  5
23B
100
AcDbEntity
  8
0
100
AcDbLine
 62
7
  6
CONTINUOUS
 10
18.4146859656
 20
5.5905459643
 11
12.7060245483
 21
5.5905459643
  0
LINE
  5
23C
100
AcDbEntity
  8
0
100
AcDbLine
 62
7
  6
CONTINUOUS
 10
18.4146859656
 20
5.3307034446
 11
18.4146859656
 21
5.5905459643
  0
LINE
  5
23D
100
AcDbEntity
  8
0
100
AcDbLine
 62
7
  6
CONTINUOUS
 10
13.6778963855
 20
10.35569129
 11
13.7067192391
 21
10.2969564899
  0
LINE
  5
23E
100
AcDbEntity
  8
0
100
AcDbLine
 62
7
  6
CONTINUOUS
 10
13.7847188816
 20
10.2765624621
 11
13.7876211828
 21
10.270648194
  0
LINE
  5
23F
100
AcDbEntity
  8
0
100
AcDbLine
 62
7
  6
CONTINUOUS
 10
13.7067192391
 20
10.2969564899
 11
13.7444924097
 21
10.2969564899
  0
LINE
  5
240
100
AcDbEntity
  8
0
100
AcDbLine
 62
7
  6
CONTINUOUS
 10
14.031568507
 20
10.2969564899
 11
14.1071148483
 21
10.2969564899
  0
LINE
  5
241
100
AcDbEntity
  8
0
100
AcDbLine
 62
7
  6
CONTINUOUS
 10
14.3941909455
 20
10.2969564899
 11
14.4697372869
 21
10.2969564899
  0
LINE
  5
242
100
AcDbEntity
  8
0
100
AcDbLine
 62
7
  6
CONTINUOUS
 10
14.7568133841
 20
10.2969564899
 11
14.8323597255
 21
10.2969564899
  0
LINE
  5
243
100
AcDbEntity
  8
0
100
AcDbLine
 62
7
  6
CONTINUOUS
 10
15.1194358227
 20
10.2969564899
 11
15.1949821641
 21
10.2969564899
  0
LINE
  5
244
100
AcDbEntity
  8
0
100
AcDbLine
 62
7
  6
CONTINUOUS
 10
15.4820582613
 20
10.2969564899
 11
15.5576046027
 21
10.2969564899
  0
LINE
  5
245
100
AcDbEntity
  8
0
100
AcDbLine
 62
7
  6
CONTINUOUS
 10
15.8446806999
 20
10.2969564899
 11
15.8824538706
 21
10.2969564899
  0
LINE
  5
246
100
AcDbEntity
  8
0
100
AcDbLine
 62
7
  6
CONTINUOUS
 10
15.853631017
 20
10.35569129
 11
13.6778963855
 21
10.35569129
  0
LINE
  5
247
100
AcDbEntity
  8
0
100
AcDbLine
 62
7
  6
CONTINUOUS
 10
14.0142602069
 20
10.270648194
 11
14.0113579057
 21
10.2765624621
  0
LINE
  5
248
100
AcDbEntity
  8
0
100
AcDbLine
 62
7
  6
CONTINUOUS
 10
14.1473413201
 20
10.2765624621
 11
14.1502436214
 21
10.270648194
  0
LINE
  5
249
100
AcDbEntity
  8
0
100
AcDbLine
 62
7
  6
CONTINUOUS
 10
14.3768826455
 20
10.270648194
 11
14.3739803443
 21
10.2765624621
  0
LINE
  5
24A
100
AcDbEntity
  8
0
100
AcDbLine
 62
7
  6
CONTINUOUS
 10
14.5099637587
 20
10.2765624621
 11
14.5128660599
 21
10.270648194
  0
LINE
  5
24B
100
AcDbEntity
  8
0
100
AcDbLine
 62
7
  6
CONTINUOUS
 10
14.7395050841
 20
10.270648194
 11
14.7366027828
 21
10.2765624621
  0
LINE
  5
24C
100
AcDbEntity
  8
0
100
AcDbLine
 62
7
  6
CONTINUOUS
 10
14.8725861973
 20
10.2765624621
 11
14.8754884985
 21
10.270648194
  0
LINE
  5
24D
100
AcDbEntity
  8
0
100
AcDbLine
 62
7
  6
CONTINUOUS
 10
15.1021275226
 20
10.270648194
 11
15.0992252214
 21
10.2765624621
  0
LINE
  5
24E
100
AcDbEntity
  8
0
100
AcDbLine
 62
7
  6
CONTINUOUS
 10
15.2352086359
 20
10.2765624621
 11
15.2381109371
 21
10.270648194
  0
LINE
  5
24F
100
AcDbEntity
  8
0
100
AcDbLine
 62
7
  6
CONTINUOUS
 10
15.0597710664
 20
14.8274393962
 11
13.6778963855
 21
10.35569129
  0
LINE
  5
250
100
AcDbEntity
  8
0
100
AcDbLine
 62
7
  6
CONTINUOUS
 10
15.4647499612
 20
10.270648194
 11
15.46184766
 21
10.2765624621
  0
LINE
  5
251
100
AcDbEntity
  8
0
100
AcDbLine
 62
7
  6
CONTINUOUS
 10
15.5978310745
 20
10.2765624621
 11
15.6007333757
 21
10.270648194
  0
LINE
  5
252
100
AcDbEntity
  8
0
100
AcDbLine
 62
7
  6
CONTINUOUS
 10
14.0378426183
 20
10.2969564899
 11
14.0184875507
 21
10.2343234682
  0
LINE
  5
253
100
AcDbEntity
  8
0
100
AcDbLine
 62
7
  6
CONTINUOUS
 10
15.8273723998
 20
10.270648194
 11
15.8244700986
 21
10.2765624621
  0
LINE
  5
254
100
AcDbEntity
  8
0
100
AcDbLine
 62
7
  6
CONTINUOUS
 10
15.8824538706
 20
10.2969564899
 11
15.853631017
 21
10.35569129
  0
LINE
  5
255
100
AcDbEntity
  8
0
100
AcDbLine
 62
7
  6
CONTINUOUS
 10
14.4004650569
 20
10.2969564899
 11
14.3811099893
 21
10.2343234682
  0
LINE
  5
256
100
AcDbEntity
  8
0
100
AcDbLine
 62
7
  6
CONTINUOUS
 10
14.7630874954
 20
10.2969564899
 11
14.7437324278
 21
10.2343234682
  0
LINE
  5
257
100
AcDbEntity
  8
0
100
AcDbLine
 62
7
  6
CONTINUOUS
 10
15.125709934
 20
10.2969564899
 11
15.1063548664
 21
10.2343234682
  0
LINE
  5
258
100
AcDbEntity
  8
0
100
AcDbLine
 62
7
  6
CONTINUOUS
 10
15.4883323726
 20
10.2969564899
 11
15.468977305
 21
10.2343234682
  0
LINE
  5
259
100
AcDbEntity
  8
0
100
AcDbLine
 62
7
  6
CONTINUOUS
 10
17.2355056979
 20
14.8274393962
 11
15.853631017
 21
10.35569129
  0
LINE
  5
25A
100
AcDbEntity
  8
0
100
AcDbLine
 62
7
  6
CONTINUOUS
 10
15.8509548112
 20
10.2969564899
 11
15.8315997436
 21
10.2343234682
  0
LINE
  5
25B
100
AcDbEntity
  8
0
100
AcDbLine
 62
7
  6
CONTINUOUS
 10
17.2643285514
 20
14.768704596
 11
15.8824538706
 21
10.2969564899
  0
LINE
  5
25C
100
AcDbEntity
  8
0
100
AcDbLine
 62
7
  6
CONTINUOUS
 10
15.0597710664
 20
14.8274393962
 11
17.2355056979
 21
14.8274393962
  0
LINE
  5
25D
100
AcDbEntity
  8
0
100
AcDbLine
 62
7
  6
CONTINUOUS
 10
17.2643285514
 20
14.768704596
 11
17.2355056979
 21
14.8274393962
  0
ARC
  5
25E
100
AcDbEntity
  8
0
100
AcDbCircle
 62
7
  6
CONTINUOUS
 10
5.1461153077
 20
5.513230133
 40
0.1230314961
100
AcDbArc
 50
180.0
 51
360.0
  0
ARC
  5
25F
100
AcDbEntity
  8
0
100
AcDbCircle
 62
7
  6
CONTINUOUS
 10
5.5398160951
 20
5.513230133
 40
0.1230314961
100
AcDbArc
 50
180.0
 51
360.0
  0
ARC
  5
260
100
AcDbEntity
  8
0
100
AcDbCircle
 62
7
  6
CONTINUOUS
 10
7.1146192447
 20
5.513230133
 40
0.1230314961
100
AcDbArc
 50
180.0
 51
360.0
  0
ARC
  5
261
100
AcDbEntity
  8
0
100
AcDbCircle
 62
7
  6
CONTINUOUS
 10
6.7209184573
 20
5.513230133
 40
0.1230314961
100
AcDbArc
 50
180.0
 51
360.0
  0
ARC
  5
262
100
AcDbEntity
  8
0
100
AcDbCircle
 62
7
  6
CONTINUOUS
 10
6.3272176699
 20
5.513230133
 40
0.1230314961
100
AcDbArc
 50
180.0
 51
360.0
  0
ARC
  5
263
100
AcDbEntity
  8
0
100
AcDbCircle
 62
7
  6
CONTINUOUS
 10
5.9335168825
 20
5.513230133
 40
0.1230314961
100
AcDbArc
 50
180.0
 51
360.0
  0
ARC
  5
264
100
AcDbEntity
  8
0
100
AcDbCircle
 62
7
  6
CONTINUOUS
 10
4.9902754126
 20
5.5227445687
 40
0.032808399
100
AcDbArc
 50
0.0
 51
90.0
  0
ARC
  5
265
100
AcDbEntity
  8
0
100
AcDbCircle
 62
7
  6
CONTINUOUS
 10
5.3019552027
 20
5.5227445687
 40
0.032808399
100
AcDbArc
 50
90.0
 51
180.0
  0
ARC
  5
266
100
AcDbEntity
  8
0
100
AcDbCircle
 62
7
  6
CONTINUOUS
 10
5.3839762001
 20
5.5227445687
 40
0.032808399
100
AcDbArc
 50
0.0
 51
90.0
  0
ARC
  5
267
100
AcDbEntity
  8
0
100
AcDbCircle
 62
7
  6
CONTINUOUS
 10
5.6956559901
 20
5.5227445687
 40
0.032808399
100
AcDbArc
 50
90.0
 51
180.0
  0
ARC
  5
268
100
AcDbEntity
  8
0
100
AcDbCircle
 62
7
  6
CONTINUOUS
 10
5.7776769875
 20
5.5227445687
 40
0.032808399
100
AcDbArc
 50
0.0
 51
90.0
  0
ARC
  5
269
100
AcDbEntity
  8
0
100
AcDbCircle
 62
7
  6
CONTINUOUS
 10
6.0893567775
 20
5.5227445687
 40
0.032808399
100
AcDbArc
 50
90.0
 51
180.0
  0
ARC
  5
26A
100
AcDbEntity
  8
0
100
AcDbCircle
 62
7
  6
CONTINUOUS
 10
6.1713777749
 20
5.5227445687
 40
0.032808399
100
AcDbArc
 50
0.0
 51
90.0
  0
ARC
  5
26B
100
AcDbEntity
  8
0
100
AcDbCircle
 62
7
  6
CONTINUOUS
 10
6.4830575649
 20
5.5227445687
 40
0.032808399
100
AcDbArc
 50
90.0
 51
180.0
  0
ARC
  5
26C
100
AcDbEntity
  8
0
100
AcDbCircle
 62
7
  6
CONTINUOUS
 10
6.5650785623
 20
5.5227445687
 40
0.032808399
100
AcDbArc
 50
0.0
 51
90.0
  0
ARC
  5
26D
100
AcDbEntity
  8
0
100
AcDbCircle
 62
7
  6
CONTINUOUS
 10
6.8767583523
 20
5.5227445687
 40
0.032808399
100
AcDbArc
 50
90.0
 51
180.0
  0
ARC
  5
26E
100
AcDbEntity
  8
0
100
AcDbCircle
 62
7
  6
CONTINUOUS
 10
6.9587793497
 20
5.5227445687
 40
0.032808399
100
AcDbArc
 50
0.0
 51
90.0
  0
ARC
  5
26F
100
AcDbEntity
  8
0
100
AcDbCircle
 62
7
  6
CONTINUOUS
 10
7.2704591397
 20
5.5227445687
 40
0.032808399
100
AcDbArc
 50
90.0
 51
180.0
  0
SPLINE
  5
270
100
AcDbEntity
  8
0
100
AcDbSpline
 62
7
  6
CONTINUOUS
 70
0
 71
3
 72
10
 73
6
 74
0
 42
0.0000001
 43
0.0000001
 44
0.0000000001
 40
0.0
 40
0.0
 40
0.0
 40
0.0
 40
0.4248968357
 40
0.6935227331
 40
1.0
 40
1.0
 40
1.0
 40
1.0
 10
14.0102305976
 20
10.2862490659
 30
0.0
 10
14.011281673
 20
10.2896505105
 30
0.0
 10
14.0161434899
 20
10.2941230934
 30
0.0
 10
14.0241485798
 20
10.2965188342
 30
0.0
 10
14.0290005861
 20
10.2969564899
 30
0.0
 10
14.031568507
 20
10.2969564899
 30
0.0
  0
SPLINE
  5
271
100
AcDbEntity
  8
0
100
AcDbSpline
 62
7
  6
CONTINUOUS
 70
0
 71
3
 72
10
 73
6
 74
0
 42
0.0000001
 43
0.0000001
 44
0.0000000001
 40
0.0
 40
0.0
 40
0.0
 40
0.0
 40
0.4248968357
 40
0.6935227331
 40
1.0
 40
1.0
 40
1.0
 40
1.0
 10
14.3728530361
 20
10.2862490659
 30
0.0
 10
14.3739041116
 20
10.2896505105
 30
0.0
 10
14.3787659285
 20
10.2941230934
 30
0.0
 10
14.3867710183
 20
10.2965188342
 30
0.0
 10
14.3916230247
 20
10.2969564899
 30
0.0
 10
14.3941909455
 20
10.2969564899
 30
0.0
  0
SPLINE
  5
272
100
AcDbEntity
  8
0
100
AcDbSpline
 62
7
  6
CONTINUOUS
 70
0
 71
3
 72
10
 73
6
 74
0
 42
0.0000001
 43
0.0000001
 44
0.0000000001
 40
0.0
 40
0.0
 40
0.0
 40
0.0
 40
0.4248968357
 40
0.6935227331
 40
1.0
 40
1.0
 40
1.0
 40
1.0
 10
14.7354754747
 20
10.2862490659
 30
0.0
 10
14.7365265501
 20
10.2896505105
 30
0.0
 10
14.7413883671
 20
10.2941230934
 30
0.0
 10
14.7493934569
 20
10.2965188342
 30
0.0
 10
14.7542454633
 20
10.2969564899
 30
0.0
 10
14.7568133841
 20
10.2969564899
 30
0.0
  0
SPLINE
  5
273
100
AcDbEntity
  8
0
100
AcDbSpline
 62
7
  6
CONTINUOUS
 70
0
 71
3
 72
10
 73
6
 74
0
 42
0.0000001
 43
0.0000001
 44
0.0000000001
 40
0.0
 40
0.0
 40
0.0
 40
0.0
 40
0.4248968357
 40
0.6935227331
 40
1.0
 40
1.0
 40
1.0
 40
1.0
 10
15.0980979133
 20
10.2862490659
 30
0.0
 10
15.0991489887
 20
10.2896505105
 30
0.0
 10
15.1040108057
 20
10.2941230934
 30
0.0
 10
15.1120158955
 20
10.2965188342
 30
0.0
 10
15.1168679019
 20
10.2969564899
 30
0.0
 10
15.1194358227
 20
10.2969564899
 30
0.0
  0
SPLINE
  5
274
100
AcDbEntity
  8
0
100
AcDbSpline
 62
7
  6
CONTINUOUS
 70
0
 71
3
 72
10
 73
6
 74
0
 42
0.0000001
 43
0.0000001
 44
0.0000000001
 40
0.0
 40
0.0
 40
0.0
 40
0.0
 40
0.4248968357
 40
0.6935227331
 40
1.0
 40
1.0
 40
1.0
 40
1.0
 10
15.4607203519
 20
10.2862490659
 30
0.0
 10
15.4617714273
 20
10.2896505105
 30
0.0
 10
15.4666332443
 20
10.2941230934
 30
0.0
 10
15.4746383341
 20
10.2965188342
 30
0.0
 10
15.4794903404
 20
10.2969564899
 30
0.0
 10
15.4820582613
 20
10.2969564899
 30
0.0
  0
SPLINE
  5
275
100
AcDbEntity
  8
0
100
AcDbSpline
 62
7
  6
CONTINUOUS
 70
0
 71
3
 72
10
 73
6
 74
0
 42
0.0000001
 43
0.0000001
 44
0.0000000001
 40
0.0
 40
0.0
 40
0.0
 40
0.0
 40
0.4248968357
 40
0.6935227331
 40
1.0
 40
1.0
 40
1.0
 40
1.0
 10
15.8233427905
 20
10.2862490659
 30
0.0
 10
15.8243938659
 20
10.2896505105
 30
0.0
 10
15.8292556829
 20
10.2941230934
 30
0.0
 10
15.8372607727
 20
10.2965188342
 30
0.0
 10
15.842112779
 20
10.2969564899
 30
0.0
 10
15.8446806999
 20
10.2969564899
 30
0.0
  0
SPLINE
  5
276
100
AcDbEntity
  8
0
100
AcDbSpline
 62
7
  6
CONTINUOUS
 70
0
 71
3
 72
15
 73
11
 74
0
 42
0.0000001
 43
0.0000001
 44
0.0000000001
 40
0.0
 40
0.0
 40
0.0
 40
0.0
 40
0.1139075661
 40
0.2474657648
 40
0.3938642128
 40
0.543002172
 40
0.6841578452
 40
0.8084915722
 40
0.9120720131
 40
1.0
 40
1.0
 40
1.0
 40
1.0
 10
15.6007333757
 20
10.270648194
 30
0.0
 10
15.6052674652
 20
10.2614086911
 30
0.0
 10
15.6193540885
 20
10.2434283828
 30
0.0
 10
15.6480372052
 20
10.2219464791
 30
0.0
 10
15.6833573054
 20
10.2053528846
 30
0.0
 10
15.7217587097
 20
10.1953757446
 30
0.0
 10
15.7594173643
 20
10.19297626
 30
0.0
 10
15.7926585658
 20
10.1984992218
 30
0.0
 10
15.8187189384
 20
10.2117374862
 30
0.0
 10
15.8292537515
 20
10.2267330582
 30
0.0
 10
15.8315997141
 20
10.2343234773
 30
0.0
  0
SPLINE
  5
277
100
AcDbEntity
  8
0
100
AcDbSpline
 62
7
  6
CONTINUOUS
 70
0
 71
3
 72
15
 73
11
 74
0
 42
0.0000001
 43
0.0000001
 44
0.0000000001
 40
0.0
 40
0.0
 40
0.0
 40
0.0
 40
0.113918756
 40
0.2474665984
 40
0.3938690387
 40
0.5430062342
 40
0.6841627519
 40
0.8084973714
 40
0.9120769713
 40
1.0
 40
1.0
 40
1.0
 40
1.0
 10
15.2381109371
 20
10.270648194
 30
0.0
 10
15.2426454581
 20
10.2614078117
 30
0.0
 10
15.2567314914
 20
10.2434267398
 30
0.0
 10
15.285417327
 20
10.2219479118
 30
0.0
 10
15.3207357454
 20
10.2053530804
 30
0.0
 10
15.3591378271
 20
10.1953768004
 30
0.0
 10
15.396796148
 20
10.192976851
 30
0.0
 10
15.4300379354
 20
10.1984992061
 30
0.0
 10
15.4560962226
 20
10.2117389662
 30
0.0
 10
15.4666324564
 20
10.2267331884
 30
0.0
 10
15.4689773312
 20
10.2343234493
 30
0.0
  0
SPLINE
  5
278
100
AcDbEntity
  8
0
100
AcDbSpline
 62
7
  6
CONTINUOUS
 70
0
 71
3
 72
15
 73
11
 74
0
 42
0.0000001
 43
0.0000001
 44
0.0000000001
 40
0.0
 40
0.0
 40
0.0
 40
0.0
 40
0.113918756
 40
0.2474665984
 40
0.3938690387
 40
0.5430062342
 40
0.6841627519
 40
0.8084973714
 40
0.9120769713
 40
1.0
 40
1.0
 40
1.0
 40
1.0
 10
14.8754884985
 20
10.270648194
 30
0.0
 10
14.8800230195
 20
10.2614078117
 30
0.0
 10
14.8941090529
 20
10.2434267398
 30
0.0
 10
14.9227948884
 20
10.2219479118
 30
0.0
 10
14.9581133068
 20
10.2053530804
 30
0.0
 10
14.9965153885
 20
10.1953768004
 30
0.0
 10
15.0341737094
 20
10.192976851
 30
0.0
 10
15.0674154968
 20
10.1984992061
 30
0.0
 10
15.093473784
 20
10.2117389662
 30
0.0
 10
15.1040100179
 20
10.2267331884
 30
0.0
 10
15.1063548926
 20
10.2343234493
 30
0.0
  0
SPLINE
  5
279
100
AcDbEntity
  8
0
100
AcDbSpline
 62
7
  6
CONTINUOUS
 70
0
 71
3
 72
15
 73
11
 74
0
 42
0.0000001
 43
0.0000001
 44
0.0000000001
 40
0.0
 40
0.0
 40
0.0
 40
0.0
 40
0.113918756
 40
0.2474665984
 40
0.3938690387
 40
0.5430062342
 40
0.6841627519
 40
0.8084973714
 40
0.9120769713
 40
1.0
 40
1.0
 40
1.0
 40
1.0
 10
14.5128660599
 20
10.270648194
 30
0.0
 10
14.517400581
 20
10.2614078117
 30
0.0
 10
14.5314866143
 20
10.2434267398
 30
0.0
 10
14.5601724498
 20
10.2219479118
 30
0.0
 10
14.5954908682
 20
10.2053530804
 30
0.0
 10
14.6338929499
 20
10.1953768004
 30
0.0
 10
14.6715512708
 20
10.192976851
 30
0.0
 10
14.7047930582
 20
10.1984992061
 30
0.0
 10
14.7308513454
 20
10.2117389662
 30
0.0
 10
14.7413875793
 20
10.2267331884
 30
0.0
 10
14.743732454
 20
10.2343234493
 30
0.0
  0
SPLINE
  5
27A
100
AcDbEntity
  8
0
100
AcDbSpline
 62
7
  6
CONTINUOUS
 70
0
 71
3
 72
15
 73
11
 74
0
 42
0.0000001
 43
0.0000001
 44
0.0000000001
 40
0.0
 40
0.0
 40
0.0
 40
0.0
 40
0.113918756
 40
0.2474665984
 40
0.3938690387
 40
0.5430062342
 40
0.6841627519
 40
0.8084973714
 40
0.9120769713
 40
1.0
 40
1.0
 40
1.0
 40
1.0
 10
14.1502436214
 20
10.270648194
 30
0.0
 10
14.1547781424
 20
10.2614078117
 30
0.0
 10
14.1688641757
 20
10.2434267398
 30
0.0
 10
14.1975500112
 20
10.2219479118
 30
0.0
 10
14.2328684296
 20
10.2053530804
 30
0.0
 10
14.2712705113
 20
10.1953768004
 30
0.0
 10
14.3089288323
 20
10.192976851
 30
0.0
 10
14.3421706196
 20
10.1984992061
 30
0.0
 10
14.3682289068
 20
10.2117389662
 30
0.0
 10
14.3787651407
 20
10.2267331884
 30
0.0
 10
14.3811100154
 20
10.2343234493
 30
0.0
  0
SPLINE
  5
27B
100
AcDbEntity
  8
0
100
AcDbSpline
 62
7
  6
CONTINUOUS
 70
0
 71
3
 72
15
 73
11
 74
0
 42
0.0000001
 43
0.0000001
 44
0.0000000001
 40
0.0
 40
0.0
 40
0.0
 40
0.0
 40
0.113918756
 40
0.2474665984
 40
0.3938690387
 40
0.5430062342
 40
0.6841627519
 40
0.8084973714
 40
0.9120769713
 40
1.0
 40
1.0
 40
1.0
 40
1.0
 10
13.7876211828
 20
10.270648194
 30
0.0
 10
13.7921557038
 20
10.2614078117
 30
0.0
 10
13.8062417371
 20
10.2434267398
 30
0.0
 10
13.8349275727
 20
10.2219479118
 30
0.0
 10
13.870245991
 20
10.2053530804
 30
0.0
 10
13.9086480727
 20
10.1953768004
 30
0.0
 10
13.9463063937
 20
10.192976851
 30
0.0
 10
13.979548181
 20
10.1984992061
 30
0.0
 10
14.0056064682
 20
10.2117389662
 30
0.0
 10
14.0161427021
 20
10.2267331884
 30
0.0
 10
14.0184875768
 20
10.2343234493
 30
0.0
  0
SPLINE
  5
27C
100
AcDbEntity
  8
0
100
AcDbSpline
 62
7
  6
CONTINUOUS
 70
0
 71
3
 72
9
 73
5
 74
0
 42
0.0000001
 43
0.0000001
 44
0.0000000001
 40
0.0
 40
0.0
 40
0.0
 40
0.0
 40
0.5380172799
 40
1.0
 40
1.0
 40
1.0
 40
1.0
 10
13.7444924097
 20
10.2969564899
 30
0.0
 10
13.752833086
 20
10.2969564899
 30
0.0
 10
13.7682045572
 20
10.293070502
 30
0.0
 10
13.7815637404
 20
10.2829919637
 30
0.0
 10
13.7847188816
 20
10.2765624621
 30
0.0
  0
SPLINE
  5
27D
100
AcDbEntity
  8
0
100
AcDbSpline
 62
7
  6
CONTINUOUS
 70
0
 71
3
 72
9
 73
5
 74
0
 42
0.0000001
 43
0.0000001
 44
0.0000000001
 40
0.0
 40
0.0
 40
0.0
 40
0.0
 40
0.5380172799
 40
1.0
 40
1.0
 40
1.0
 40
1.0
 10
14.1071148483
 20
10.2969564899
 30
0.0
 10
14.1154555246
 20
10.2969564899
 30
0.0
 10
14.1308269958
 20
10.293070502
 30
0.0
 10
14.144186179
 20
10.2829919637
 30
0.0
 10
14.1473413201
 20
10.2765624621
 30
0.0
  0
SPLINE
  5
27E
100
AcDbEntity
  8
0
100
AcDbSpline
 62
7
  6
CONTINUOUS
 70
0
 71
3
 72
9
 73
5
 74
0
 42
0.0000001
 43
0.0000001
 44
0.0000000001
 40
0.0
 40
0.0
 40
0.0
 40
0.0
 40
0.5380172799
 40
1.0
 40
1.0
 40
1.0
 40
1.0
 10
14.4697372869
 20
10.2969564899
 30
0.0
 10
14.4780779632
 20
10.2969564899
 30
0.0
 10
14.4934494344
 20
10.293070502
 30
0.0
 10
14.5068086176
 20
10.2829919637
 30
0.0
 10
14.5099637587
 20
10.2765624621
 30
0.0
  0
SPLINE
  5
27F
100
AcDbEntity
  8
0
100
AcDbSpline
 62
7
  6
CONTINUOUS
 70
0
 71
3
 72
9
 73
5
 74
0
 42
0.0000001
 43
0.0000001
 44
0.0000000001
 40
0.0
 40
0.0
 40
0.0
 40
0.0
 40
0.5380172799
 40
1.0
 40
1.0
 40
1.0
 40
1.0
 10
14.8323597255
 20
10.2969564899
 30
0.0
 10
14.8407004018
 20
10.2969564899
 30
0.0
 10
14.856071873
 20
10.293070502
 30
0.0
 10
14.8694310562
 20
10.2829919637
 30
0.0
 10
14.8725861973
 20
10.2765624621
 30
0.0
  0
SPLINE
  5
280
100
AcDbEntity
  8
0
100
AcDbSpline
 62
7
  6
CONTINUOUS
 70
0
 71
3
 72
9
 73
5
 74
0
 42
0.0000001
 43
0.0000001
 44
0.0000000001
 40
0.0
 40
0.0
 40
0.0
 40
0.0
 40
0.5380172799
 40
1.0
 40
1.0
 40
1.0
 40
1.0
 10
15.1949821641
 20
10.2969564899
 30
0.0
 10
15.2033228404
 20
10.2969564899
 30
0.0
 10
15.2186943116
 20
10.293070502
 30
0.0
 10
15.2320534947
 20
10.2829919637
 30
0.0
 10
15.2352086359
 20
10.2765624621
 30
0.0
  0
SPLINE
  5
281
100
AcDbEntity
  8
0
100
AcDbSpline
 62
7
  6
CONTINUOUS
 70
0
 71
3
 72
9
 73
5
 74
0
 42
0.0000001
 43
0.0000001
 44
0.0000000001
 40
0.0
 40
0.0
 40
0.0
 40
0.0
 40
0.5380172799
 40
1.0
 40
1.0
 40
1.0
 40
1.0
 10
15.5576046027
 20
10.2969564899
 30
0.0
 10
15.565945279
 20
10.2969564899
 30
0.0
 10
15.5813167501
 20
10.293070502
 30
0.0
 10
15.5946759333
 20
10.2829919637
 30
0.0
 10
15.5978310745
 20
10.2765624621
 30
0.0
  0
SPLINE
  5
282
100
AcDbEntity
  8
0
100
AcDbSpline
 62
7
  6
CONTINUOUS
 70
0
 71
3
 72
9
 73
5
 74
0
 42
0.0000001
 43
0.0000001
 44
0.0000000001
 40
0.0
 40
0.0
 40
0.0
 40
0.0
 40
0.4741172612
 40
1.0
 40
1.0
 40
1.0
 40
1.0
 10
15.4689773312
 20
10.2343234493
 30
0.0
 10
15.4707149225
 20
10.2399479595
 30
0.0
 10
15.4716532749
 20
10.2527577244
 30
0.0
 10
15.4676264983
 20
10.2647864278
 30
0.0
 10
15.4647499612
 20
10.270648194
 30
0.0
  0
SPLINE
  5
283
100
AcDbEntity
  8
0
100
AcDbSpline
 62
7
  6
CONTINUOUS
 70
0
 71
3
 72
9
 73
5
 74
0
 42
0.0000001
 43
0.0000001
 44
0.0000000001
 40
0.0
 40
0.0
 40
0.0
 40
0.0
 40
0.4739980869
 40
1.0
 40
1.0
 40
1.0
 40
1.0
 10
15.8315997141
 20
10.2343234773
 30
0.0
 10
15.8333375993
 20
10.2399464471
 30
0.0
 10
15.8342788083
 20
10.2527564711
 30
0.0
 10
15.830249635
 20
10.2647850051
 30
0.0
 10
15.8273723998
 20
10.270648194
 30
0.0
  0
SPLINE
  5
284
100
AcDbEntity
  8
0
100
AcDbSpline
 62
7
  6
CONTINUOUS
 70
0
 71
3
 72
9
 73
5
 74
0
 42
0.0000001
 43
0.0000001
 44
0.0000000001
 40
0.0
 40
0.0
 40
0.0
 40
0.0
 40
0.4741172612
 40
1.0
 40
1.0
 40
1.0
 40
1.0
 10
14.743732454
 20
10.2343234493
 30
0.0
 10
14.7454700453
 20
10.2399479595
 30
0.0
 10
14.7464083978
 20
10.2527577244
 30
0.0
 10
14.7423816211
 20
10.2647864278
 30
0.0
 10
14.7395050841
 20
10.270648194
 30
0.0
  0
SPLINE
  5
285
100
AcDbEntity
  8
0
100
AcDbSpline
 62
7
  6
CONTINUOUS
 70
0
 71
3
 72
9
 73
5
 74
0
 42
0.0000001
 43
0.0000001
 44
0.0000000001
 40
0.0
 40
0.0
 40
0.0
 40
0.0
 40
0.2737263499
 40
1.0
 40
1.0
 40
1.0
 40
1.0
 10
14.0113579057
 20
10.2765624621
 30
0.0
 10
14.010960775
 20
10.2773717294
 30
0.0
 10
14.009712317
 20
10.2804126028
 30
0.0
 10
14.0095244489
 20
10.2839638583
 30
0.0
 10
14.0102305976
 20
10.2862490659
 30
0.0
  0
SPLINE
  5
286
100
AcDbEntity
  8
0
100
AcDbSpline
 62
7
  6
CONTINUOUS
 70
0
 71
3
 72
9
 73
5
 74
0
 42
0.0000001
 43
0.0000001
 44
0.0000000001
 40
0.0
 40
0.0
 40
0.0
 40
0.0
 40
0.4741172612
 40
1.0
 40
1.0
 40
1.0
 40
1.0
 10
14.0184875768
 20
10.2343234493
 30
0.0
 10
14.0202251682
 20
10.2399479595
 30
0.0
 10
14.0211635206
 20
10.2527577244
 30
0.0
 10
14.0171367439
 20
10.2647864278
 30
0.0
 10
14.0142602069
 20
10.270648194
 30
0.0
  0
SPLINE
  5
287
100
AcDbEntity
  8
0
100
AcDbSpline
 62
7
  6
CONTINUOUS
 70
0
 71
3
 72
9
 73
5
 74
0
 42
0.0000001
 43
0.0000001
 44
0.0000000001
 40
0.0
 40
0.0
 40
0.0
 40
0.0
 40
0.2737263499
 40
1.0
 40
1.0
 40
1.0
 40
1.0
 10
14.3739803443
 20
10.2765624621
 30
0.0
 10
14.3735832135
 20
10.2773717294
 30
0.0
 10
14.3723347556
 20
10.2804126028
 30
0.0
 10
14.3721468875
 20
10.2839638583
 30
0.0
 10
14.3728530361
 20
10.2862490659
 30
0.0
  0
SPLINE
  5
288
100
AcDbEntity
  8
0
100
AcDbSpline
 62
7
  6
CONTINUOUS
 70
0
 71
3
 72
9
 73
5
 74
0
 42
0.0000001
 43
0.0000001
 44
0.0000000001
 40
0.0
 40
0.0
 40
0.0
 40
0.0
 40
0.2737263499
 40
1.0
 40
1.0
 40
1.0
 40
1.0
 10
14.7366027828
 20
10.2765624621
 30
0.0
 10
14.7362056521
 20
10.2773717294
 30
0.0
 10
14.7349571942
 20
10.2804126028
 30
0.0
 10
14.7347693261
 20
10.2839638583
 30
0.0
 10
14.7354754747
 20
10.2862490659
 30
0.0
  0
SPLINE
  5
289
100
AcDbEntity
  8
0
100
AcDbSpline
 62
7
  6
CONTINUOUS
 70
0
 71
3
 72
9
 73
5
 74
0
 42
0.0000001
 43
0.0000001
 44
0.0000000001
 40
0.0
 40
0.0
 40
0.0
 40
0.0
 40
0.2737263499
 40
1.0
 40
1.0
 40
1.0
 40
1.0
 10
15.0992252214
 20
10.2765624621
 30
0.0
 10
15.0988280907
 20
10.2773717294
 30
0.0
 10
15.0975796328
 20
10.2804126028
 30
0.0
 10
15.0973917646
 20
10.2839638583
 30
0.0
 10
15.0980979133
 20
10.2862490659
 30
0.0
  0
SPLINE
  5
28A
100
AcDbEntity
  8
0
100
AcDbSpline
 62
7
  6
CONTINUOUS
 70
0
 71
3
 72
9
 73
5
 74
0
 42
0.0000001
 43
0.0000001
 44
0.0000000001
 40
0.0
 40
0.0
 40
0.0
 40
0.0
 40
0.4741172612
 40
1.0
 40
1.0
 40
1.0
 40
1.0
 10
15.1063548926
 20
10.2343234493
 30
0.0
 10
15.1080924839
 20
10.2399479595
 30
0.0
 10
15.1090308364
 20
10.2527577244
 30
0.0
 10
15.1050040597
 20
10.2647864278
 30
0.0
 10
15.1021275226
 20
10.270648194
 30
0.0
  0
SPLINE
  5
28B
100
AcDbEntity
  8
0
100
AcDbSpline
 62
7
  6
CONTINUOUS
 70
0
 71
3
 72
9
 73
5
 74
0
 42
0.0000001
 43
0.0000001
 44
0.0000000001
 40
0.0
 40
0.0
 40
0.0
 40
0.0
 40
0.2737263499
 40
1.0
 40
1.0
 40
1.0
 40
1.0
 10
15.46184766
 20
10.2765624621
 30
0.0
 10
15.4614505293
 20
10.2773717294
 30
0.0
 10
15.4602020713
 20
10.2804126028
 30
0.0
 10
15.4600142032
 20
10.2839638583
 30
0.0
 10
15.4607203519
 20
10.2862490659
 30
0.0
  0
SPLINE
  5
28C
100
AcDbEntity
  8
0
100
AcDbSpline
 62
7
  6
CONTINUOUS
 70
0
 71
3
 72
9
 73
5
 74
0
 42
0.0000001
 43
0.0000001
 44
0.0000000001
 40
0.0
 40
0.0
 40
0.0
 40
0.0
 40
0.4741172612
 40
1.0
 40
1.0
 40
1.0
 40
1.0
 10
14.3811100154
 20
10.2343234493
 30
0.0
 10
14.3828476067
 20
10.2399479595
 30
0.0
 10
14.3837859592
 20
10.2527577244
 30
0.0
 10
14.3797591825
 20
10.2647864278
 30
0.0
 10
14.3768826455
 20
10.270648194
 30
0.0
  0
SPLINE
  5
28D
100
AcDbEntity
  8
0
100
AcDbSpline
 62
7
  6
CONTINUOUS
 70
0
 71
3
 72
9
 73
5
 74
0
 42
0.0000001
 43
0.0000001
 44
0.0000000001
 40
0.0
 40
0.0
 40
0.0
 40
0.0
 40
0.2737263499
 40
1.0
 40
1.0
 40
1.0
 40
1.0
 10
15.8244700986
 20
10.2765624621
 30
0.0
 10
15.8240729679
 20
10.2773717294
 30
0.0
 10
15.8228245099
 20
10.2804126028
 30
0.0
 10
15.8226366418
 20
10.2839638583
 30
0.0
 10
15.8233427905
 20
10.2862490659
 30
0.0
  0
ENDSEC
  0
SECTION
  2
OBJECTS
  0
DICTIONARY
  5
C
100
AcDbDictionary
280
0
281
1
  3
ACAD_GROUP
350
D
  3
ACAD_MLINESTYLE
350
17
  3
ACAD_LAYOUT
350
1A
  3
ACAD_PLOTSETTINGS
350
19
  3
ACAD_PLOTSTYLENAME
350
E
  0
DICTIONARY
  5
D
102
{ACAD_REACTORS
330
C
102
}
100
AcDbDictionary
280
0
281
1
  0
ACDBDICTIONARYWDFLT
  5
E
102
{ACAD_REACTORS
330
C
102
}
100
AcDbDictionary
281
1
  3
Normal
350
F
100
AcDbDictionaryWithDefault
340
F
  0
DICTIONARY
  5
17
102
{ACAD_REACTORS
330
C
102
}
100
AcDbDictionary
280
0
281
1
  3
Standard
350
18
  0
DICTIONARY
  5
19
102
{ACAD_REACTORS
330
C
102
}
100
AcDbDictionary
281
1
  0
DICTIONARY
  5
1A
102
{ACAD_REACTORS
330
C
102
}
100
AcDbDictionary
281
1
  3
Model
350
28E
  3
Layout1
350
28F
  0
ACDBPLACEHOLDER
  5
F
102
{ACAD_REACTORS
330
E
102
}
  0
MLINESTYLE
  5
18
102
{ACAD_REACTORS
330
17
102
}
100
AcDbMlineStyle
  2
STANDARD
 70
0
  3

 62
256
 51
90.0
 52
90.0
 71
2
 49
0.5
 62
256
  6
BYLAYER
 49
-0.5
 62
256
  6
BYLAYER
  0
LAYOUT
  5
28E
102
{ACAD_REACTORS
330
1A
102
}
100
AcDbPlotSettings
  1

  2
none_device
  4
ANSI_C_(22.00_x_17.00_Inches)
  6

 40
0.0
 41
0.0
 42
0.0
 43
0.0
 44
558.8
 45
431.8
 46
0.0
 47
0.0
 48
0.0
 49
0.0
140
0.0
141
0.0
142
1.0
143
1.0
 70
1024
 72
0
 73
0
 74
0
  7

 75
0
147
1.0
148
0.0
149
0.0
100
AcDbLayout
  1
Model
 70
0
 71
0
 10
0.0
 20
0.0
 11
22.0
 21
17.0
 12
0.0
 22
0.0
 32
0.0
 14
0.0
 24
0.0
 34
0.0
 15
0.0
 25
0.0
 35
0.0
146
0.0
 13
0.0
 23
0.0
 33
0.0
 16
1.0
 26
0.0
 36
0.0
 17
0.0
 27
1.0
 37
0.0
 76
0
330
216
345
0
346
0
  0
LAYOUT
  5
28F
102
{ACAD_REACTORS
330
1A
102
}
100
AcDbPlotSettings
  1

  2
none_device
  4
ANSI_C_(22.00_x_17.00_Inches)
  6

 40
0.0
 41
0.0
 42
0.0
 43
0.0
 44
558.8
 45
431.8
 46
0.0
 47
0.0
 48
0.0
 49
0.0
140
0.0
141
0.0
142
1.0
143
1.0
 70
0
 72
0
 73
0
 74
0
  7

 75
0
147
1.0
148
0.0
149
0.0
100
AcDbLayout
  1
Layout1
 70
0
 71
1
 10
0.0
 20
0.0
 11
22.0
 21
17.0
 12
0.0
 22
0.0
 32
0.0
 14
0.0
 24
0.0
 34
0.0
 15
0.0
 25
0.0
 35
0.0
146
0.0
 13
0.0
 23
0.0
 33
0.0
 16
1.0
 26
0.0
 36
0.0
 17
0.0
 27
1.0
 37
0.0
 76
0
330
217
345
0
346
0
  0
ENDSEC
  0
EOF