999
DXF file: _cgs_temp_output.dxf
999
Pro/ENGINEER 2015110 by Parametric Technology Corporation
  0
SECTION
  2
HEADER
  9
$ACADVER
  1
AC1021
  9
$DWGCODEPAGE
  3
ANSI_1252
  9
$EXTMAX
 10
22.0
 20
17.0
 30
0.0
  9
$EXTMIN
 10
0.0
 20
0.0
 30
0.0
  9
$LIMMIN
 10
0.0
 20
0.0
  9
$LIMMAX
 10
22.0
 20
17.0
  9
$VIEWCTR
 10
11.0
 20
8.5
  9
$VIEWSIZE
 40
17.0
  9
$CLAYER
  8
0
  9
$LTSCALE
 40
1.21
  9
$CELTYPE
  6
BYLAYER
  9
$DIMSCALE
 40
1.0
  9
$DIMASZ
 40
0.1875
  9
$DIMEXO
 40
0.0625
  9
$DIMDLI
 40
0.836
  9
$DIMEXE
 40
0.125
  9
$DIMCEN
 40
0.198
  9
$DIMLFAC
 40
1.0
  9
$DIMBLK
  1
_CLOSED
  9
$DIMALT
 70
0
  9
$DIMALTF
 40
25.4
  9
$DIMTXT
 40
0.15625
  9
$DIMTOL
 70
0
  9
$DIMLIM
 70
0
  9
$DIMTFAC
 40
1.0
  9
$DIMGAP
 40
0.09
  9
$DIMDSEP
 70
46
  9
$AUNITS
 70
0
  9
$PDMODE
 70
3
  9
$PDSIZE
 40
0.3125
  9
$HANDSEED
  5
2A8
  9
$TILEMODE
 70
1
  9
$MEASUREMENT
 70
0
  9
$INSUNITS
 70
1
  0
ENDSEC
  0
SECTION
  2
CLASSES
  0
CLASS
  1
ACDBDICTIONARYWDFLT
  2
AcDbDictionaryWithDefault
  3
AutoCAD 2000
 90
0
 91
1
280
0
281
0
  0
CLASS
  1
ACDBPLACEHOLDER
  2
AcDbPlaceHolder
  3
AutoCAD 2000
 90
0
 91
1
280
0
281
0
  0
CLASS
  1
LAYOUT
  2
AcDbLayout
  3
AutoCAD 2000
 90
0
 91
0
280
0
281
0
  0
ENDSEC
  0
SECTION
  2
TABLES
  0
TABLE
  2
VPORT
  5
8
100
AcDbSymbolTable
 70
2
  0
VPORT
  5
1F4
100
AcDbSymbolTableRecord
100
AcDbViewportTableRecord
  2
*ACTIVE
 70
0
 10
0.0
 20
0.0
 11
1.0
 21
1.0
 12
11.0
 22
8.5
 13
0.0
 23
0.0
 14
1.0
 24
1.0
 15
0.0
 25
0.0
 16
0.0
 26
0.0
 36
1.0
 17
0.0
 27
0.0
 37
0.0
 40
17.0
 41
1.2941176471
 42
50.0
 43
0.0
 44
0.0
 50
0.0
 51
0.0
 71
0
 72
100
 73
1
 74
1
 75
0
 76
0
 77
0
 78
0
  0
ENDTAB
  0
TABLE
  2
LTYPE
  5
5
100
AcDbSymbolTable
 70
6
  0
LTYPE
  5
14
100
AcDbSymbolTableRecord
100
AcDbLinetypeTableRecord
  2
BYBLOCK
 70
0
  3

 72
65
 73
0
 40
0.0
  0
LTYPE
  5
15
100
AcDbSymbolTableRecord
100
AcDbLinetypeTableRecord
  2
BYLAYER
 70
0
  3

 72
65
 73
0
 40
0.0
  0
LTYPE
  5
16
100
AcDbSymbolTableRecord
100
AcDbLinetypeTableRecord
  2
CONTINUOUS
 70
64
  3
Solid line
 72
65
 73
0
 40
0.0
  0
LTYPE
  5
1F5
100
AcDbSymbolTableRecord
100
AcDbLinetypeTableRecord
  2
CENTER
 70
64
  3
____ _ ____ _ ____ _ ____ _ ____ _ ____ _ ____
 72
65
 73
4
 40
0.6
 49
0.375
 74
0
 49
-0.075
 74
0
 49
0.075
 74
0
 49
-0.075
 74
0
  0
LTYPE
  5
1F6
100
AcDbSymbolTableRecord
100
AcDbLinetypeTableRecord
  2
HIDDEN
 70
64
  3
- - - - - - - - - - - - - - - - - - - -
 72
65
 73
2
 40
0.2
 49
0.1
 74
0
 49
-0.1
 74
0
  0
LTYPE
  5
1F7
100
AcDbSymbolTableRecord
100
AcDbLinetypeTableRecord
  2
PHANTOM
 70
64
  3
_____ _ _ _____ _ _ _____ _ _ _____
 72
65
 73
6
 40
0.8
 49
0.45
 74
0
 49
-0.05
 74
0
 49
0.1
 74
0
 49
-0.05
 74
0
 49
0.1
 74
0
 49
-0.05
 74
0
  0
LTYPE
  5
1F8
100
AcDbSymbolTableRecord
100
AcDbLinetypeTableRecord
  2
DOT
 70
64
  3
. . . . . . . . . . . . . . . . . . . .
 72
65
 73
2
 40
0.2
 49
0.1
 74
0
 49
-0.1
 74
0
  0
LTYPE
  5
1F9
100
AcDbSymbolTableRecord
100
AcDbLinetypeTableRecord
  2
DASHED
 70
64
  3
- - - - - - - - - - - - - - - - - - - -
 72
65
 73
2
 40
0.2
 49
0.1
 74
0
 49
-0.1
 74
0
  0
ENDTAB
  0
TABLE
  2
LAYER
  5
2
100
AcDbSymbolTable
 70
36
  0
LAYER
  5
10
100
AcDbSymbolTableRecord
100
AcDbLayerTableRecord
  2
0
 70
0
 62
7
  6
CONTINUOUS
370
-3
390
F
  0
LAYER
  5
1FA
100
AcDbSymbolTableRecord
100
AcDbLayerTableRecord
  2
DEFAULT_1
 70
0
 62
7
  6
CENTER
370
-3
390
F
  0
LAYER
  5
1FB
100
AcDbSymbolTableRecord
100
AcDbLayerTableRecord
  2
DEFAULT_2
 70
0
 62
8
  6
HIDDEN
370
-3
390
F
  0
LAYER
  5
1FC
100
AcDbSymbolTableRecord
100
AcDbLayerTableRecord
  2
DEFAULT_3
 70
0
 62
7
  6
PHANTOM
370
-3
390
F
  0
LAYER
  5
1FD
100
AcDbSymbolTableRecord
100
AcDbLayerTableRecord
  2
01_ALL_DTM_PLN
 70
0
 62
7
  6
CONTINUOUS
370
-3
390
F
  0
LAYER
  5
1FE
100
AcDbSymbolTableRecord
100
AcDbLayerTableRecord
  2
01__ASM_ALL_DTM_PLN
 70
0
 62
7
  6
CONTINUOUS
370
-3
390
F
  0
LAYER
  5
1FF
100
AcDbSymbolTableRecord
100
AcDbLayerTableRecord
  2
01__ASM_DEF_DTM_PLN
 70
0
 62
7
  6
CONTINUOUS
370
-3
390
F
  0
LAYER
  5
200
100
AcDbSymbolTableRecord
100
AcDbLayerTableRecord
  2
01___PRT_ALL_DTM_PLN
 70
0
 62
7
  6
CONTINUOUS
370
-3
390
F
  0
LAYER
  5
201
100
AcDbSymbolTableRecord
100
AcDbLayerTableRecord
  2
01___PRT_DEF_DTM_PLN
 70
0
 62
7
  6
CONTINUOUS
370
-3
390
F
  0
LAYER
  5
202
100
AcDbSymbolTableRecord
100
AcDbLayerTableRecord
  2
02_ALL_AXES
 70
0
 62
7
  6
CONTINUOUS
370
-3
390
F
  0
LAYER
  5
203
100
AcDbSymbolTableRecord
100
AcDbLayerTableRecord
  2
02__ASM_ALL_AXES
 70
0
 62
7
  6
CONTINUOUS
370
-3
390
F
  0
LAYER
  5
204
100
AcDbSymbolTableRecord
100
AcDbLayerTableRecord
  2
02___PRT_ALL_AXES
 70
0
 62
7
  6
CONTINUOUS
370
-3
390
F
  0
LAYER
  5
205
100
AcDbSymbolTableRecord
100
AcDbLayerTableRecord
  2
03_ALL_CURVES
 70
0
 62
7
  6
CONTINUOUS
370
-3
390
F
  0
LAYER
  5
206
100
AcDbSymbolTableRecord
100
AcDbLayerTableRecord
  2
03__ASM_ALL_CURVES
 70
0
 62
7
  6
CONTINUOUS
370
-3
390
F
  0
LAYER
  5
207
100
AcDbSymbolTableRecord
100
AcDbLayerTableRecord
  2
03___PRT_ALL_CURVES
 70
0
 62
7
  6
CONTINUOUS
370
-3
390
F
  0
LAYER
  5
208
100
AcDbSymbolTableRecord
100
AcDbLayerTableRecord
  2
04_ALL_DTM_PNT
 70
0
 62
7
  6
CONTINUOUS
370
-3
390
F
  0
LAYER
  5
209
100
AcDbSymbolTableRecord
100
AcDbLayerTableRecord
  2
04__ASM_ALL_DTM_PNT
 70
0
 62
7
  6
CONTINUOUS
370
-3
390
F
  0
LAYER
  5
20A
100
AcDbSymbolTableRecord
100
AcDbLayerTableRecord
  2
04___PRT_ALL_DTM_PNT
 70
0
 62
7
  6
CONTINUOUS
370
-3
390
F
  0
LAYER
  5
20B
100
AcDbSymbolTableRecord
100
AcDbLayerTableRecord
  2
05_ALL_DTM_CSYS
 70
0
 62
7
  6
CONTINUOUS
370
-3
390
F
  0
LAYER
  5
20C
100
AcDbSymbolTableRecord
100
AcDbLayerTableRecord
  2
05__ASM_ALL_DTM_CSYS
 70
0
 62
7
  6
CONTINUOUS
370
-3
390
F
  0
LAYER
  5
20D
100
AcDbSymbolTableRecord
100
AcDbLayerTableRecord
  2
05__ASM_DEF_DTM_CSYS
 70
0
 62
7
  6
CONTINUOUS
370
-3
390
F
  0
LAYER
  5
20E
100
AcDbSymbolTableRecord
100
AcDbLayerTableRecord
  2
05___PRT_ALL_DTM_CSYS
 70
0
 62
7
  6
CONTINUOUS
370
-3
390
F
  0
LAYER
  5
20F
100
AcDbSymbolTableRecord
100
AcDbLayerTableRecord
  2
05___PRT_DEF_DTM_CSYS
 70
0
 62
7
  6
CONTINUOUS
370
-3
390
F
  0
LAYER
  5
210
100
AcDbSymbolTableRecord
100
AcDbLayerTableRecord
  2
06_ALL_SURFS
 70
0
 62
7
  6
CONTINUOUS
370
-3
390
F
  0
LAYER
  5
211
100
AcDbSymbolTableRecord
100
AcDbLayerTableRecord
  2
06__ASM_ALL_SURFS
 70
0
 62
7
  6
CONTINUOUS
370
-3
390
F
  0
LAYER
  5
212
100
AcDbSymbolTableRecord
100
AcDbLayerTableRecord
  2
06___PRT_ALL_SURFS
 70
0
 62
7
  6
CONTINUOUS
370
-3
390
F
  0
LAYER
  5
213
100
AcDbSymbolTableRecord
100
AcDbLayerTableRecord
  2
07__ASM_ALL_SKELETONS
 70
0
 62
7
  6
CONTINUOUS
370
-3
390
F
  0
ENDTAB
  0
TABLE
  2
STYLE
  5
3
100
AcDbSymbolTable
 70
1
  0
STYLE
  5
11
100
AcDbSymbolTableRecord
100
AcDbTextStyleTableRecord
  2
STANDARD
 70
0
 40
0.0
 41
0.8
 50
0.0
 71
0
 42
0.2
  3
txt
  4

  0
STYLE
  5
214
100
AcDbSymbolTableRecord
100
AcDbTextStyleTableRecord
  2
TEXTSTYLE_1
 70
0
 40
0.0
 41
0.8
 50
0.0
 71
0
 42
0.2
  3
gdt
  4

  0
ENDTAB
  0
TABLE
  2
VIEW
  5
6
100
AcDbSymbolTable
 70
0
  0
ENDTAB
  0
TABLE
  2
UCS
  5
7
100
AcDbSymbolTable
 70
0
  0
ENDTAB
  0
TABLE
  2
APPID
  5
9
100
AcDbSymbolTable
 70
1
  0
APPID
  5
215
100
AcDbSymbolTableRecord
100
AcDbRegAppTableRecord
  2
ACAD
 70
0
  0
ENDTAB
  0
TABLE
  2
BLOCK_RECORD
  5
1
100
AcDbSymbolTable
 70
0
  0
BLOCK_RECORD
  5
216
100
AcDbSymbolTableRecord
100
AcDbBlockTableRecord
  2
*Model_Space
  0
BLOCK_RECORD
  5
217
100
AcDbSymbolTableRecord
100
AcDbBlockTableRecord
  2
*Paper_Space
  0
ENDTAB
  0
TABLE
  2
DIMSTYLE
  5
A
100
AcDbSymbolTable
 70
1
100
AcDbDimStyleTable
 71
0
  0
DIMSTYLE
105
218
100
AcDbSymbolTableRecord
100
AcDbDimStyleTableRecord
  2
STANDARD
 70
0
  3

  4

 40
1.0
 41
0.1875
 42
0.0625
 43
0.38
 44
0.125
 45
0.0
 46
0.0
 47
0.0001
 48
0.0001
140
0.15625
141
0.09
142
0.0
143
25.4
144
1.0
145
0.0
146
1.0
147
0.09
 71
0.0
 72
0.0
 73
1
 74
1
 75
0
 76
0
 77
0
 78
4
170
0
171
2
172
0
173
0
174
0
175
0
176
0
177
0
178
0
270
2
271
4
272
4
273
2
274
2
275
0
280
0
281
0
282
0
283
1
284
4
285
0
286
0
287
3
288
0
340
11
278
46
  0
ENDTAB
  0
ENDSEC
  0
SECTION
  2
BLOCKS
  0
BLOCK
  5
20
100
AcDbEntity
  8
0
100
AcDbBlockBegin
  2
*Model_Space
 70
0
 10
0.0
 20
0.0
 30
0.0
  3
*Model_Space
  1

  0
ENDBLK
  5
21
100
AcDbEntity
  8
0
100
AcDbBlockEnd
  0
BLOCK
  5
1C
100
AcDbEntity
  8
0
100
AcDbBlockBegin
  2
*Paper_Space
 70
0
 10
0.0
 20
0.0
 30
0.0
  3
*Paper_Space
  1

  0
ENDBLK
  5
1D
100
AcDbEntity
  8
0
100
AcDbBlockEnd
  0
ENDSEC
  0
SECTION
  2
ENTITIES
  0
MTEXT
  5
219
100
AcDbEntity
  8
0
100
AcDbMText
 62
7
  6
CONTINUOUS
  7
STANDARD
 71
1
 72
1
 10
15.9560215477
 20
0.9479130325
 30
0.0
 11
1.0
 21
0.0
 31
0.0
 44
0.9
  1
SCALE: 1:3.000
 40
0.3
 41
3.36
  0
LINE
  5
21A
100
AcDbEntity
  8
0
100
AcDbLine
 62
7
  6
CONTINUOUS
 10
0.0
 20
0.0
 11
0.0
 21
17.0
  0
LINE
  5
21B
100
AcDbEntity
  8
0
100
AcDbLine
 62
7
  6
CONTINUOUS
 10
0.0
 20
0.0
 11
22.0
 21
0.0
  0
LINE
  5
21C
100
AcDbEntity
  8
0
100
AcDbLine
 62
7
  6
CONTINUOUS
 10
0.0
 20
17.0
 11
22.0
 21
17.0
  0
LINE
  5
21D
100
AcDbEntity
  8
0
100
AcDbLine
 62
7
  6
CONTINUOUS
 10
22.0
 20
0.0
 11
22.0
 21
17.0
  0
LINE
  5
21E
100
AcDbEntity
  8
0
100
AcDbLine
 62
7
  6
CONTINUOUS
 10
4.3587137329
 20
5.7451198968
 11
4.3587137329
 21
5.5230726527
  0
LINE
  5
21F
100
AcDbEntity
  8
0
100
AcDbLine
 62
7
  6
CONTINUOUS
 10
4.5789547173
 20
5.2951198968
 11
4.7290239295
 21
5.2951198968
  0
LINE
  5
220
100
AcDbEntity
  8
0
100
AcDbLine
 62
7
  6
CONTINUOUS
 10
5.1695058984
 20
5.2951198968
 11
5.3195751106
 21
5.2951198968
  0
LINE
  5
221
100
AcDbEntity
  8
0
100
AcDbLine
 62
7
  6
CONTINUOUS
 10
5.7600570795
 20
5.2951198968
 11
5.9101262917
 21
5.2951198968
  0
LINE
  5
222
100
AcDbEntity
  8
0
100
AcDbLine
 62
7
  6
CONTINUOUS
 10
6.3506082606
 20
5.2951198968
 11
6.5006774728
 21
5.2951198968
  0
LINE
  5
223
100
AcDbEntity
  8
0
100
AcDbLine
 62
7
  6
CONTINUOUS
 10
6.9411594417
 20
5.2951198968
 11
7.0912286539
 21
5.2951198968
  0
LINE
  5
224
100
AcDbEntity
  8
0
100
AcDbLine
 62
7
  6
CONTINUOUS
 10
7.5317106228
 20
5.2951198968
 11
7.681779835
 21
5.2951198968
  0
LINE
  5
225
100
AcDbEntity
  8
0
100
AcDbLine
 62
7
  6
CONTINUOUS
 10
4.3587137329
 20
5.5230726527
 11
4.422792916
 21
5.5230726527
  0
LINE
  5
226
100
AcDbEntity
  8
0
100
AcDbLine
 62
7
  6
CONTINUOUS
 10
4.8851857309
 20
5.5230726527
 11
5.0133440971
 21
5.5230726527
  0
LINE
  5
227
100
AcDbEntity
  8
0
100
AcDbLine
 62
7
  6
CONTINUOUS
 10
5.475736912
 20
5.5230726527
 11
5.6038952782
 21
5.5230726527
  0
LINE
  5
228
100
AcDbEntity
  8
0
100
AcDbLine
 62
7
  6
CONTINUOUS
 10
6.0662880931
 20
5.5230726527
 11
6.1944464593
 21
5.5230726527
  0
LINE
  5
229
100
AcDbEntity
  8
0
100
AcDbLine
 62
7
  6
CONTINUOUS
 10
6.6568392742
 20
5.5230726527
 11
6.7849976404
 21
5.5230726527
  0
LINE
  5
22A
100
AcDbEntity
  8
0
100
AcDbLine
 62
7
  6
CONTINUOUS
 10
7.2473904553
 20
5.5230726527
 11
7.3755488215
 21
5.5230726527
  0
LINE
  5
22B
100
AcDbEntity
  8
0
100
AcDbLine
 62
7
  6
CONTINUOUS
 10
7.8379416364
 20
5.5230726527
 11
7.9020208195
 21
5.5230726527
  0
LINE
  5
22C
100
AcDbEntity
  8
0
100
AcDbLine
 62
7
  6
CONTINUOUS
 10
7.9020208195
 20
5.7451198968
 11
4.3587137329
 21
5.7451198968
  0
LINE
  5
22D
100
AcDbEntity
  8
0
100
AcDbLine
 62
7
  6
CONTINUOUS
 10
7.9020208195
 20
5.5230726527
 11
7.9020208195
 21
5.7451198968
  0
LINE
  5
22E
100
AcDbEntity
  8
0
100
AcDbLine
 62
7
  6
CONTINUOUS
 10
4.2992185406
 20
13.485874553
 11
4.2992185406
 21
11.7142210097
  0
LINE
  5
22F
100
AcDbEntity
  8
0
100
AcDbLine
 62
7
  6
CONTINUOUS
 10
7.8425256272
 20
11.7142210097
 11
4.2992185406
 21
11.7142210097
  0
LINE
  5
230
100
AcDbEntity
  8
0
100
AcDbLine
 62
7
  6
CONTINUOUS
 10
4.2992185406
 20
13.485874553
 11
7.8425256272
 21
13.485874553
  0
LINE
  5
231
100
AcDbEntity
  8
0
100
AcDbLine
 62
7
  6
CONTINUOUS
 10
7.8425256272
 20
13.485874553
 11
7.8425256272
 21
11.7142210097
  0
LINE
  5
232
100
AcDbEntity
  8
0
100
AcDbLine
 62
7
  6
CONTINUOUS
 10
14.6745284853
 20
5.2356247044
 11
14.6745284853
 21
5.6856247044
  0
LINE
  5
233
100
AcDbEntity
  8
0
100
AcDbLine
 62
7
  6
CONTINUOUS
 10
14.6745284853
 20
5.2356247044
 11
16.4461820286
 21
5.2356247044
  0
LINE
  5
234
100
AcDbEntity
  8
0
100
AcDbLine
 62
7
  6
CONTINUOUS
 10
16.4461820286
 20
5.4635774604
 11
14.6745284853
 21
5.4635774604
  0
LINE
  5
235
100
AcDbEntity
  8
0
100
AcDbLine
 62
7
  6
CONTINUOUS
 10
16.4461820286
 20
5.6856247044
 11
14.6745284853
 21
5.6856247044
  0
LINE
  5
236
100
AcDbEntity
  8
0
100
AcDbLine
 62
7
  6
CONTINUOUS
 10
16.4461820286
 20
5.2356247044
 11
16.4461820286
 21
5.6856247044
  0
LINE
  5
237
100
AcDbEntity
  8
0
100
AcDbLine
 62
7
  6
CONTINUOUS
 10
13.5910158121
 20
11.9567752883
 11
13.658749518
 21
11.8187485079
  0
LINE
  5
238
100
AcDbEntity
  8
0
100
AcDbLine
 62
7
  6
CONTINUOUS
 10
14.0198734717
 20
13.3445591833
 11
13.5910158121
 21
11.9567752883
  0
LINE
  5
239
100
AcDbEntity
  8
0
100
AcDbLine
 62
7
  6
CONTINUOUS
 10
14.1173751506
 20
11.7011419246
 11
14.1178138708
 21
11.7027665983
  0
LINE
  5
23A
100
AcDbEntity
  8
0
100
AcDbLine
 62
7
  6
CONTINUOUS
 10
14.11786973
 20
11.7027493365
 11
14.1537161852
 21
11.8187485079
  0
LINE
  5
23B
100
AcDbEntity
  8
0
100
AcDbLine
 62
7
  6
CONTINUOUS
 10
13.9311400322
 20
11.6770508025
 11
14.06936293
 21
11.6770508025
  0
LINE
  5
23C
100
AcDbEntity
  8
0
100
AcDbLine
 62
7
  6
CONTINUOUS
 10
14.4750736901
 20
11.6770508025
 11
14.6132965878
 21
11.6770508025
  0
LINE
  5
23D
100
AcDbEntity
  8
0
100
AcDbLine
 62
7
  6
CONTINUOUS
 10
15.0190073479
 20
11.6770508025
 11
15.1572302457
 21
11.6770508025
  0
LINE
  5
23E
100
AcDbEntity
  8
0
100
AcDbLine
 62
7
  6
CONTINUOUS
 10
15.5629410058
 20
11.6770508025
 11
15.7011639036
 21
11.6770508025
  0
LINE
  5
23F
100
AcDbEntity
  8
0
100
AcDbLine
 62
7
  6
CONTINUOUS
 10
16.1068746637
 20
11.6770508025
 11
16.2450975615
 21
11.6770508025
  0
LINE
  5
240
100
AcDbEntity
  8
0
100
AcDbLine
 62
7
  6
CONTINUOUS
 10
16.6508083216
 20
11.6770508025
 11
16.7890312193
 21
11.6770508025
  0
LINE
  5
241
100
AcDbEntity
  8
0
100
AcDbLine
 62
7
  6
CONTINUOUS
 10
13.658749518
 20
11.8187485079
 11
13.7177703541
 21
11.8187485079
  0
LINE
  5
242
100
AcDbEntity
  8
0
100
AcDbLine
 62
7
  6
CONTINUOUS
 10
14.1436623398
 20
11.8187485079
 11
14.2617040119
 21
11.8187485079
  0
LINE
  5
243
100
AcDbEntity
  8
0
100
AcDbLine
 62
7
  6
CONTINUOUS
 10
14.6875959976
 20
11.8187485079
 11
14.8056376698
 21
11.8187485079
  0
LINE
  5
244
100
AcDbEntity
  8
0
100
AcDbLine
 62
7
  6
CONTINUOUS
 10
15.2315296555
 20
11.8187485079
 11
15.3495713277
 21
11.8187485079
  0
LINE
  5
245
100
AcDbEntity
  8
0
100
AcDbLine
 62
7
  6
CONTINUOUS
 10
15.7754633134
 20
11.8187485079
 11
15.8935049856
 21
11.8187485079
  0
LINE
  5
246
100
AcDbEntity
  8
0
100
AcDbLine
 62
7
  6
CONTINUOUS
 10
16.3193969713
 20
11.8187485079
 11
16.4374386434
 21
11.8187485079
  0
LINE
  5
247
100
AcDbEntity
  8
0
100
AcDbLine
 62
7
  6
CONTINUOUS
 10
16.8633306291
 20
11.8187485079
 11
16.9223514652
 21
11.8187485079
  0
LINE
  5
248
100
AcDbEntity
  8
0
100
AcDbLine
 62
7
  6
CONTINUOUS
 10
14.6613088085
 20
11.7011419246
 11
14.6617475287
 21
11.7027665983
  0
LINE
  5
249
100
AcDbEntity
  8
0
100
AcDbLine
 62
7
  6
CONTINUOUS
 10
14.6618033879
 20
11.7027493365
 11
14.697649843
 21
11.8187485079
  0
LINE
  5
24A
100
AcDbEntity
  8
0
100
AcDbLine
 62
7
  6
CONTINUOUS
 10
16.8546177594
 20
11.9567752883
 11
13.5910158121
 21
11.9567752883
  0
LINE
  5
24B
100
AcDbEntity
  8
0
100
AcDbLine
 62
7
  6
CONTINUOUS
 10
15.2052424663
 20
11.7011419246
 11
15.2056811866
 21
11.7027665983
  0
LINE
  5
24C
100
AcDbEntity
  8
0
100
AcDbLine
 62
7
  6
CONTINUOUS
 10
15.2057370458
 20
11.7027493365
 11
15.2415835009
 21
11.8187485079
  0
LINE
  5
24D
100
AcDbEntity
  8
0
100
AcDbLine
 62
7
  6
CONTINUOUS
 10
15.7491761242
 20
11.7011419246
 11
15.7496148445
 21
11.7027665983
  0
LINE
  5
24E
100
AcDbEntity
  8
0
100
AcDbLine
 62
7
  6
CONTINUOUS
 10
15.7496707036
 20
11.7027493365
 11
15.7855171588
 21
11.8187485079
  0
LINE
  5
24F
100
AcDbEntity
  8
0
100
AcDbLine
 62
7
  6
CONTINUOUS
 10
14.0198734717
 20
13.3445591833
 11
17.283475419
 21
13.3445591833
  0
LINE
  5
250
100
AcDbEntity
  8
0
100
AcDbLine
 62
7
  6
CONTINUOUS
 10
16.2931097821
 20
11.7011419246
 11
16.2935485023
 21
11.7027665983
  0
LINE
  5
251
100
AcDbEntity
  8
0
100
AcDbLine
 62
7
  6
CONTINUOUS
 10
16.2936043615
 20
11.7027493365
 11
16.3294508167
 21
11.8187485079
  0
LINE
  5
252
100
AcDbEntity
  8
0
100
AcDbLine
 62
7
  6
CONTINUOUS
 10
16.9223514652
 20
11.8187485079
 11
16.8546177594
 21
11.9567752883
  0
LINE
  5
253
100
AcDbEntity
  8
0
100
AcDbLine
 62
7
  6
CONTINUOUS
 10
17.283475419
 20
13.3445591833
 11
16.8546177594
 21
11.9567752883
  0
LINE
  5
254
100
AcDbEntity
  8
0
100
AcDbLine
 62
7
  6
CONTINUOUS
 10
16.83704344
 20
11.7011419246
 11
16.8374821602
 21
11.7027665983
  0
LINE
  5
255
100
AcDbEntity
  8
0
100
AcDbLine
 62
7
  6
CONTINUOUS
 10
16.8375380194
 20
11.7027493365
 11
16.8733844745
 21
11.8187485079
  0
LINE
  5
256
100
AcDbEntity
  8
0
100
AcDbLine
 62
7
  6
CONTINUOUS
 10
17.3512091248
 20
13.2065324029
 11
16.9223514652
 21
11.8187485079
  0
LINE
  5
257
100
AcDbEntity
  8
0
100
AcDbLine
 62
7
  6
CONTINUOUS
 10
17.3512091248
 20
13.2065324029
 11
17.283475419
 21
13.3445591833
  0
ARC
  5
258
100
AcDbEntity
  8
0
100
AcDbCircle
 62
7
  6
CONTINUOUS
 10
4.4140779061
 20
5.5230726527
 40
0.4244586614
100
AcDbArc
 50
333.9229805875
 51
354.0364298817
  0
ARC
  5
259
100
AcDbEntity
  8
0
100
AcDbCircle
 62
7
  6
CONTINUOUS
 10
5.4844519218
 20
5.5230726527
 40
0.4244586614
100
AcDbArc
 50
185.9635701183
 51
206.0770194125
  0
ARC
  5
25A
100
AcDbEntity
  8
0
100
AcDbCircle
 62
7
  6
CONTINUOUS
 10
5.0046290872
 20
5.5230726527
 40
0.4244586614
100
AcDbArc
 50
333.9229805875
 51
354.0364298817
  0
ARC
  5
25B
100
AcDbEntity
  8
0
100
AcDbCircle
 62
7
  6
CONTINUOUS
 10
6.0750031029
 20
5.5230726527
 40
0.4244586614
100
AcDbArc
 50
185.9635701183
 51
206.0770194125
  0
ARC
  5
25C
100
AcDbEntity
  8
0
100
AcDbCircle
 62
7
  6
CONTINUOUS
 10
5.5951802683
 20
5.5230726527
 40
0.4244586614
100
AcDbArc
 50
333.9229805875
 51
354.0364298817
  0
ARC
  5
25D
100
AcDbEntity
  8
0
100
AcDbCircle
 62
7
  6
CONTINUOUS
 10
6.665554284
 20
5.5230726527
 40
0.4244586614
100
AcDbArc
 50
185.9635701183
 51
206.0770194125
  0
ARC
  5
25E
100
AcDbEntity
  8
0
100
AcDbCircle
 62
7
  6
CONTINUOUS
 10
4.8939007407
 20
5.5230726527
 40
0.4244586614
100
AcDbArc
 50
185.9635701183
 51
206.0770194125
  0
ARC
  5
25F
100
AcDbEntity
  8
0
100
AcDbCircle
 62
7
  6
CONTINUOUS
 10
7.3668338116
 20
5.5230726527
 40
0.4244586614
100
AcDbArc
 50
333.9229805875
 51
354.0364298817
  0
ARC
  5
260
100
AcDbEntity
  8
0
100
AcDbCircle
 62
7
  6
CONTINUOUS
 10
7.8466566462
 20
5.5230726527
 40
0.4244586614
100
AcDbArc
 50
185.9635701183
 51
206.0770194125
  0
ARC
  5
261
100
AcDbEntity
  8
0
100
AcDbCircle
 62
7
  6
CONTINUOUS
 10
6.7762826305
 20
5.5230726527
 40
0.4244586614
100
AcDbArc
 50
333.9229805875
 51
354.0364298817
  0
ARC
  5
262
100
AcDbEntity
  8
0
100
AcDbCircle
 62
7
  6
CONTINUOUS
 10
7.2561054651
 20
5.5230726527
 40
0.4244586614
100
AcDbArc
 50
185.9635701183
 51
206.0770194125
  0
ARC
  5
263
100
AcDbEntity
  8
0
100
AcDbCircle
 62
7
  6
CONTINUOUS
 10
6.1857314494
 20
5.5230726527
 40
0.4244586614
100
AcDbArc
 50
333.9229805875
 51
354.0364298817
  0
ARC
  5
264
100
AcDbEntity
  8
0
100
AcDbCircle
 62
7
  6
CONTINUOUS
 10
4.5789547173
 20
5.3689387944
 40
0.0738188976
100
AcDbArc
 50
206.0770194125
 51
270.0
  0
ARC
  5
265
100
AcDbEntity
  8
0
100
AcDbCircle
 62
7
  6
CONTINUOUS
 10
4.7290239295
 20
5.3689387944
 40
0.0738188976
100
AcDbArc
 50
270.0
 51
333.9229805875
  0
ARC
  5
266
100
AcDbEntity
  8
0
100
AcDbCircle
 62
7
  6
CONTINUOUS
 10
5.1695058984
 20
5.3689387944
 40
0.0738188976
100
AcDbArc
 50
206.0770194125
 51
270.0
  0
ARC
  5
267
100
AcDbEntity
  8
0
100
AcDbCircle
 62
7
  6
CONTINUOUS
 10
5.3195751106
 20
5.3689387944
 40
0.0738188976
100
AcDbArc
 50
270.0
 51
333.9229805875
  0
ARC
  5
268
100
AcDbEntity
  8
0
100
AcDbCircle
 62
7
  6
CONTINUOUS
 10
5.7600570795
 20
5.3689387944
 40
0.0738188976
100
AcDbArc
 50
206.0770194125
 51
270.0
  0
ARC
  5
269
100
AcDbEntity
  8
0
100
AcDbCircle
 62
7
  6
CONTINUOUS
 10
5.9101262917
 20
5.3689387944
 40
0.0738188976
100
AcDbArc
 50
270.0
 51
333.9229805875
  0
ARC
  5
26A
100
AcDbEntity
  8
0
100
AcDbCircle
 62
7
  6
CONTINUOUS
 10
6.3506082606
 20
5.3689387944
 40
0.0738188976
100
AcDbArc
 50
206.0770194125
 51
270.0
  0
ARC
  5
26B
100
AcDbEntity
  8
0
100
AcDbCircle
 62
7
  6
CONTINUOUS
 10
7.681779835
 20
5.3689387944
 40
0.0738188976
100
AcDbArc
 50
270.0
 51
333.9229805875
  0
ARC
  5
26C
100
AcDbEntity
  8
0
100
AcDbCircle
 62
7
  6
CONTINUOUS
 10
7.5317106228
 20
5.3689387944
 40
0.0738188976
100
AcDbArc
 50
206.0770194125
 51
270.0
  0
ARC
  5
26D
100
AcDbEntity
  8
0
100
AcDbCircle
 62
7
  6
CONTINUOUS
 10
7.0912286539
 20
5.3689387944
 40
0.0738188976
100
AcDbArc
 50
270.0
 51
333.9229805875
  0
ARC
  5
26E
100
AcDbEntity
  8
0
100
AcDbCircle
 62
7
  6
CONTINUOUS
 10
6.9411594417
 20
5.3689387944
 40
0.0738188976
100
AcDbArc
 50
206.0770194125
 51
270.0
  0
ARC
  5
26F
100
AcDbEntity
  8
0
100
AcDbCircle
 62
7
  6
CONTINUOUS
 10
6.5006774728
 20
5.3689387944
 40
0.0738188976
100
AcDbArc
 50
270.0
 51
333.9229805875
  0
ARC
  5
270
100
AcDbEntity
  8
0
100
AcDbCircle
 62
7
  6
CONTINUOUS
 10
4.422792916
 20
5.4738600542
 40
0.0492125984
100
AcDbArc
 50
5.9635701183
 51
90.0
  0
ARC
  5
271
100
AcDbEntity
  8
0
100
AcDbCircle
 62
7
  6
CONTINUOUS
 10
4.8851857309
 20
5.4738600542
 40
0.0492125984
100
AcDbArc
 50
90.0
 51
174.0364298817
  0
ARC
  5
272
100
AcDbEntity
  8
0
100
AcDbCircle
 62
7
  6
CONTINUOUS
 10
5.0133440971
 20
5.4738600542
 40
0.0492125984
100
AcDbArc
 50
5.9635701183
 51
90.0
  0
ARC
  5
273
100
AcDbEntity
  8
0
100
AcDbCircle
 62
7
  6
CONTINUOUS
 10
5.475736912
 20
5.4738600542
 40
0.0492125984
100
AcDbArc
 50
90.0
 51
174.0364298817
  0
ARC
  5
274
100
AcDbEntity
  8
0
100
AcDbCircle
 62
7
  6
CONTINUOUS
 10
5.6038952782
 20
5.4738600542
 40
0.0492125984
100
AcDbArc
 50
5.9635701183
 51
90.0
  0
ARC
  5
275
100
AcDbEntity
  8
0
100
AcDbCircle
 62
7
  6
CONTINUOUS
 10
6.0662880931
 20
5.4738600542
 40
0.0492125984
100
AcDbArc
 50
90.0
 51
174.0364298817
  0
ARC
  5
276
100
AcDbEntity
  8
0
100
AcDbCircle
 62
7
  6
CONTINUOUS
 10
6.1944464593
 20
5.4738600542
 40
0.0492125984
100
AcDbArc
 50
5.9635701183
 51
90.0
  0
ARC
  5
277
100
AcDbEntity
  8
0
100
AcDbCircle
 62
7
  6
CONTINUOUS
 10
6.6568392742
 20
5.4738600542
 40
0.0492125984
100
AcDbArc
 50
90.0
 51
174.0364298817
  0
ARC
  5
278
100
AcDbEntity
  8
0
100
AcDbCircle
 62
7
  6
CONTINUOUS
 10
6.7849976404
 20
5.4738600542
 40
0.0492125984
100
AcDbArc
 50
5.9635701183
 51
90.0
  0
ARC
  5
279
100
AcDbEntity
  8
0
100
AcDbCircle
 62
7
  6
CONTINUOUS
 10
7.2473904553
 20
5.4738600542
 40
0.0492125984
100
AcDbArc
 50
90.0
 51
174.0364298817
  0
ARC
  5
27A
100
AcDbEntity
  8
0
100
AcDbCircle
 62
7
  6
CONTINUOUS
 10
7.3755488215
 20
5.4738600542
 40
0.0492125984
100
AcDbArc
 50
5.9635701183
 51
90.0
  0
ARC
  5
27B
100
AcDbEntity
  8
0
100
AcDbCircle
 62
7
  6
CONTINUOUS
 10
7.8379416364
 20
5.4738600542
 40
0.0492125984
100
AcDbArc
 50
90.0
 51
174.0364298817
  0
SPLINE
  5
27C
100
AcDbEntity
  8
0
100
AcDbSpline
 62
7
  6
CONTINUOUS
 70
0
 71
3
 72
12
 73
8
 74
0
 42
0.0000001
 43
0.0000001
 44
0.0000000001
 40
0.0
 40
0.0
 40
0.0
 40
0.0
 40
0.099845202
 40
0.2032558862
 40
0.4308041758
 40
0.6965806444
 40
1.0
 40
1.0
 40
1.0
 40
1.0
 10
14.1116556192
 20
11.802687332
 30
0.0
 10
14.1120298996
 20
11.8038986235
 30
0.0
 10
14.1130911492
 20
11.806281919
 30
0.0
 10
14.1164195791
 20
11.810674564
 30
0.0
 10
14.1228073151
 20
11.8150844061
 30
0.0
 10
14.1325528949
 20
11.8181335862
 30
0.0
 10
14.1398096298
 20
11.8187485079
 30
0.0
 10
14.1436623398
 20
11.8187485079
 30
0.0
  0
SPLINE
  5
27D
100
AcDbEntity
  8
0
100
AcDbSpline
 62
7
  6
CONTINUOUS
 70
0
 71
3
 72
12
 73
8
 74
0
 42
0.0000001
 43
0.0000001
 44
0.0000000001
 40
0.0
 40
0.0
 40
0.0
 40
0.0
 40
0.099845202
 40
0.2032558862
 40
0.4308041758
 40
0.6965806444
 40
1.0
 40
1.0
 40
1.0
 40
1.0
 10
14.6555892771
 20
11.802687332
 30
0.0
 10
14.6559635575
 20
11.8038986235
 30
0.0
 10
14.657024807
 20
11.806281919
 30
0.0
 10
14.660353237
 20
11.810674564
 30
0.0
 10
14.666740973
 20
11.8150844061
 30
0.0
 10
14.6764865528
 20
11.8181335862
 30
0.0
 10
14.6837432877
 20
11.8187485079
 30
0.0
 10
14.6875959976
 20
11.8187485079
 30
0.0
  0
SPLINE
  5
27E
100
AcDbEntity
  8
0
100
AcDbSpline
 62
7
  6
CONTINUOUS
 70
0
 71
3
 72
12
 73
8
 74
0
 42
0.0000001
 43
0.0000001
 44
0.0000000001
 40
0.0
 40
0.0
 40
0.0
 40
0.0
 40
0.099845202
 40
0.2032558862
 40
0.4308041758
 40
0.6965806444
 40
1.0
 40
1.0
 40
1.0
 40
1.0
 10
15.199522935
 20
11.802687332
 30
0.0
 10
15.1998972154
 20
11.8038986235
 30
0.0
 10
15.2009584649
 20
11.806281919
 30
0.0
 10
15.2042868948
 20
11.810674564
 30
0.0
 10
15.2106746308
 20
11.8150844061
 30
0.0
 10
15.2204202107
 20
11.8181335862
 30
0.0
 10
15.2276769455
 20
11.8187485079
 30
0.0
 10
15.2315296555
 20
11.8187485079
 30
0.0
  0
SPLINE
  5
27F
100
AcDbEntity
  8
0
100
AcDbSpline
 62
7
  6
CONTINUOUS
 70
0
 71
3
 72
12
 73
8
 74
0
 42
0.0000001
 43
0.0000001
 44
0.0000000001
 40
0.0
 40
0.0
 40
0.0
 40
0.0
 40
0.099845202
 40
0.2032558862
 40
0.4308041758
 40
0.6965806444
 40
1.0
 40
1.0
 40
1.0
 40
1.0
 10
15.7434565928
 20
11.802687332
 30
0.0
 10
15.7438308732
 20
11.8038986235
 30
0.0
 10
15.7448921228
 20
11.806281919
 30
0.0
 10
15.7482205527
 20
11.810674564
 30
0.0
 10
15.7546082887
 20
11.8150844061
 30
0.0
 10
15.7643538686
 20
11.8181335862
 30
0.0
 10
15.7716106034
 20
11.8187485079
 30
0.0
 10
15.7754633134
 20
11.8187485079
 30
0.0
  0
SPLINE
  5
280
100
AcDbEntity
  8
0
100
AcDbSpline
 62
7
  6
CONTINUOUS
 70
0
 71
3
 72
12
 73
8
 74
0
 42
0.0000001
 43
0.0000001
 44
0.0000000001
 40
0.0
 40
0.0
 40
0.0
 40
0.0
 40
0.099845202
 40
0.2032558862
 40
0.4308041758
 40
0.6965806444
 40
1.0
 40
1.0
 40
1.0
 40
1.0
 10
16.2873902507
 20
11.802687332
 30
0.0
 10
16.2877645311
 20
11.8038986235
 30
0.0
 10
16.2888257807
 20
11.806281919
 30
0.0
 10
16.2921542106
 20
11.810674564
 30
0.0
 10
16.2985419466
 20
11.8150844061
 30
0.0
 10
16.3082875264
 20
11.8181335862
 30
0.0
 10
16.3155442613
 20
11.8187485079
 30
0.0
 10
16.3193969713
 20
11.8187485079
 30
0.0
  0
SPLINE
  5
281
100
AcDbEntity
  8
0
100
AcDbSpline
 62
7
  6
CONTINUOUS
 70
0
 71
3
 72
12
 73
8
 74
0
 42
0.0000001
 43
0.0000001
 44
0.0000000001
 40
0.0
 40
0.0
 40
0.0
 40
0.0
 40
0.099845202
 40
0.2032558862
 40
0.4308041758
 40
0.6965806444
 40
1.0
 40
1.0
 40
1.0
 40
1.0
 10
16.8313239086
 20
11.802687332
 30
0.0
 10
16.831698189
 20
11.8038986235
 30
0.0
 10
16.8327594385
 20
11.806281919
 30
0.0
 10
16.8360878685
 20
11.810674564
 30
0.0
 10
16.8424756045
 20
11.8150844061
 30
0.0
 10
16.8522211843
 20
11.8181335862
 30
0.0
 10
16.8594779192
 20
11.8187485079
 30
0.0
 10
16.8633306291
 20
11.8187485079
 30
0.0
  0
SPLINE
  5
282
100
AcDbEntity
  8
0
100
AcDbSpline
 62
7
  6
CONTINUOUS
 70
0
 71
3
 72
9
 73
5
 74
0
 42
0.0000001
 43
0.0000001
 44
0.0000000001
 40
0.0
 40
0.0
 40
0.0
 40
0.0
 40
0.4776174438
 40
1.0
 40
1.0
 40
1.0
 40
1.0
 10
13.7763050765
 20
11.7913357562
 30
0.0
 10
13.7867072083
 20
11.7752212328
 30
0.0
 10
13.8117653061
 20
11.7435569423
 30
0.0
 10
13.8412480089
 20
11.7160919596
 30
0.0
 10
13.857450132
 20
11.7027665983
 30
0.0
  0
SPLINE
  5
283
100
AcDbEntity
  8
0
100
AcDbSpline
 62
7
  6
CONTINUOUS
 70
0
 71
3
 72
13
 73
9
 74
0
 42
0.0000001
 43
0.0000001
 44
0.0000000001
 40
0.0
 40
0.0
 40
0.0
 40
0.0
 40
0.3031339496
 40
0.5686462488
 40
0.6870575001
 40
0.7968754791
 40
0.9002226315
 40
1.0
 40
1.0
 40
1.0
 40
1.0
 10
16.7890312193
 20
11.6770508025
 30
0.0
 10
16.7948100999
 20
11.6770508025
 30
0.0
 10
16.8056834039
 20
11.6779636498
 30
0.0
 10
16.8183379515
 20
11.6819426147
 30
0.0
 10
16.82645865
 20
11.686782526
 30
0.0
 10
16.8312566228
 20
11.6909586737
 30
0.0
 10
16.8348872682
 20
11.695749544
 30
0.0
 10
16.8364789976
 20
11.6993254644
 30
0.0
 10
16.8370411646
 20
11.701142628
 30
0.0
  0
SPLINE
  5
284
100
AcDbEntity
  8
0
100
AcDbSpline
 62
7
  6
CONTINUOUS
 70
0
 71
3
 72
11
 73
7
 74
0
 42
0.0000001
 43
0.0000001
 44
0.0000000001
 40
0.0
 40
0.0
 40
0.0
 40
0.0
 40
0.2392013562
 40
0.4941908615
 40
0.7522037014
 40
1.0
 40
1.0
 40
1.0
 40
1.0
 10
16.5771184214
 20
11.7027665983
 30
0.0
 10
16.5820068263
 20
11.6987461523
 30
0.0
 10
16.5930050616
 20
11.6915068336
 30
0.0
 10
16.6113044047
 20
11.6834785468
 30
0.0
 10
16.630849666
 20
11.6783395602
 30
0.0
 10
16.6442515614
 20
11.6770508025
 30
0.0
 10
16.6508083216
 20
11.6770508025
 30
0.0
  0
SPLINE
  5
285
100
AcDbEntity
  8
0
100
AcDbSpline
 62
7
  6
CONTINUOUS
 70
0
 71
3
 72
9
 73
5
 74
0
 42
0.0000001
 43
0.0000001
 44
0.0000000001
 40
0.0
 40
0.0
 40
0.0
 40
0.0
 40
0.4776179525
 40
1.0
 40
1.0
 40
1.0
 40
1.0
 10
16.4959733659
 20
11.7913357562
 30
0.0
 10
16.5063755069
 20
11.7752212187
 30
0.0
 10
16.5314338255
 20
11.7435571217
 30
0.0
 10
16.560916317
 20
11.7160919441
 30
0.0
 10
16.5771184214
 20
11.7027665983
 30
0.0
  0
SPLINE
  5
286
100
AcDbEntity
  8
0
100
AcDbSpline
 62
7
  6
CONTINUOUS
 70
0
 71
3
 72
13
 73
9
 74
0
 42
0.0000001
 43
0.0000001
 44
0.0000000001
 40
0.0
 40
0.0
 40
0.0
 40
0.0
 40
0.3031339496
 40
0.5686462488
 40
0.6870575001
 40
0.7968754791
 40
0.9002226315
 40
1.0
 40
1.0
 40
1.0
 40
1.0
 10
16.2450975615
 20
11.6770508025
 30
0.0
 10
16.2508764421
 20
11.6770508025
 30
0.0
 10
16.261749746
 20
11.6779636498
 30
0.0
 10
16.2744042936
 20
11.6819426147
 30
0.0
 10
16.2825249921
 20
11.686782526
 30
0.0
 10
16.2873229649
 20
11.6909586737
 30
0.0
 10
16.2909536103
 20
11.695749544
 30
0.0
 10
16.2925453397
 20
11.6993254644
 30
0.0
 10
16.2931075067
 20
11.701142628
 30
0.0
  0
SPLINE
  5
287
100
AcDbEntity
  8
0
100
AcDbSpline
 62
7
  6
CONTINUOUS
 70
0
 71
3
 72
11
 73
7
 74
0
 42
0.0000001
 43
0.0000001
 44
0.0000000001
 40
0.0
 40
0.0
 40
0.0
 40
0.0
 40
0.2392013562
 40
0.4941908615
 40
0.7522037014
 40
1.0
 40
1.0
 40
1.0
 40
1.0
 10
16.0331847635
 20
11.7027665983
 30
0.0
 10
16.0380731684
 20
11.6987461523
 30
0.0
 10
16.0490714037
 20
11.6915068336
 30
0.0
 10
16.0673707468
 20
11.6834785468
 30
0.0
 10
16.0869160082
 20
11.6783395602
 30
0.0
 10
16.1003179036
 20
11.6770508025
 30
0.0
 10
16.1068746637
 20
11.6770508025
 30
0.0
  0
SPLINE
  5
288
100
AcDbEntity
  8
0
100
AcDbSpline
 62
7
  6
CONTINUOUS
 70
0
 71
3
 72
9
 73
5
 74
0
 42
0.0000001
 43
0.0000001
 44
0.0000000001
 40
0.0
 40
0.0
 40
0.0
 40
0.0
 40
0.4776174438
 40
1.0
 40
1.0
 40
1.0
 40
1.0
 10
15.952039708
 20
11.7913357562
 30
0.0
 10
15.9624418398
 20
11.7752212328
 30
0.0
 10
15.9874999376
 20
11.7435569423
 30
0.0
 10
16.0169826404
 20
11.7160919596
 30
0.0
 10
16.0331847635
 20
11.7027665983
 30
0.0
  0
SPLINE
  5
289
100
AcDbEntity
  8
0
100
AcDbSpline
 62
7
  6
CONTINUOUS
 70
0
 71
3
 72
13
 73
9
 74
0
 42
0.0000001
 43
0.0000001
 44
0.0000000001
 40
0.0
 40
0.0
 40
0.0
 40
0.0
 40
0.3031339496
 40
0.5686462488
 40
0.6870575001
 40
0.7968754791
 40
0.9002226315
 40
1.0
 40
1.0
 40
1.0
 40
1.0
 10
15.7011639036
 20
11.6770508025
 30
0.0
 10
15.7069427842
 20
11.6770508025
 30
0.0
 10
15.7178160882
 20
11.6779636498
 30
0.0
 10
15.7304706357
 20
11.6819426147
 30
0.0
 10
15.7385913342
 20
11.686782526
 30
0.0
 10
15.7433893071
 20
11.6909586737
 30
0.0
 10
15.7470199525
 20
11.695749544
 30
0.0
 10
15.7486116818
 20
11.6993254644
 30
0.0
 10
15.7491738488
 20
11.701142628
 30
0.0
  0
SPLINE
  5
28A
100
AcDbEntity
  8
0
100
AcDbSpline
 62
7
  6
CONTINUOUS
 70
0
 71
3
 72
11
 73
7
 74
0
 42
0.0000001
 43
0.0000001
 44
0.0000000001
 40
0.0
 40
0.0
 40
0.0
 40
0.0
 40
0.2392013562
 40
0.4941908615
 40
0.7522037014
 40
1.0
 40
1.0
 40
1.0
 40
1.0
 10
15.4892511057
 20
11.7027665983
 30
0.0
 10
15.4941395105
 20
11.6987461523
 30
0.0
 10
15.5051377458
 20
11.6915068336
 30
0.0
 10
15.5234370889
 20
11.6834785468
 30
0.0
 10
15.5429823503
 20
11.6783395602
 30
0.0
 10
15.5563842457
 20
11.6770508025
 30
0.0
 10
15.5629410058
 20
11.6770508025
 30
0.0
  0
SPLINE
  5
28B
100
AcDbEntity
  8
0
100
AcDbSpline
 62
7
  6
CONTINUOUS
 70
0
 71
3
 72
9
 73
5
 74
0
 42
0.0000001
 43
0.0000001
 44
0.0000000001
 40
0.0
 40
0.0
 40
0.0
 40
0.0
 40
0.4776174438
 40
1.0
 40
1.0
 40
1.0
 40
1.0
 10
15.4081060501
 20
11.7913357562
 30
0.0
 10
15.4185081819
 20
11.7752212328
 30
0.0
 10
15.4435662798
 20
11.7435569423
 30
0.0
 10
15.4730489825
 20
11.7160919596
 30
0.0
 10
15.4892511057
 20
11.7027665983
 30
0.0
  0
SPLINE
  5
28C
100
AcDbEntity
  8
0
100
AcDbSpline
 62
7
  6
CONTINUOUS
 70
0
 71
3
 72
13
 73
9
 74
0
 42
0.0000001
 43
0.0000001
 44
0.0000000001
 40
0.0
 40
0.0
 40
0.0
 40
0.0
 40
0.3031339496
 40
0.5686462488
 40
0.6870575001
 40
0.7968754791
 40
0.9002226315
 40
1.0
 40
1.0
 40
1.0
 40
1.0
 10
15.1572302457
 20
11.6770508025
 30
0.0
 10
15.1630091263
 20
11.6770508025
 30
0.0
 10
15.1738824303
 20
11.6779636498
 30
0.0
 10
15.1865369778
 20
11.6819426147
 30
0.0
 10
15.1946576763
 20
11.686782526
 30
0.0
 10
15.1994556492
 20
11.6909586737
 30
0.0
 10
15.2030862946
 20
11.695749544
 30
0.0
 10
15.2046780239
 20
11.6993254644
 30
0.0
 10
15.2052401909
 20
11.701142628
 30
0.0
  0
SPLINE
  5
28D
100
AcDbEntity
  8
0
100
AcDbSpline
 62
7
  6
CONTINUOUS
 70
0
 71
3
 72
11
 73
7
 74
0
 42
0.0000001
 43
0.0000001
 44
0.0000000001
 40
0.0
 40
0.0
 40
0.0
 40
0.0
 40
0.2392013562
 40
0.4941908615
 40
0.7522037014
 40
1.0
 40
1.0
 40
1.0
 40
1.0
 10
14.9453174478
 20
11.7027665983
 30
0.0
 10
14.9502058527
 20
11.6987461523
 30
0.0
 10
14.961204088
 20
11.6915068336
 30
0.0
 10
14.979503431
 20
11.6834785468
 30
0.0
 10
14.9990486924
 20
11.6783395602
 30
0.0
 10
15.0124505878
 20
11.6770508025
 30
0.0
 10
15.0190073479
 20
11.6770508025
 30
0.0
  0
SPLINE
  5
28E
100
AcDbEntity
  8
0
100
AcDbSpline
 62
7
  6
CONTINUOUS
 70
0
 71
3
 72
9
 73
5
 74
0
 42
0.0000001
 43
0.0000001
 44
0.0000000001
 40
0.0
 40
0.0
 40
0.0
 40
0.0
 40
0.4776174438
 40
1.0
 40
1.0
 40
1.0
 40
1.0
 10
14.8641723923
 20
11.7913357562
 30
0.0
 10
14.8745745241
 20
11.7752212328
 30
0.0
 10
14.8996326219
 20
11.7435569423
 30
0.0
 10
14.9291153246
 20
11.7160919596
 30
0.0
 10
14.9453174478
 20
11.7027665983
 30
0.0
  0
SPLINE
  5
28F
100
AcDbEntity
  8
0
100
AcDbSpline
 62
7
  6
CONTINUOUS
 70
0
 71
3
 72
13
 73
9
 74
0
 42
0.0000001
 43
0.0000001
 44
0.0000000001
 40
0.0
 40
0.0
 40
0.0
 40
0.0
 40
0.3031339496
 40
0.5686462488
 40
0.6870575001
 40
0.7968754791
 40
0.9002226315
 40
1.0
 40
1.0
 40
1.0
 40
1.0
 10
14.6132965878
 20
11.6770508025
 30
0.0
 10
14.6190754684
 20
11.6770508025
 30
0.0
 10
14.6299487724
 20
11.6779636498
 30
0.0
 10
14.64260332
 20
11.6819426147
 30
0.0
 10
14.6507240185
 20
11.686782526
 30
0.0
 10
14.6555219913
 20
11.6909586737
 30
0.0
 10
14.6591526367
 20
11.695749544
 30
0.0
 10
14.6607443661
 20
11.6993254644
 30
0.0
 10
14.6613065331
 20
11.701142628
 30
0.0
  0
SPLINE
  5
290
100
AcDbEntity
  8
0
100
AcDbSpline
 62
7
  6
CONTINUOUS
 70
0
 71
3
 72
11
 73
7
 74
0
 42
0.0000001
 43
0.0000001
 44
0.0000000001
 40
0.0
 40
0.0
 40
0.0
 40
0.0
 40
0.2392013562
 40
0.4941908615
 40
0.7522037014
 40
1.0
 40
1.0
 40
1.0
 40
1.0
 10
14.4013837899
 20
11.7027665983
 30
0.0
 10
14.4062721948
 20
11.6987461523
 30
0.0
 10
14.4172704301
 20
11.6915068336
 30
0.0
 10
14.4355697732
 20
11.6834785468
 30
0.0
 10
14.4551150345
 20
11.6783395602
 30
0.0
 10
14.4685169299
 20
11.6770508025
 30
0.0
 10
14.4750736901
 20
11.6770508025
 30
0.0
  0
SPLINE
  5
291
100
AcDbEntity
  8
0
100
AcDbSpline
 62
7
  6
CONTINUOUS
 70
0
 71
3
 72
9
 73
5
 74
0
 42
0.0000001
 43
0.0000001
 44
0.0000000001
 40
0.0
 40
0.0
 40
0.0
 40
0.0
 40
0.4776174438
 40
1.0
 40
1.0
 40
1.0
 40
1.0
 10
14.3202387344
 20
11.7913357562
 30
0.0
 10
14.3306408662
 20
11.7752212328
 30
0.0
 10
14.355698964
 20
11.7435569423
 30
0.0
 10
14.3851816667
 20
11.7160919596
 30
0.0
 10
14.4013837899
 20
11.7027665983
 30
0.0
  0
SPLINE
  5
292
100
AcDbEntity
  8
0
100
AcDbSpline
 62
7
  6
CONTINUOUS
 70
0
 71
3
 72
13
 73
9
 74
0
 42
0.0000001
 43
0.0000001
 44
0.0000000001
 40
0.0
 40
0.0
 40
0.0
 40
0.0
 40
0.3031339496
 40
0.5686462488
 40
0.6870575001
 40
0.7968754791
 40
0.9002226315
 40
1.0
 40
1.0
 40
1.0
 40
1.0
 10
14.06936293
 20
11.6770508025
 30
0.0
 10
14.0751418106
 20
11.6770508025
 30
0.0
 10
14.0860151145
 20
11.6779636498
 30
0.0
 10
14.0986696621
 20
11.6819426147
 30
0.0
 10
14.1067903606
 20
11.686782526
 30
0.0
 10
14.1115883334
 20
11.6909586737
 30
0.0
 10
14.1152189788
 20
11.695749544
 30
0.0
 10
14.1168107082
 20
11.6993254644
 30
0.0
 10
14.1173728752
 20
11.701142628
 30
0.0
  0
SPLINE
  5
293
100
AcDbEntity
  8
0
100
AcDbSpline
 62
7
  6
CONTINUOUS
 70
0
 71
3
 72
11
 73
7
 74
0
 42
0.0000001
 43
0.0000001
 44
0.0000000001
 40
0.0
 40
0.0
 40
0.0
 40
0.0
 40
0.2392013562
 40
0.4941908615
 40
0.7522037014
 40
1.0
 40
1.0
 40
1.0
 40
1.0
 10
13.857450132
 20
11.7027665983
 30
0.0
 10
13.8623385369
 20
11.6987461523
 30
0.0
 10
13.8733367722
 20
11.6915068336
 30
0.0
 10
13.8916361153
 20
11.6834785468
 30
0.0
 10
13.9111813766
 20
11.6783395602
 30
0.0
 10
13.9245832721
 20
11.6770508025
 30
0.0
 10
13.9311400322
 20
11.6770508025
 30
0.0
  0
SPLINE
  5
294
100
AcDbEntity
  8
0
100
AcDbSpline
 62
7
  6
CONTINUOUS
 70
0
 71
3
 72
11
 73
7
 74
0
 42
0.0000001
 43
0.0000001
 44
0.0000000001
 40
0.0
 40
0.0
 40
0.0
 40
0.0
 40
0.260030717
 40
0.5283882703
 40
0.7814357704
 40
1.0
 40
1.0
 40
1.0
 40
1.0
 10
13.7177703541
 20
11.8187485079
 30
0.0
 10
13.7235600185
 20
11.8187485079
 30
0.0
 10
13.7353467972
 20
11.8172613373
 30
0.0
 10
13.7519161225
 20
11.8115805458
 30
0.0
 10
13.766157934
 20
11.8030684404
 30
0.0
 10
13.7736658553
 20
11.7954243212
 30
0.0
 10
13.7763050765
 20
11.7913357562
 30
0.0
  0
SPLINE
  5
295
100
AcDbEntity
  8
0
100
AcDbSpline
 62
7
  6
CONTINUOUS
 70
0
 71
3
 72
11
 73
7
 74
0
 42
0.0000001
 43
0.0000001
 44
0.0000000001
 40
0.0
 40
0.0
 40
0.0
 40
0.0
 40
0.260030717
 40
0.5283882703
 40
0.7814357704
 40
1.0
 40
1.0
 40
1.0
 40
1.0
 10
14.2617040119
 20
11.8187485079
 30
0.0
 10
14.2674936764
 20
11.8187485079
 30
0.0
 10
14.279280455
 20
11.8172613373
 30
0.0
 10
14.2958497803
 20
11.8115805458
 30
0.0
 10
14.3100915918
 20
11.8030684404
 30
0.0
 10
14.3175995132
 20
11.7954243212
 30
0.0
 10
14.3202387344
 20
11.7913357562
 30
0.0
  0
SPLINE
  5
296
100
AcDbEntity
  8
0
100
AcDbSpline
 62
7
  6
CONTINUOUS
 70
0
 71
3
 72
11
 73
7
 74
0
 42
0.0000001
 43
0.0000001
 44
0.0000000001
 40
0.0
 40
0.0
 40
0.0
 40
0.0
 40
0.260030717
 40
0.5283882703
 40
0.7814357704
 40
1.0
 40
1.0
 40
1.0
 40
1.0
 10
14.8056376698
 20
11.8187485079
 30
0.0
 10
14.8114273343
 20
11.8187485079
 30
0.0
 10
14.8232141129
 20
11.8172613373
 30
0.0
 10
14.8397834382
 20
11.8115805458
 30
0.0
 10
14.8540252497
 20
11.8030684404
 30
0.0
 10
14.8615331711
 20
11.7954243212
 30
0.0
 10
14.8641723923
 20
11.7913357562
 30
0.0
  0
SPLINE
  5
297
100
AcDbEntity
  8
0
100
AcDbSpline
 62
7
  6
CONTINUOUS
 70
0
 71
3
 72
11
 73
7
 74
0
 42
0.0000001
 43
0.0000001
 44
0.0000000001
 40
0.0
 40
0.0
 40
0.0
 40
0.0
 40
0.260030717
 40
0.5283882703
 40
0.7814357704
 40
1.0
 40
1.0
 40
1.0
 40
1.0
 10
15.3495713277
 20
11.8187485079
 30
0.0
 10
15.3553609921
 20
11.8187485079
 30
0.0
 10
15.3671477708
 20
11.8172613373
 30
0.0
 10
15.3837170961
 20
11.8115805458
 30
0.0
 10
15.3979589076
 20
11.8030684404
 30
0.0
 10
15.405466829
 20
11.7954243212
 30
0.0
 10
15.4081060501
 20
11.7913357562
 30
0.0
  0
SPLINE
  5
298
100
AcDbEntity
  8
0
100
AcDbSpline
 62
7
  6
CONTINUOUS
 70
0
 71
3
 72
11
 73
7
 74
0
 42
0.0000001
 43
0.0000001
 44
0.0000000001
 40
0.0
 40
0.0
 40
0.0
 40
0.0
 40
0.260030717
 40
0.5283882703
 40
0.7814357704
 40
1.0
 40
1.0
 40
1.0
 40
1.0
 10
15.8935049856
 20
11.8187485079
 30
0.0
 10
15.89929465
 20
11.8187485079
 30
0.0
 10
15.9110814287
 20
11.8172613373
 30
0.0
 10
15.927650754
 20
11.8115805458
 30
0.0
 10
15.9418925655
 20
11.8030684404
 30
0.0
 10
15.9494004868
 20
11.7954243212
 30
0.0
 10
15.952039708
 20
11.7913357562
 30
0.0
  0
SPLINE
  5
299
100
AcDbEntity
  8
0
100
AcDbSpline
 62
7
  6
CONTINUOUS
 70
0
 71
3
 72
11
 73
7
 74
0
 42
0.0000001
 43
0.0000001
 44
0.0000000001
 40
0.0
 40
0.0
 40
0.0
 40
0.0
 40
0.260030717
 40
0.5283882703
 40
0.7814357704
 40
1.0
 40
1.0
 40
1.0
 40
1.0
 10
16.4374386434
 20
11.8187485079
 30
0.0
 10
16.4432283079
 20
11.8187485079
 30
0.0
 10
16.4550150865
 20
11.8172613373
 30
0.0
 10
16.4715844118
 20
11.8115805458
 30
0.0
 10
16.4858262233
 20
11.8030684404
 30
0.0
 10
16.4933341447
 20
11.7954243212
 30
0.0
 10
16.4959733659
 20
11.7913357562
 30
0.0
  0
SPLINE
  5
29A
100
AcDbEntity
  8
0
100
AcDbSpline
 62
7
  6
CONTINUOUS
 70
0
 71
3
 72
10
 73
6
 74
0
 42
0.0000001
 43
0.0000001
 44
0.0000000001
 40
0.0
 40
0.0
 40
0.0
 40
0.0
 40
0.239241892
 40
0.4838003572
 40
1.0
 40
1.0
 40
1.0
 40
1.0
 10
14.6617475287
 20
11.7027665983
 30
0.0
 10
14.6633811199
 20
11.7097349885
 30
0.0
 10
14.6655974325
 20
11.7241072862
 30
0.0
 10
14.6657239184
 20
11.7541043379
 30
0.0
 10
14.6608836045
 20
11.7766967952
 30
0.0
 10
14.6559657245
 20
11.7913357562
 30
0.0
  0
SPLINE
  5
29B
100
AcDbEntity
  8
0
100
AcDbSpline
 62
7
  6
CONTINUOUS
 70
0
 71
3
 72
9
 73
5
 74
0
 42
0.0000001
 43
0.0000001
 44
0.0000000001
 40
0.0
 40
0.0
 40
0.0
 40
0.0
 40
0.5171841511
 40
1.0
 40
1.0
 40
1.0
 40
1.0
 10
14.1120320666
 20
11.7913357562
 30
0.0
 10
14.1114006962
 20
11.7932151445
 30
0.0
 10
14.1106255571
 20
11.797031414
 30
0.0
 10
14.1111092079
 20
11.8009189694
 30
0.0
 10
14.1116556192
 20
11.802687332
 30
0.0
  0
SPLINE
  5
29C
100
AcDbEntity
  8
0
100
AcDbSpline
 62
7
  6
CONTINUOUS
 70
0
 71
3
 72
10
 73
6
 74
0
 42
0.0000001
 43
0.0000001
 44
0.0000000001
 40
0.0
 40
0.0
 40
0.0
 40
0.0
 40
0.239241892
 40
0.4838003572
 40
1.0
 40
1.0
 40
1.0
 40
1.0
 10
15.7496148445
 20
11.7027665983
 30
0.0
 10
15.7512484356
 20
11.7097349885
 30
0.0
 10
15.7534647483
 20
11.7241072862
 30
0.0
 10
15.7535912341
 20
11.7541043379
 30
0.0
 10
15.7487509202
 20
11.7766967952
 30
0.0
 10
15.7438330402
 20
11.7913357562
 30
0.0
  0
SPLINE
  5
29D
100
AcDbEntity
  8
0
100
AcDbSpline
 62
7
  6
CONTINUOUS
 70
0
 71
3
 72
9
 73
5
 74
0
 42
0.0000001
 43
0.0000001
 44
0.0000000001
 40
0.0
 40
0.0
 40
0.0
 40
0.0
 40
0.5171841511
 40
1.0
 40
1.0
 40
1.0
 40
1.0
 10
14.6559657245
 20
11.7913357562
 30
0.0
 10
14.6553343541
 20
11.7932151445
 30
0.0
 10
14.654559215
 20
11.797031414
 30
0.0
 10
14.6550428658
 20
11.8009189694
 30
0.0
 10
14.6555892771
 20
11.802687332
 30
0.0
  0
SPLINE
  5
29E
100
AcDbEntity
  8
0
100
AcDbSpline
 62
7
  6
CONTINUOUS
 70
0
 71
3
 72
9
 73
5
 74
0
 42
0.0000001
 43
0.0000001
 44
0.0000000001
 40
0.0
 40
0.0
 40
0.0
 40
0.0
 40
0.5171841511
 40
1.0
 40
1.0
 40
1.0
 40
1.0
 10
15.1998993824
 20
11.7913357562
 30
0.0
 10
15.199268012
 20
11.7932151445
 30
0.0
 10
15.1984928728
 20
11.797031414
 30
0.0
 10
15.1989765236
 20
11.8009189694
 30
0.0
 10
15.199522935
 20
11.802687332
 30
0.0
  0
SPLINE
  5
29F
100
AcDbEntity
  8
0
100
AcDbSpline
 62
7
  6
CONTINUOUS
 70
0
 71
3
 72
10
 73
6
 74
0
 42
0.0000001
 43
0.0000001
 44
0.0000000001
 40
0.0
 40
0.0
 40
0.0
 40
0.0
 40
0.239241892
 40
0.4838003572
 40
1.0
 40
1.0
 40
1.0
 40
1.0
 10
14.1178138708
 20
11.7027665983
 30
0.0
 10
14.119447462
 20
11.7097349885
 30
0.0
 10
14.1216637747
 20
11.7241072862
 30
0.0
 10
14.1217902605
 20
11.7541043379
 30
0.0
 10
14.1169499466
 20
11.7766967952
 30
0.0
 10
14.1120320666
 20
11.7913357562
 30
0.0
  0
SPLINE
  5
2A0
100
AcDbEntity
  8
0
100
AcDbSpline
 62
7
  6
CONTINUOUS
 70
0
 71
3
 72
10
 73
6
 74
0
 42
0.0000001
 43
0.0000001
 44
0.0000000001
 40
0.0
 40
0.0
 40
0.0
 40
0.0
 40
0.239241892
 40
0.4838003572
 40
1.0
 40
1.0
 40
1.0
 40
1.0
 10
16.2935485023
 20
11.7027665983
 30
0.0
 10
16.2951820935
 20
11.7097349885
 30
0.0
 10
16.2973984062
 20
11.7241072862
 30
0.0
 10
16.297524892
 20
11.7541043379
 30
0.0
 10
16.2926845781
 20
11.7766967952
 30
0.0
 10
16.2877666981
 20
11.7913357562
 30
0.0
  0
SPLINE
  5
2A1
100
AcDbEntity
  8
0
100
AcDbSpline
 62
7
  6
CONTINUOUS
 70
0
 71
3
 72
9
 73
5
 74
0
 42
0.0000001
 43
0.0000001
 44
0.0000000001
 40
0.0
 40
0.0
 40
0.0
 40
0.0
 40
0.5171841511
 40
1.0
 40
1.0
 40
1.0
 40
1.0
 10
15.7438330402
 20
11.7913357562
 30
0.0
 10
15.7432016699
 20
11.7932151445
 30
0.0
 10
15.7424265307
 20
11.797031414
 30
0.0
 10
15.7429101815
 20
11.8009189694
 30
0.0
 10
15.7434565928
 20
11.802687332
 30
0.0
  0
SPLINE
  5
2A2
100
AcDbEntity
  8
0
100
AcDbSpline
 62
7
  6
CONTINUOUS
 70
0
 71
3
 72
10
 73
6
 74
0
 42
0.0000001
 43
0.0000001
 44
0.0000000001
 40
0.0
 40
0.0
 40
0.0
 40
0.0
 40
0.239241892
 40
0.4838003572
 40
1.0
 40
1.0
 40
1.0
 40
1.0
 10
15.2056811866
 20
11.7027665983
 30
0.0
 10
15.2073147778
 20
11.7097349885
 30
0.0
 10
15.2095310904
 20
11.7241072862
 30
0.0
 10
15.2096575762
 20
11.7541043379
 30
0.0
 10
15.2048172624
 20
11.7766967952
 30
0.0
 10
15.1998993824
 20
11.7913357562
 30
0.0
  0
SPLINE
  5
2A3
100
AcDbEntity
  8
0
100
AcDbSpline
 62
7
  6
CONTINUOUS
 70
0
 71
3
 72
9
 73
5
 74
0
 42
0.0000001
 43
0.0000001
 44
0.0000000001
 40
0.0
 40
0.0
 40
0.0
 40
0.0
 40
0.5171841511
 40
1.0
 40
1.0
 40
1.0
 40
1.0
 10
16.2877666981
 20
11.7913357562
 30
0.0
 10
16.2871353278
 20
11.7932151445
 30
0.0
 10
16.2863601886
 20
11.797031414
 30
0.0
 10
16.2868438394
 20
11.8009189694
 30
0.0
 10
16.2873902507
 20
11.802687332
 30
0.0
  0
SPLINE
  5
2A4
100
AcDbEntity
  8
0
100
AcDbSpline
 62
7
  6
CONTINUOUS
 70
0
 71
3
 72
9
 73
5
 74
0
 42
0.0000001
 43
0.0000001
 44
0.0000000001
 40
0.0
 40
0.0
 40
0.0
 40
0.0
 40
0.5171841511
 40
1.0
 40
1.0
 40
1.0
 40
1.0
 10
16.831700356
 20
11.7913357562
 30
0.0
 10
16.8310689856
 20
11.7932151445
 30
0.0
 10
16.8302938465
 20
11.797031414
 30
0.0
 10
16.8307774973
 20
11.8009189694
 30
0.0
 10
16.8313239086
 20
11.802687332
 30
0.0
  0
SPLINE
  5
2A5
100
AcDbEntity
  8
0
100
AcDbSpline
 62
7
  6
CONTINUOUS
 70
0
 71
3
 72
10
 73
6
 74
0
 42
0.0000001
 43
0.0000001
 44
0.0000000001
 40
0.0
 40
0.0
 40
0.0
 40
0.0
 40
0.2392552135
 40
0.4838014689
 40
1.0
 40
1.0
 40
1.0
 40
1.0
 10
16.8374821602
 20
11.7027665983
 30
0.0
 10
16.8391158427
 20
11.7097353779
 30
0.0
 10
16.8413328765
 20
11.724107642
 30
0.0
 10
16.8414576062
 20
11.7541047304
 30
0.0
 10
16.8366182263
 20
11.7766968239
 30
0.0
 10
16.831700356
 20
11.7913357562
 30
0.0
  0
ENDSEC
  0
SECTION
  2
OBJECTS
  0
DICTIONARY
  5
C
100
AcDbDictionary
280
0
281
1
  3
ACAD_GROUP
350
D
  3
ACAD_MLINESTYLE
350
17
  3
ACAD_LAYOUT
350
1A
  3
ACAD_PLOTSETTINGS
350
19
  3
ACAD_PLOTSTYLENAME
350
E
  0
DICTIONARY
  5
D
102
{ACAD_REACTORS
330
C
102
}
100
AcDbDictionary
280
0
281
1
  0
ACDBDICTIONARYWDFLT
  5
E
102
{ACAD_REACTORS
330
C
102
}
100
AcDbDictionary
281
1
  3
Normal
350
F
100
AcDbDictionaryWithDefault
340
F
  0
DICTIONARY
  5
17
102
{ACAD_REACTORS
330
C
102
}
100
AcDbDictionary
280
0
281
1
  3
Standard
350
18
  0
DICTIONARY
  5
19
102
{ACAD_REACTORS
330
C
102
}
100
AcDbDictionary
281
1
  0
DICTIONARY
  5
1A
102
{ACAD_REACTORS
330
C
102
}
100
AcDbDictionary
281
1
  3
Model
350
2A6
  3
Layout1
350
2A7
  0
ACDBPLACEHOLDER
  5
F
102
{ACAD_REACTORS
330
E
102
}
  0
MLINESTYLE
  5
18
102
{ACAD_REACTORS
330
17
102
}
100
AcDbMlineStyle
  2
STANDARD
 70
0
  3

 62
256
 51
90.0
 52
90.0
 71
2
 49
0.5
 62
256
  6
BYLAYER
 49
-0.5
 62
256
  6
BYLAYER
  0
LAYOUT
  5
2A6
102
{ACAD_REACTORS
330
1A
102
}
100
AcDbPlotSettings
  1

  2
none_device
  4
ANSI_C_(22.00_x_17.00_Inches)
  6

 40
0.0
 41
0.0
 42
0.0
 43
0.0
 44
558.8
 45
431.8
 46
0.0
 47
0.0
 48
0.0
 49
0.0
140
0.0
141
0.0
142
1.0
143
1.0
 70
1024
 72
0
 73
0
 74
0
  7

 75
0
147
1.0
148
0.0
149
0.0
100
AcDbLayout
  1
Model
 70
0
 71
0
 10
0.0
 20
0.0
 11
22.0
 21
17.0
 12
0.0
 22
0.0
 32
0.0
 14
0.0
 24
0.0
 34
0.0
 15
0.0
 25
0.0
 35
0.0
146
0.0
 13
0.0
 23
0.0
 33
0.0
 16
1.0
 26
0.0
 36
0.0
 17
0.0
 27
1.0
 37
0.0
 76
0
330
216
345
0
346
0
  0
LAYOUT
  5
2A7
102
{ACAD_REACTORS
330
1A
102
}
100
AcDbPlotSettings
  1

  2
none_device
  4
ANSI_C_(22.00_x_17.00_Inches)
  6

 40
0.0
 41
0.0
 42
0.0
 43
0.0
 44
558.8
 45
431.8
 46
0.0
 47
0.0
 48
0.0
 49
0.0
140
0.0
141
0.0
142
1.0
143
1.0
 70
0
 72
0
 73
0
 74
0
  7

 75
0
147
1.0
148
0.0
149
0.0
100
AcDbLayout
  1
Layout1
 70
0
 71
1
 10
0.0
 20
0.0
 11
22.0
 21
17.0
 12
0.0
 22
0.0
 32
0.0
 14
0.0
 24
0.0
 34
0.0
 15
0.0
 25
0.0
 35
0.0
146
0.0
 13
0.0
 23
0.0
 33
0.0
 16
1.0
 26
0.0
 36
0.0
 17
0.0
 27
1.0
 37
0.0
 76
0
330
217
345
0
346
0
  0
ENDSEC
  0
EOF