999
DXF file: _cgs_temp_output.dxf
999
Pro/ENGINEER 2015110 by Parametric Technology Corporation
  0
SECTION
  2
HEADER
  9
$ACADVER
  1
AC1021
  9
$DWGCODEPAGE
  3
ANSI_1252
  9
$EXTMAX
 10
22.0
 20
17.0
 30
0.0
  9
$EXTMIN
 10
0.0
 20
0.0
 30
0.0
  9
$LIMMIN
 10
0.0
 20
0.0
  9
$LIMMAX
 10
22.0
 20
17.0
  9
$VIEWCTR
 10
11.0
 20
8.5
  9
$VIEWSIZE
 40
17.0
  9
$CLAYER
  8
0
  9
$LTSCALE
 40
1.21
  9
$CELTYPE
  6
BYLAYER
  9
$DIMSCALE
 40
1.0
  9
$DIMASZ
 40
0.1875
  9
$DIMEXO
 40
0.0625
  9
$DIMDLI
 40
0.836
  9
$DIMEXE
 40
0.125
  9
$DIMCEN
 40
0.198
  9
$DIMLFAC
 40
1.0
  9
$DIMBLK
  1
_CLOSED
  9
$DIMALT
 70
0
  9
$DIMALTF
 40
25.4
  9
$DIMTXT
 40
0.15625
  9
$DIMTOL
 70
0
  9
$DIMLIM
 70
0
  9
$DIMTFAC
 40
1.0
  9
$DIMGAP
 40
0.09
  9
$DIMDSEP
 70
46
  9
$AUNITS
 70
0
  9
$PDMODE
 70
3
  9
$PDSIZE
 40
0.3125
  9
$HANDSEED
  5
323
  9
$TILEMODE
 70
1
  9
$MEASUREMENT
 70
0
  9
$INSUNITS
 70
1
  0
ENDSEC
  0
SECTION
  2
CLASSES
  0
CLASS
  1
ACDBDICTIONARYWDFLT
  2
AcDbDictionaryWithDefault
  3
AutoCAD 2000
 90
0
 91
1
280
0
281
0
  0
CLASS
  1
ACDBPLACEHOLDER
  2
AcDbPlaceHolder
  3
AutoCAD 2000
 90
0
 91
1
280
0
281
0
  0
CLASS
  1
LAYOUT
  2
AcDbLayout
  3
AutoCAD 2000
 90
0
 91
0
280
0
281
0
  0
ENDSEC
  0
SECTION
  2
TABLES
  0
TABLE
  2
VPORT
  5
8
100
AcDbSymbolTable
 70
2
  0
VPORT
  5
1F4
100
AcDbSymbolTableRecord
100
AcDbViewportTableRecord
  2
*ACTIVE
 70
0
 10
0.0
 20
0.0
 11
1.0
 21
1.0
 12
11.0
 22
8.5
 13
0.0
 23
0.0
 14
1.0
 24
1.0
 15
0.0
 25
0.0
 16
0.0
 26
0.0
 36
1.0
 17
0.0
 27
0.0
 37
0.0
 40
17.0
 41
1.2941176471
 42
50.0
 43
0.0
 44
0.0
 50
0.0
 51
0.0
 71
0
 72
100
 73
1
 74
1
 75
0
 76
0
 77
0
 78
0
  0
ENDTAB
  0
TABLE
  2
LTYPE
  5
5
100
AcDbSymbolTable
 70
6
  0
LTYPE
  5
14
100
AcDbSymbolTableRecord
100
AcDbLinetypeTableRecord
  2
BYBLOCK
 70
0
  3

 72
65
 73
0
 40
0.0
  0
LTYPE
  5
15
100
AcDbSymbolTableRecord
100
AcDbLinetypeTableRecord
  2
BYLAYER
 70
0
  3

 72
65
 73
0
 40
0.0
  0
LTYPE
  5
16
100
AcDbSymbolTableRecord
100
AcDbLinetypeTableRecord
  2
CONTINUOUS
 70
64
  3
Solid line
 72
65
 73
0
 40
0.0
  0
LTYPE
  5
1F5
100
AcDbSymbolTableRecord
100
AcDbLinetypeTableRecord
  2
CENTER
 70
64
  3
____ _ ____ _ ____ _ ____ _ ____ _ ____ _ ____
 72
65
 73
4
 40
0.6
 49
0.375
 74
0
 49
-0.075
 74
0
 49
0.075
 74
0
 49
-0.075
 74
0
  0
LTYPE
  5
1F6
100
AcDbSymbolTableRecord
100
AcDbLinetypeTableRecord
  2
HIDDEN
 70
64
  3
- - - - - - - - - - - - - - - - - - - -
 72
65
 73
2
 40
0.2
 49
0.1
 74
0
 49
-0.1
 74
0
  0
LTYPE
  5
1F7
100
AcDbSymbolTableRecord
100
AcDbLinetypeTableRecord
  2
PHANTOM
 70
64
  3
_____ _ _ _____ _ _ _____ _ _ _____
 72
65
 73
6
 40
0.8
 49
0.45
 74
0
 49
-0.05
 74
0
 49
0.1
 74
0
 49
-0.05
 74
0
 49
0.1
 74
0
 49
-0.05
 74
0
  0
LTYPE
  5
1F8
100
AcDbSymbolTableRecord
100
AcDbLinetypeTableRecord
  2
DOT
 70
64
  3
. . . . . . . . . . . . . . . . . . . .
 72
65
 73
2
 40
0.2
 49
0.1
 74
0
 49
-0.1
 74
0
  0
LTYPE
  5
1F9
100
AcDbSymbolTableRecord
100
AcDbLinetypeTableRecord
  2
DASHED
 70
64
  3
- - - - - - - - - - - - - - - - - - - -
 72
65
 73
2
 40
0.2
 49
0.1
 74
0
 49
-0.1
 74
0
  0
ENDTAB
  0
TABLE
  2
LAYER
  5
2
100
AcDbSymbolTable
 70
36
  0
LAYER
  5
10
100
AcDbSymbolTableRecord
100
AcDbLayerTableRecord
  2
0
 70
0
 62
7
  6
CONTINUOUS
370
-3
390
F
  0
LAYER
  5
1FA
100
AcDbSymbolTableRecord
100
AcDbLayerTableRecord
  2
DEFAULT_1
 70
0
 62
7
  6
CENTER
370
-3
390
F
  0
LAYER
  5
1FB
100
AcDbSymbolTableRecord
100
AcDbLayerTableRecord
  2
DEFAULT_2
 70
0
 62
8
  6
HIDDEN
370
-3
390
F
  0
LAYER
  5
1FC
100
AcDbSymbolTableRecord
100
AcDbLayerTableRecord
  2
DEFAULT_3
 70
0
 62
7
  6
PHANTOM
370
-3
390
F
  0
LAYER
  5
1FD
100
AcDbSymbolTableRecord
100
AcDbLayerTableRecord
  2
01_ALL_DTM_PLN
 70
0
 62
7
  6
CONTINUOUS
370
-3
390
F
  0
LAYER
  5
1FE
100
AcDbSymbolTableRecord
100
AcDbLayerTableRecord
  2
01__ASM_ALL_DTM_PLN
 70
0
 62
7
  6
CONTINUOUS
370
-3
390
F
  0
LAYER
  5
1FF
100
AcDbSymbolTableRecord
100
AcDbLayerTableRecord
  2
01__ASM_DEF_DTM_PLN
 70
0
 62
7
  6
CONTINUOUS
370
-3
390
F
  0
LAYER
  5
200
100
AcDbSymbolTableRecord
100
AcDbLayerTableRecord
  2
01___PRT_ALL_DTM_PLN
 70
0
 62
7
  6
CONTINUOUS
370
-3
390
F
  0
LAYER
  5
201
100
AcDbSymbolTableRecord
100
AcDbLayerTableRecord
  2
01___PRT_DEF_DTM_PLN
 70
0
 62
7
  6
CONTINUOUS
370
-3
390
F
  0
LAYER
  5
202
100
AcDbSymbolTableRecord
100
AcDbLayerTableRecord
  2
02_ALL_AXES
 70
0
 62
7
  6
CONTINUOUS
370
-3
390
F
  0
LAYER
  5
203
100
AcDbSymbolTableRecord
100
AcDbLayerTableRecord
  2
02__ASM_ALL_AXES
 70
0
 62
7
  6
CONTINUOUS
370
-3
390
F
  0
LAYER
  5
204
100
AcDbSymbolTableRecord
100
AcDbLayerTableRecord
  2
02___PRT_ALL_AXES
 70
0
 62
7
  6
CONTINUOUS
370
-3
390
F
  0
LAYER
  5
205
100
AcDbSymbolTableRecord
100
AcDbLayerTableRecord
  2
03_ALL_CURVES
 70
0
 62
7
  6
CONTINUOUS
370
-3
390
F
  0
LAYER
  5
206
100
AcDbSymbolTableRecord
100
AcDbLayerTableRecord
  2
03__ASM_ALL_CURVES
 70
0
 62
7
  6
CONTINUOUS
370
-3
390
F
  0
LAYER
  5
207
100
AcDbSymbolTableRecord
100
AcDbLayerTableRecord
  2
03___PRT_ALL_CURVES
 70
0
 62
7
  6
CONTINUOUS
370
-3
390
F
  0
LAYER
  5
208
100
AcDbSymbolTableRecord
100
AcDbLayerTableRecord
  2
04_ALL_DTM_PNT
 70
0
 62
7
  6
CONTINUOUS
370
-3
390
F
  0
LAYER
  5
209
100
AcDbSymbolTableRecord
100
AcDbLayerTableRecord
  2
04__ASM_ALL_DTM_PNT
 70
0
 62
7
  6
CONTINUOUS
370
-3
390
F
  0
LAYER
  5
20A
100
AcDbSymbolTableRecord
100
AcDbLayerTableRecord
  2
04___PRT_ALL_DTM_PNT
 70
0
 62
7
  6
CONTINUOUS
370
-3
390
F
  0
LAYER
  5
20B
100
AcDbSymbolTableRecord
100
AcDbLayerTableRecord
  2
05_ALL_DTM_CSYS
 70
0
 62
7
  6
CONTINUOUS
370
-3
390
F
  0
LAYER
  5
20C
100
AcDbSymbolTableRecord
100
AcDbLayerTableRecord
  2
05__ASM_ALL_DTM_CSYS
 70
0
 62
7
  6
CONTINUOUS
370
-3
390
F
  0
LAYER
  5
20D
100
AcDbSymbolTableRecord
100
AcDbLayerTableRecord
  2
05__ASM_DEF_DTM_CSYS
 70
0
 62
7
  6
CONTINUOUS
370
-3
390
F
  0
LAYER
  5
20E
100
AcDbSymbolTableRecord
100
AcDbLayerTableRecord
  2
05___PRT_ALL_DTM_CSYS
 70
0
 62
7
  6
CONTINUOUS
370
-3
390
F
  0
LAYER
  5
20F
100
AcDbSymbolTableRecord
100
AcDbLayerTableRecord
  2
05___PRT_DEF_DTM_CSYS
 70
0
 62
7
  6
CONTINUOUS
370
-3
390
F
  0
LAYER
  5
210
100
AcDbSymbolTableRecord
100
AcDbLayerTableRecord
  2
06_ALL_SURFS
 70
0
 62
7
  6
CONTINUOUS
370
-3
390
F
  0
LAYER
  5
211
100
AcDbSymbolTableRecord
100
AcDbLayerTableRecord
  2
06__ASM_ALL_SURFS
 70
0
 62
7
  6
CONTINUOUS
370
-3
390
F
  0
LAYER
  5
212
100
AcDbSymbolTableRecord
100
AcDbLayerTableRecord
  2
06___PRT_ALL_SURFS
 70
0
 62
7
  6
CONTINUOUS
370
-3
390
F
  0
LAYER
  5
213
100
AcDbSymbolTableRecord
100
AcDbLayerTableRecord
  2
07__ASM_ALL_SKELETONS
 70
0
 62
7
  6
CONTINUOUS
370
-3
390
F
  0
ENDTAB
  0
TABLE
  2
STYLE
  5
3
100
AcDbSymbolTable
 70
1
  0
STYLE
  5
11
100
AcDbSymbolTableRecord
100
AcDbTextStyleTableRecord
  2
STANDARD
 70
0
 40
0.0
 41
0.8
 50
0.0
 71
0
 42
0.2
  3
txt
  4

  0
STYLE
  5
214
100
AcDbSymbolTableRecord
100
AcDbTextStyleTableRecord
  2
TEXTSTYLE_1
 70
0
 40
0.0
 41
0.8
 50
0.0
 71
0
 42
0.2
  3
gdt
  4

  0
ENDTAB
  0
TABLE
  2
VIEW
  5
6
100
AcDbSymbolTable
 70
0
  0
ENDTAB
  0
TABLE
  2
UCS
  5
7
100
AcDbSymbolTable
 70
0
  0
ENDTAB
  0
TABLE
  2
APPID
  5
9
100
AcDbSymbolTable
 70
1
  0
APPID
  5
215
100
AcDbSymbolTableRecord
100
AcDbRegAppTableRecord
  2
ACAD
 70
0
  0
ENDTAB
  0
TABLE
  2
BLOCK_RECORD
  5
1
100
AcDbSymbolTable
 70
0
  0
BLOCK_RECORD
  5
216
100
AcDbSymbolTableRecord
100
AcDbBlockTableRecord
  2
*Model_Space
  0
BLOCK_RECORD
  5
217
100
AcDbSymbolTableRecord
100
AcDbBlockTableRecord
  2
*Paper_Space
  0
ENDTAB
  0
TABLE
  2
DIMSTYLE
  5
A
100
AcDbSymbolTable
 70
1
100
AcDbDimStyleTable
 71
0
  0
DIMSTYLE
105
218
100
AcDbSymbolTableRecord
100
AcDbDimStyleTableRecord
  2
STANDARD
 70
0
  3

  4

 40
1.0
 41
0.1875
 42
0.0625
 43
0.38
 44
0.125
 45
0.0
 46
0.0
 47
0.0001
 48
0.0001
140
0.15625
141
0.09
142
0.0
143
25.4
144
1.0
145
0.0
146
1.0
147
0.09
 71
0.0
 72
0.0
 73
1
 74
1
 75
0
 76
0
 77
0
 78
4
170
0
171
2
172
0
173
0
174
0
175
0
176
0
177
0
178
0
270
2
271
4
272
4
273
2
274
2
275
0
280
0
281
0
282
0
283
1
284
4
285
0
286
0
287
3
288
0
340
11
278
46
  0
ENDTAB
  0
ENDSEC
  0
SECTION
  2
BLOCKS
  0
BLOCK
  5
20
100
AcDbEntity
  8
0
100
AcDbBlockBegin
  2
*Model_Space
 70
0
 10
0.0
 20
0.0
 30
0.0
  3
*Model_Space
  1

  0
ENDBLK
  5
21
100
AcDbEntity
  8
0
100
AcDbBlockEnd
  0
BLOCK
  5
1C
100
AcDbEntity
  8
0
100
AcDbBlockBegin
  2
*Paper_Space
 70
0
 10
0.0
 20
0.0
 30
0.0
  3
*Paper_Space
  1

  0
ENDBLK
  5
1D
100
AcDbEntity
  8
0
100
AcDbBlockEnd
  0
ENDSEC
  0
SECTION
  2
ENTITIES
  0
MTEXT
  5
219
100
AcDbEntity
  8
0
100
AcDbMText
 62
7
  6
CONTINUOUS
  7
STANDARD
 71
1
 72
1
 10
15.9560215477
 20
0.9479130325
 30
0.0
 11
1.0
 21
0.0
 31
0.0
 44
0.9
  1
SCALE: 1:1.000
 40
0.3
 41
3.36
  0
LINE
  5
21A
100
AcDbEntity
  8
0
100
AcDbLine
 62
7
  6
CONTINUOUS
 10
0.0
 20
0.0
 11
0.0
 21
17.0
  0
LINE
  5
21B
100
AcDbEntity
  8
0
100
AcDbLine
 62
7
  6
CONTINUOUS
 10
0.0
 20
0.0
 11
22.0
 21
0.0
  0
LINE
  5
21C
100
AcDbEntity
  8
0
100
AcDbLine
 62
7
  6
CONTINUOUS
 10
0.0
 20
17.0
 11
22.0
 21
17.0
  0
LINE
  5
21D
100
AcDbEntity
  8
0
100
AcDbLine
 62
7
  6
CONTINUOUS
 10
22.0
 20
0.0
 11
22.0
 21
17.0
  0
LINE
  5
21E
100
AcDbEntity
  8
0
100
AcDbLine
 62
7
  6
CONTINUOUS
 10
5.8178672762
 20
5.7789766437
 11
5.8178672762
 21
5.7614340575
  0
LINE
  5
21F
100
AcDbEntity
  8
0
100
AcDbLine
 62
7
  6
CONTINUOUS
 10
5.9356722571
 20
5.2469429719
 11
6.3250622953
 21
5.2469429719
  0
LINE
  5
220
100
AcDbEntity
  8
0
100
AcDbLine
 62
7
  6
CONTINUOUS
 10
5.9011471477
 20
5.4292346386
 11
6.3595874047
 21
5.4292346386
  0
LINE
  5
221
100
AcDbEntity
  8
0
100
AcDbLine
 62
7
  6
CONTINUOUS
 10
6.4428672762
 20
5.7614340575
 11
6.4428672762
 21
5.7789766437
  0
LINE
  5
222
100
AcDbEntity
  8
0
100
AcDbLine
 62
7
  6
CONTINUOUS
 10
6.3833720839
 20
10.6000477814
 11
5.7583720839
 21
10.6000477814
  0
LINE
  5
223
100
AcDbEntity
  8
0
100
AcDbLine
 62
7
  6
CONTINUOUS
 10
5.7583720839
 20
10.6000477814
 11
5.7583720839
 21
14.6000477814
  0
LINE
  5
224
100
AcDbEntity
  8
0
100
AcDbLine
 62
7
  6
CONTINUOUS
 10
6.3833720839
 20
10.6000477814
 11
6.3833720839
 21
14.6000477814
  0
LINE
  5
225
100
AcDbEntity
  8
0
100
AcDbLine
 62
7
  6
CONTINUOUS
 10
5.7583720839
 20
14.6000477814
 11
6.3833720839
 21
14.6000477814
  0
LINE
  5
226
100
AcDbEntity
  8
0
100
AcDbLine
 62
7
  6
CONTINUOUS
 10
13.5603552569
 20
5.3697394463
 11
13.5603552569
 21
5.7343227298
  0
LINE
  5
227
100
AcDbEntity
  8
0
100
AcDbLine
 62
7
  6
CONTINUOUS
 10
13.6523598649
 20
5.3132254607
 11
13.668350649
 21
5.2439617652
  0
LINE
  5
228
100
AcDbEntity
  8
0
100
AcDbLine
 62
7
  6
CONTINUOUS
 10
13.8523598649
 20
5.2439617652
 11
13.868350649
 21
5.3132254607
  0
LINE
  5
229
100
AcDbEntity
  8
0
100
AcDbLine
 62
7
  6
CONTINUOUS
 10
14.0523598649
 20
5.3132254607
 11
14.068350649
 21
5.2439617652
  0
LINE
  5
22A
100
AcDbEntity
  8
0
100
AcDbLine
 62
7
  6
CONTINUOUS
 10
14.2523598649
 20
5.2439617652
 11
14.268350649
 21
5.3132254607
  0
LINE
  5
22B
100
AcDbEntity
  8
0
100
AcDbLine
 62
7
  6
CONTINUOUS
 10
14.4523598649
 20
5.3132254607
 11
14.468350649
 21
5.2439617652
  0
LINE
  5
22C
100
AcDbEntity
  8
0
100
AcDbLine
 62
7
  6
CONTINUOUS
 10
14.6523598649
 20
5.2439617652
 11
14.668350649
 21
5.3132254607
  0
LINE
  5
22D
100
AcDbEntity
  8
0
100
AcDbLine
 62
7
  6
CONTINUOUS
 10
14.8523598649
 20
5.3132254607
 11
14.868350649
 21
5.2439617652
  0
LINE
  5
22E
100
AcDbEntity
  8
0
100
AcDbLine
 62
7
  6
CONTINUOUS
 10
15.0523598649
 20
5.2439617652
 11
15.068350649
 21
5.3132254607
  0
LINE
  5
22F
100
AcDbEntity
  8
0
100
AcDbLine
 62
7
  6
CONTINUOUS
 10
13.7393984662
 20
5.1874477796
 11
13.7813120477
 21
5.1874477796
  0
LINE
  5
230
100
AcDbEntity
  8
0
100
AcDbLine
 62
7
  6
CONTINUOUS
 10
14.1393984662
 20
5.1874477796
 11
14.1813120477
 21
5.1874477796
  0
LINE
  5
231
100
AcDbEntity
  8
0
100
AcDbLine
 62
7
  6
CONTINUOUS
 10
14.5393984662
 20
5.1874477796
 11
14.5813120477
 21
5.1874477796
  0
LINE
  5
232
100
AcDbEntity
  8
0
100
AcDbLine
 62
7
  6
CONTINUOUS
 10
14.9393984662
 20
5.1874477796
 11
14.9813120477
 21
5.1874477796
  0
LINE
  5
233
100
AcDbEntity
  8
0
100
AcDbLine
 62
7
  6
CONTINUOUS
 10
15.3393984662
 20
5.1874477796
 11
15.3813120477
 21
5.1874477796
  0
LINE
  5
234
100
AcDbEntity
  8
0
100
AcDbLine
 62
7
  6
CONTINUOUS
 10
15.7393984662
 20
5.1874477796
 11
15.7813120477
 21
5.1874477796
  0
LINE
  5
235
100
AcDbEntity
  8
0
100
AcDbLine
 62
7
  6
CONTINUOUS
 10
16.1393984662
 20
5.1874477796
 11
16.1813120477
 21
5.1874477796
  0
LINE
  5
236
100
AcDbEntity
  8
0
100
AcDbLine
 62
7
  6
CONTINUOUS
 10
16.5393984662
 20
5.1874477796
 11
16.5813120477
 21
5.1874477796
  0
LINE
  5
237
100
AcDbEntity
  8
0
100
AcDbLine
 62
7
  6
CONTINUOUS
 10
16.9393984662
 20
5.1874477796
 11
16.9813120477
 21
5.1874477796
  0
LINE
  5
238
100
AcDbEntity
  8
0
100
AcDbLine
 62
7
  6
CONTINUOUS
 10
17.3393984662
 20
5.1874477796
 11
17.3813120477
 21
5.1874477796
  0
LINE
  5
239
100
AcDbEntity
  8
0
100
AcDbLine
 62
7
  6
CONTINUOUS
 10
15.2523598649
 20
5.3132254607
 11
15.268350649
 21
5.2439617652
  0
LINE
  5
23A
100
AcDbEntity
  8
0
100
AcDbLine
 62
7
  6
CONTINUOUS
 10
15.4523598649
 20
5.2439617652
 11
15.468350649
 21
5.3132254607
  0
LINE
  5
23B
100
AcDbEntity
  8
0
100
AcDbLine
 62
7
  6
CONTINUOUS
 10
13.5603552569
 20
5.3697394463
 11
13.5813120477
 21
5.3697394463
  0
LINE
  5
23C
100
AcDbEntity
  8
0
100
AcDbLine
 62
7
  6
CONTINUOUS
 10
13.9393984662
 20
5.3697394463
 11
13.9813120477
 21
5.3697394463
  0
LINE
  5
23D
100
AcDbEntity
  8
0
100
AcDbLine
 62
7
  6
CONTINUOUS
 10
14.3393984662
 20
5.3697394463
 11
14.3813120477
 21
5.3697394463
  0
LINE
  5
23E
100
AcDbEntity
  8
0
100
AcDbLine
 62
7
  6
CONTINUOUS
 10
14.7393984662
 20
5.3697394463
 11
14.7813120477
 21
5.3697394463
  0
LINE
  5
23F
100
AcDbEntity
  8
0
100
AcDbLine
 62
7
  6
CONTINUOUS
 10
15.1393984662
 20
5.3697394463
 11
15.1813120477
 21
5.3697394463
  0
LINE
  5
240
100
AcDbEntity
  8
0
100
AcDbLine
 62
7
  6
CONTINUOUS
 10
15.5393984662
 20
5.3697394463
 11
15.5813120477
 21
5.3697394463
  0
LINE
  5
241
100
AcDbEntity
  8
0
100
AcDbLine
 62
7
  6
CONTINUOUS
 10
15.9393984662
 20
5.3697394463
 11
15.9813120477
 21
5.3697394463
  0
LINE
  5
242
100
AcDbEntity
  8
0
100
AcDbLine
 62
7
  6
CONTINUOUS
 10
16.3393984662
 20
5.3697394463
 11
16.3813120477
 21
5.3697394463
  0
LINE
  5
243
100
AcDbEntity
  8
0
100
AcDbLine
 62
7
  6
CONTINUOUS
 10
16.7393984662
 20
5.3697394463
 11
16.7813120477
 21
5.3697394463
  0
LINE
  5
244
100
AcDbEntity
  8
0
100
AcDbLine
 62
7
  6
CONTINUOUS
 10
17.1393984662
 20
5.3697394463
 11
17.1813120477
 21
5.3697394463
  0
LINE
  5
245
100
AcDbEntity
  8
0
100
AcDbLine
 62
7
  6
CONTINUOUS
 10
17.5393984662
 20
5.3697394463
 11
17.5603552569
 21
5.3697394463
  0
LINE
  5
246
100
AcDbEntity
  8
0
100
AcDbLine
 62
7
  6
CONTINUOUS
 10
15.6523598649
 20
5.3132254607
 11
15.668350649
 21
5.2439617652
  0
LINE
  5
247
100
AcDbEntity
  8
0
100
AcDbLine
 62
7
  6
CONTINUOUS
 10
17.5603552569
 20
5.7343227796
 11
13.5603552569
 21
5.7343227796
  0
LINE
  5
248
100
AcDbEntity
  8
0
100
AcDbLine
 62
7
  6
CONTINUOUS
 10
15.8523598649
 20
5.2439617652
 11
15.868350649
 21
5.3132254607
  0
LINE
  5
249
100
AcDbEntity
  8
0
100
AcDbLine
 62
7
  6
CONTINUOUS
 10
16.0523598649
 20
5.3132254607
 11
16.068350649
 21
5.2439617652
  0
LINE
  5
24A
100
AcDbEntity
  8
0
100
AcDbLine
 62
7
  6
CONTINUOUS
 10
16.2523598649
 20
5.2439617652
 11
16.268350649
 21
5.3132254607
  0
LINE
  5
24B
100
AcDbEntity
  8
0
100
AcDbLine
 62
7
  6
CONTINUOUS
 10
16.4523598649
 20
5.3132254607
 11
16.468350649
 21
5.2439617652
  0
LINE
  5
24C
100
AcDbEntity
  8
0
100
AcDbLine
 62
7
  6
CONTINUOUS
 10
16.6523598649
 20
5.2439617652
 11
16.668350649
 21
5.3132254607
  0
LINE
  5
24D
100
AcDbEntity
  8
0
100
AcDbLine
 62
7
  6
CONTINUOUS
 10
16.8523598649
 20
5.3132254607
 11
16.868350649
 21
5.2439617652
  0
LINE
  5
24E
100
AcDbEntity
  8
0
100
AcDbLine
 62
7
  6
CONTINUOUS
 10
17.0523598649
 20
5.2439617652
 11
17.068350649
 21
5.3132254607
  0
LINE
  5
24F
100
AcDbEntity
  8
0
100
AcDbLine
 62
7
  6
CONTINUOUS
 10
17.2523598649
 20
5.3132254607
 11
17.268350649
 21
5.2439617652
  0
LINE
  5
250
100
AcDbEntity
  8
0
100
AcDbLine
 62
7
  6
CONTINUOUS
 10
17.5603552569
 20
5.3697394463
 11
17.5603552569
 21
5.7343227298
  0
LINE
  5
251
100
AcDbEntity
  8
0
100
AcDbLine
 62
7
  6
CONTINUOUS
 10
17.4523598649
 20
5.2439617652
 11
17.468350649
 21
5.3132254607
  0
LINE
  5
252
100
AcDbEntity
  8
0
100
AcDbLine
 62
7
  6
CONTINUOUS
 10
14.9664248899
 20
10.8313266988
 11
14.9691729955
 21
10.8306709909
  0
LINE
  5
253
100
AcDbEntity
  8
0
100
AcDbLine
 62
7
  6
CONTINUOUS
 10
15.3355075746
 20
10.8306710755
 11
15.3408673475
 21
10.8316972365
  0
LINE
  5
254
100
AcDbEntity
  8
0
100
AcDbLine
 62
7
  6
CONTINUOUS
 10
14.9691722627
 20
10.8306708057
 11
15.3354818424
 21
10.8306708057
  0
LINE
  5
255
100
AcDbEntity
  8
0
100
AcDbLine
 62
7
  6
CONTINUOUS
 10
14.8644970327
 20
10.8313266988
 11
15.2867484715
 21
10.8313266988
  0
LINE
  5
256
100
AcDbEntity
  8
0
100
AcDbLine
 62
7
  6
CONTINUOUS
 10
15.3888675676
 20
11.1440015695
 11
15.4323083718
 21
11.1440015695
  0
LINE
  5
257
100
AcDbEntity
  8
0
100
AcDbLine
 62
7
  6
CONTINUOUS
 10
14.6811052374
 20
11.0487298156
 11
14.6864564606
 21
11.0378251691
  0
LINE
  5
258
100
AcDbEntity
  8
0
100
AcDbLine
 62
7
  6
CONTINUOUS
 10
15.4323341039
 20
11.1440018394
 11
15.4376938768
 21
11.1450280004
  0
LINE
  5
259
100
AcDbEntity
  8
0
100
AcDbLine
 62
7
  6
CONTINUOUS
 10
15.5291606333
 20
11.4573326032
 11
15.5345204062
 21
11.4583587642
  0
LINE
  5
25A
100
AcDbEntity
  8
0
100
AcDbLine
 62
7
  6
CONTINUOUS
 10
15.485694097
 20
11.4573323334
 11
15.5291349011
 21
11.4573323334
  0
LINE
  5
25B
100
AcDbEntity
  8
0
100
AcDbLine
 62
7
  6
CONTINUOUS
 10
15.6259871626
 20
11.7706633671
 11
15.6313469356
 21
11.7716895281
  0
LINE
  5
25C
100
AcDbEntity
  8
0
100
AcDbLine
 62
7
  6
CONTINUOUS
 10
15.5825206264
 20
11.7706630973
 11
15.6259614305
 21
11.7706630973
  0
LINE
  5
25D
100
AcDbEntity
  8
0
100
AcDbLine
 62
7
  6
CONTINUOUS
 10
15.2621195819
 20
11.0378251691
 11
15.2567683586
 21
11.0487298156
  0
LINE
  5
25E
100
AcDbEntity
  8
0
100
AcDbLine
 62
7
  6
CONTINUOUS
 10
16.2123061117
 20
13.6516741112
 11
16.2188515753
 21
13.6560732909
  0
LINE
  5
25F
100
AcDbEntity
  8
0
100
AcDbLine
 62
7
  6
CONTINUOUS
 10
15.722813692
 20
12.0839941309
 11
15.7281734649
 21
12.0850202919
  0
LINE
  5
260
100
AcDbEntity
  8
0
100
AcDbLine
 62
7
  6
CONTINUOUS
 10
15.6793471557
 20
12.0839938611
 11
15.7227879598
 21
12.0839938611
  0
LWPOLYLINE
  5
261
100
AcDbEntity
  8
0
100
AcDbPolyline
 62
7
  6
CONTINUOUS
 90
3
 70
0
 10
15.3788502707
 20
10.9766597925
 10
15.3771837036
 20
10.9933273151
 10
15.3751244867
 20
11.0150374893
  0
LINE
  5
262
100
AcDbEntity
  8
0
100
AcDbLine
 62
7
  6
CONTINUOUS
 10
14.6807562702
 20
11.0517284217
 11
15.6490215638
 21
14.1850360602
  0
LINE
  5
263
100
AcDbEntity
  8
0
100
AcDbLine
 62
7
  6
CONTINUOUS
 10
16.1154795824
 20
13.3383433473
 11
16.1220250459
 21
13.3427425271
  0
LWPOLYLINE
  5
264
100
AcDbEntity
  8
0
100
AcDbPolyline
 62
7
  6
CONTINUOUS
 90
3
 70
0
 10
15.4756768001
 20
11.2899905563
 10
15.474010233
 20
11.306658079
 10
15.4719510161
 20
11.3283682532
  0
LINE
  5
265
100
AcDbEntity
  8
0
100
AcDbLine
 62
7
  6
CONTINUOUS
 10
15.3751244867
 20
11.0150374893
 11
15.3735954006
 21
11.0320941653
  0
LINE
  5
266
100
AcDbEntity
  8
0
100
AcDbLine
 62
7
  6
CONTINUOUS
 10
15.3796164816
 20
10.9637631225
 11
15.3788486649
 21
10.9766715167
  0
LWPOLYLINE
  5
267
100
AcDbEntity
  8
0
100
AcDbPolyline
 62
7
  6
CONTINUOUS
 90
7
 70
0
 10
15.3735946281
 20
11.0321032574
 10
15.3730099376
 20
11.0429155628
 10
15.373296011
 20
11.0615671115
 10
15.3749985352
 20
11.0817529996
 10
15.3779770494
 20
11.1019212436
 10
15.3819467764
 20
11.1205085694
 10
15.3850043333
 20
11.1314996922
  0
LINE
  5
268
100
AcDbEntity
  8
0
100
AcDbLine
 62
7
  6
CONTINUOUS
 10
16.018653053
 20
13.0250125835
 11
16.0251985166
 21
13.0294117632
  0
LINE
  5
269
100
AcDbEntity
  8
0
100
AcDbLine
 62
7
  6
CONTINUOUS
 10
15.8196402214
 20
12.3973248948
 11
15.8249999943
 21
12.3983510558
  0
LINE
  5
26A
100
AcDbEntity
  8
0
100
AcDbLine
 62
7
  6
CONTINUOUS
 10
15.7761736851
 20
12.397324625
 11
15.8196144892
 21
12.397324625
  0
LWPOLYLINE
  5
26B
100
AcDbEntity
  8
0
100
AcDbPolyline
 62
7
  6
CONTINUOUS
 90
3
 70
0
 10
15.5725033294
 20
11.6033213202
 10
15.5708367623
 20
11.6199888428
 10
15.5687775455
 20
11.641699017
  0
LINE
  5
26C
100
AcDbEntity
  8
0
100
AcDbLine
 62
7
  6
CONTINUOUS
 10
15.4719510161
 20
11.3283682532
 11
15.47042193
 21
11.3454249291
  0
LINE
  5
26D
100
AcDbEntity
  8
0
100
AcDbLine
 62
7
  6
CONTINUOUS
 10
15.476443011
 20
11.2770938863
 11
15.4756751943
 21
11.2900022805
  0
LWPOLYLINE
  5
26E
100
AcDbEntity
  8
0
100
AcDbPolyline
 62
7
  6
CONTINUOUS
 90
7
 70
0
 10
15.4704211574
 20
11.3454340212
 10
15.4698364669
 20
11.3562463267
 10
15.4701225404
 20
11.3748978754
 10
15.4718250645
 20
11.3950837635
 10
15.4748035788
 20
11.4152520075
 10
15.4787733058
 20
11.4338393333
 10
15.4818308626
 20
11.4448304561
  0
LINE
  5
26F
100
AcDbEntity
  8
0
100
AcDbLine
 62
7
  6
CONTINUOUS
 10
15.2932527416
 20
10.8345901763
 11
15.2933352473
 21
10.8362856762
  0
LWPOLYLINE
  5
270
100
AcDbEntity
  8
0
100
AcDbPolyline
 62
7
  6
CONTINUOUS
 90
4
 70
0
 10
16.2188515753
 20
13.6560732909
 10
16.2241421586
 20
13.6630988203
 10
16.2288831416
 20
13.6730258949
 10
16.2318409115
 20
13.6815132078
  0
LWPOLYLINE
  5
271
100
AcDbEntity
  8
0
100
AcDbPolyline
 62
7
  6
CONTINUOUS
 90
3
 70
0
 10
15.6693298588
 20
11.916652084
 10
15.6676632917
 20
11.9333196067
 10
15.6656040748
 20
11.9550297809
  0
LINE
  5
272
100
AcDbEntity
  8
0
100
AcDbLine
 62
7
  6
CONTINUOUS
 10
15.5687775455
 20
11.641699017
 11
15.5672484593
 21
11.658755693
  0
LINE
  5
273
100
AcDbEntity
  8
0
100
AcDbLine
 62
7
  6
CONTINUOUS
 10
15.5732695403
 20
11.5904246502
 11
15.5725017237
 21
11.6033330444
  0
LWPOLYLINE
  5
274
100
AcDbEntity
  8
0
100
AcDbPolyline
 62
7
  6
CONTINUOUS
 90
7
 70
0
 10
15.5672476868
 20
11.6587647851
 10
15.5666629963
 20
11.6695770905
 10
15.5669490697
 20
11.6882286392
 10
15.5686515939
 20
11.7084145273
 10
15.5716301082
 20
11.7285827713
 10
15.5755998352
 20
11.7471700971
 10
15.578657392
 20
11.7581612199
  0
LWPOLYLINE
  5
275
100
AcDbEntity
  8
0
100
AcDbPolyline
 62
7
  6
CONTINUOUS
 90
4
 70
0
 10
16.1220250459
 20
13.3427425271
 10
16.1273156292
 20
13.3497680565
 10
16.1320566122
 20
13.359695131
 10
16.1350143822
 20
13.368182444
  0
LWPOLYLINE
  5
276
100
AcDbEntity
  8
0
100
AcDbPolyline
 62
7
  6
CONTINUOUS
 90
4
 70
0
 10
16.0251985166
 20
13.0294117632
 10
16.0304890999
 20
13.0364372926
 10
16.0352300829
 20
13.0463643672
 10
16.0381878528
 20
13.0548516801
  0
LINE
  5
277
100
AcDbEntity
  8
0
100
AcDbLine
 62
7
  6
CONTINUOUS
 10
15.9218265237
 20
12.7116818196
 11
15.9283719872
 21
12.7160809994
  0
LINE
  5
278
100
AcDbEntity
  8
0
100
AcDbLine
 62
7
  6
CONTINUOUS
 10
15.9164667507
 20
12.7106556586
 11
15.9218265237
 21
12.7116818196
  0
LINE
  5
279
100
AcDbEntity
  8
0
100
AcDbLine
 62
7
  6
CONTINUOUS
 10
15.6656040748
 20
11.9550297809
 11
15.6640749887
 21
11.9720864568
  0
LINE
  5
27A
100
AcDbEntity
  8
0
100
AcDbLine
 62
7
  6
CONTINUOUS
 10
15.6700960697
 20
11.903755414
 11
15.669328253
 21
11.9166638082
  0
LWPOLYLINE
  5
27B
100
AcDbEntity
  8
0
100
AcDbPolyline
 62
7
  6
CONTINUOUS
 90
7
 70
0
 10
15.6640742162
 20
11.9720955489
 10
15.6634895257
 20
11.9829078544
 10
15.6637755991
 20
12.0015594031
 10
15.6654781232
 20
12.0217452912
 10
15.6684566375
 20
12.0419135352
 10
15.6724263645
 20
12.060500861
 10
15.6754839214
 20
12.0714919838
  0
LWPOLYLINE
  5
27C
100
AcDbEntity
  8
0
100
AcDbPolyline
 62
7
  6
CONTINUOUS
 90
4
 70
0
 10
16.1728103344
 20
13.679897941
 10
16.1771399411
 20
13.6896064198
 10
16.1805325991
 20
13.6947765404
 10
16.1811762608
 20
13.6954506763
  0
LWPOLYLINE
  5
27D
100
AcDbEntity
  8
0
100
AcDbPolyline
 62
7
  6
CONTINUOUS
 90
4
 70
0
 10
16.075983805
 20
13.3665671772
 10
16.0803134118
 20
13.376275656
 10
16.0837060698
 20
13.3814457765
 10
16.0843497315
 20
13.3821199124
  0
LWPOLYLINE
  5
27E
100
AcDbEntity
  8
0
100
AcDbPolyline
 62
7
  6
CONTINUOUS
 90
4
 70
0
 10
15.9791572757
 20
13.0532364133
 10
15.9834868824
 20
13.0629448921
 10
15.9868795404
 20
13.0681150127
 10
15.9875232021
 20
13.0687891486
  0
LWPOLYLINE
  5
27F
100
AcDbEntity
  8
0
100
AcDbPolyline
 62
7
  6
CONTINUOUS
 90
4
 70
0
 10
15.9283719872
 20
12.7160809994
 10
15.9336625705
 20
12.7231065288
 10
15.9384035535
 20
12.7330336033
 10
15.9413613235
 20
12.7415209163
  0
LINE
  5
280
100
AcDbEntity
  8
0
100
AcDbLine
 62
7
  6
CONTINUOUS
 10
15.8730002144
 20
12.7106553888
 11
15.9164410186
 21
12.7106553888
  0
LWPOLYLINE
  5
281
100
AcDbEntity
  8
0
100
AcDbPolyline
 62
7
  6
CONTINUOUS
 90
3
 70
0
 10
15.7661563882
 20
12.2299828479
 10
15.7644898211
 20
12.2466503705
 10
15.7624306042
 20
12.2683605447
  0
LINE
  5
282
100
AcDbEntity
  8
0
100
AcDbLine
 62
7
  6
CONTINUOUS
 10
15.7624306042
 20
12.2683605447
 11
15.7609015181
 21
12.2854172207
  0
LINE
  5
283
100
AcDbEntity
  8
0
100
AcDbLine
 62
7
  6
CONTINUOUS
 10
15.766922599
 20
12.2170861779
 11
15.7661547824
 21
12.2299945721
  0
LWPOLYLINE
  5
284
100
AcDbEntity
  8
0
100
AcDbPolyline
 62
7
  6
CONTINUOUS
 90
7
 70
0
 10
15.7609007455
 20
12.2854263128
 10
15.760316055
 20
12.2962386182
 10
15.7606021284
 20
12.3148901669
 10
15.7623046526
 20
12.335076055
 10
15.7652831669
 20
12.355244299
 10
15.7692528939
 20
12.3738316248
 10
15.7723104507
 20
12.3848227476
  0
LWPOLYLINE
  5
285
100
AcDbEntity
  8
0
100
AcDbPolyline
 62
7
  6
CONTINUOUS
 90
5
 70
0
 10
15.3705423056
 20
10.8943494471
 10
15.3737260028
 20
10.9062729059
 10
15.3771789416
 20
10.9250668395
 10
15.379186256
 20
10.944660392
 10
15.3796164816
 20
10.9637631225
  0
LWPOLYLINE
  5
286
100
AcDbEntity
  8
0
100
AcDbPolyline
 62
7
  6
CONTINUOUS
 90
5
 70
0
 10
15.4673688349
 20
11.2076802109
 10
15.4705525321
 20
11.2196036697
 10
15.474005471
 20
11.2383976034
 10
15.4760127854
 20
11.2579911559
 10
15.476443011
 20
11.2770938863
  0
LWPOLYLINE
  5
287
100
AcDbEntity
  8
0
100
AcDbPolyline
 62
7
  6
CONTINUOUS
 90
5
 70
0
 10
15.5641953643
 20
11.5210109748
 10
15.5673790615
 20
11.5329344336
 10
15.5708320004
 20
11.5517283672
 10
15.5728393147
 20
11.5713219197
 10
15.5732695403
 20
11.5904246502
  0
LWPOLYLINE
  5
288
100
AcDbEntity
  8
0
100
AcDbPolyline
 62
7
  6
CONTINUOUS
 90
5
 70
0
 10
15.6610218937
 20
11.8343417386
 10
15.6642055909
 20
11.8462651974
 10
15.6676585297
 20
11.8650591311
 10
15.6696658441
 20
11.8846526836
 10
15.6700960697
 20
11.903755414
  0
LWPOLYLINE
  5
289
100
AcDbEntity
  8
0
100
AcDbPolyline
 62
7
  6
CONTINUOUS
 90
5
 70
0
 10
15.757848423
 20
12.1476725025
 10
15.7610321202
 20
12.1595959613
 10
15.7644850591
 20
12.1783898949
 10
15.7664923735
 20
12.1979834474
 10
15.766922599
 20
12.2170861779
  0
LWPOLYLINE
  5
28A
100
AcDbEntity
  8
0
100
AcDbPolyline
 62
7
  6
CONTINUOUS
 90
5
 70
0
 10
15.8546749524
 20
12.4610032663
 10
15.8578586496
 20
12.4729267251
 10
15.8613115885
 20
12.4917206588
 10
15.8633189028
 20
12.5113142113
 10
15.8637491284
 20
12.5304169417
  0
LINE
  5
28B
100
AcDbEntity
  8
0
100
AcDbLine
 62
7
  6
CONTINUOUS
 10
15.2937377293
 20
10.8361612999
 11
15.2983251947
 21
10.8510063433
  0
LINE
  5
28C
100
AcDbEntity
  8
0
100
AcDbLine
 62
7
  6
CONTINUOUS
 10
15.3850058574
 20
11.1315050705
 11
15.395151724
 21
11.1643371071
  0
LINE
  5
28D
100
AcDbEntity
  8
0
100
AcDbLine
 62
7
  6
CONTINUOUS
 10
15.4818323867
 20
11.4448358344
 11
15.4919782534
 21
11.477667871
  0
LINE
  5
28E
100
AcDbEntity
  8
0
100
AcDbLine
 62
7
  6
CONTINUOUS
 10
15.5786589161
 20
11.7581665982
 11
15.5888047828
 21
11.7909986348
  0
LINE
  5
28F
100
AcDbEntity
  8
0
100
AcDbLine
 62
7
  6
CONTINUOUS
 10
15.6754854454
 20
12.0714973621
 11
15.6856313121
 21
12.1043293987
  0
LINE
  5
290
100
AcDbEntity
  8
0
100
AcDbLine
 62
7
  6
CONTINUOUS
 10
15.7723119748
 20
12.3848281259
 11
15.7824578415
 21
12.4176601625
  0
LINE
  5
291
100
AcDbEntity
  8
0
100
AcDbLine
 62
7
  6
CONTINUOUS
 10
15.8691385042
 20
12.6981588898
 11
15.8792843708
 21
12.7309909264
  0
LINE
  5
292
100
AcDbEntity
  8
0
100
AcDbLine
 62
7
  6
CONTINUOUS
 10
15.9659650335
 20
13.0114896536
 11
15.9761109002
 21
13.0443216902
  0
LINE
  5
293
100
AcDbEntity
  8
0
100
AcDbLine
 62
7
  6
CONTINUOUS
 10
16.0627915629
 20
13.3248204175
 11
16.0729374296
 21
13.3576524541
  0
LINE
  5
294
100
AcDbEntity
  8
0
100
AcDbLine
 62
7
  6
CONTINUOUS
 10
16.1596180923
 20
13.6381511813
 11
16.1697639589
 21
13.6709832179
  0
LINE
  5
295
100
AcDbEntity
  8
0
100
AcDbLine
 62
7
  6
CONTINUOUS
 10
16.2564446216
 20
13.9514819452
 11
16.2615175549
 21
13.9678979633
  0
LINE
  5
296
100
AcDbEntity
  8
0
100
AcDbLine
 62
7
  6
CONTINUOUS
 10
15.3603994514
 20
10.8615253715
 11
15.3705453179
 21
10.8943574077
  0
LINE
  5
297
100
AcDbEntity
  8
0
100
AcDbLine
 62
7
  6
CONTINUOUS
 10
15.4572259807
 20
11.1748561353
 11
15.4673718473
 21
11.2076881715
  0
LINE
  5
298
100
AcDbEntity
  8
0
100
AcDbLine
 62
7
  6
CONTINUOUS
 10
15.5540525101
 20
11.4881868992
 11
15.5641983766
 21
11.5210189354
  0
LINE
  5
299
100
AcDbEntity
  8
0
100
AcDbLine
 62
7
  6
CONTINUOUS
 10
15.6508790394
 20
11.801517663
 11
15.661024906
 21
11.8343496992
  0
LINE
  5
29A
100
AcDbEntity
  8
0
100
AcDbLine
 62
7
  6
CONTINUOUS
 10
15.7477055688
 20
12.1148484269
 11
15.7578514354
 21
12.1476804631
  0
LINE
  5
29B
100
AcDbEntity
  8
0
100
AcDbLine
 62
7
  6
CONTINUOUS
 10
15.8445320982
 20
12.4281791907
 11
15.8546779647
 21
12.4610112269
  0
LINE
  5
29C
100
AcDbEntity
  8
0
100
AcDbLine
 62
7
  6
CONTINUOUS
 10
15.9413586275
 20
12.7415099546
 11
15.9515044941
 21
12.7743419908
  0
LINE
  5
29D
100
AcDbEntity
  8
0
100
AcDbLine
 62
7
  6
CONTINUOUS
 10
16.0381851569
 20
13.0548407184
 11
16.0483310234
 21
13.0876727546
  0
LINE
  5
29E
100
AcDbEntity
  8
0
100
AcDbLine
 62
7
  6
CONTINUOUS
 10
16.1350116863
 20
13.3681714823
 11
16.1451575528
 21
13.4010035185
  0
LINE
  5
29F
100
AcDbEntity
  8
0
100
AcDbLine
 62
7
  6
CONTINUOUS
 10
16.2318382156
 20
13.6815022461
 11
16.2419840822
 21
13.7143342823
  0
LINE
  5
2A0
100
AcDbEntity
  8
0
100
AcDbLine
 62
7
  6
CONTINUOUS
 10
16.1697664083
 20
13.6709906729
 11
16.1728103344
 21
13.679897941
  0
LINE
  5
2A1
100
AcDbEntity
  8
0
100
AcDbLine
 62
7
  6
CONTINUOUS
 10
16.0729398789
 20
13.357659909
 11
16.075983805
 21
13.3665671772
  0
LINE
  5
2A2
100
AcDbEntity
  8
0
100
AcDbLine
 62
7
  6
CONTINUOUS
 10
15.9761133496
 20
13.0443291452
 11
15.9791572757
 21
13.0532364133
  0
LINE
  5
2A3
100
AcDbEntity
  8
0
100
AcDbLine
 62
7
  6
CONTINUOUS
 10
15.8792868202
 20
12.7309983813
 11
15.8823307463
 21
12.7399056495
  0
LINE
  5
2A4
100
AcDbEntity
  8
0
100
AcDbLine
 62
7
  6
CONTINUOUS
 10
15.7824602909
 20
12.4176676175
 11
15.7855042169
 21
12.4265748856
  0
LINE
  5
2A5
100
AcDbEntity
  8
0
100
AcDbLine
 62
7
  6
CONTINUOUS
 10
15.6856337615
 20
12.1043368536
 11
15.6886776876
 21
12.1132441218
  0
LINE
  5
2A6
100
AcDbEntity
  8
0
100
AcDbLine
 62
7
  6
CONTINUOUS
 10
15.5888072321
 20
11.7910060898
 11
15.5918511582
 21
11.7999133579
  0
LINE
  5
2A7
100
AcDbEntity
  8
0
100
AcDbLine
 62
7
  6
CONTINUOUS
 10
15.4919807028
 20
11.4776753259
 11
15.4950246289
 21
11.4865825941
  0
LINE
  5
2A8
100
AcDbEntity
  8
0
100
AcDbLine
 62
7
  6
CONTINUOUS
 10
15.3951541734
 20
11.1643445621
 11
15.3981980995
 21
11.1732518302
  0
LINE
  5
2A9
100
AcDbEntity
  8
0
100
AcDbLine
 62
7
  6
CONTINUOUS
 10
15.298327644
 20
10.8510137982
 11
15.3013715701
 21
10.8599210664
  0
LWPOLYLINE
  5
2AA
100
AcDbEntity
  8
0
100
AcDbPolyline
 62
7
  6
CONTINUOUS
 90
4
 70
0
 10
15.8823307463
 20
12.7399056495
 10
15.886660353
 20
12.7496141283
 10
15.890053011
 20
12.7547842488
 10
15.8906966727
 20
12.7554583847
  0
LWPOLYLINE
  5
2AB
100
AcDbEntity
  8
0
100
AcDbPolyline
 62
7
  6
CONTINUOUS
 90
4
 70
0
 10
15.7855042169
 20
12.4265748856
 10
15.7898338237
 20
12.4362833644
 10
15.7932264817
 20
12.441453485
 10
15.7938701434
 20
12.4421276209
  0
LWPOLYLINE
  5
2AC
100
AcDbEntity
  8
0
100
AcDbPolyline
 62
7
  6
CONTINUOUS
 90
4
 70
0
 10
15.6886776876
 20
12.1132441218
 10
15.6930072943
 20
12.1229526006
 10
15.6963999523
 20
12.1281227211
 10
15.697043614
 20
12.128796857
  0
LWPOLYLINE
  5
2AD
100
AcDbEntity
  8
0
100
AcDbPolyline
 62
7
  6
CONTINUOUS
 90
4
 70
0
 10
15.8315454579
 20
12.4027502355
 10
15.8368360412
 20
12.4097757649
 10
15.8415770242
 20
12.4197028395
 10
15.8445347941
 20
12.4281901524
  0
LINE
  5
2AE
100
AcDbEntity
  8
0
100
AcDbLine
 62
7
  6
CONTINUOUS
 10
15.8249999943
 20
12.3983510558
 11
15.8315454579
 21
12.4027502355
  0
LWPOLYLINE
  5
2AF
100
AcDbEntity
  8
0
100
AcDbPolyline
 62
7
  6
CONTINUOUS
 90
3
 70
0
 10
15.8629829175
 20
12.5433136117
 10
15.8613163504
 20
12.5599811344
 10
15.8592571336
 20
12.5816913086
  0
LINE
  5
2B0
100
AcDbEntity
  8
0
100
AcDbLine
 62
7
  6
CONTINUOUS
 10
15.8592571336
 20
12.5816913086
 11
15.8577280474
 21
12.5987479845
  0
LINE
  5
2B1
100
AcDbEntity
  8
0
100
AcDbLine
 62
7
  6
CONTINUOUS
 10
15.8637491284
 20
12.5304169417
 11
15.8629813117
 21
12.5433253359
  0
LINE
  5
2B2
100
AcDbEntity
  8
0
100
AcDbLine
 62
7
  6
CONTINUOUS
 10
15.9605756578
 20
12.8437477056
 11
15.9598078411
 21
12.8566560998
  0
LWPOLYLINE
  5
2B3
100
AcDbEntity
  8
0
100
AcDbPolyline
 62
7
  6
CONTINUOUS
 90
7
 70
0
 10
15.8577272749
 20
12.5987570766
 10
15.8571425844
 20
12.6095693821
 10
15.8574286578
 20
12.6282209308
 10
15.859131182
 20
12.6484068189
 10
15.8621096962
 20
12.6685750629
 10
15.8660794233
 20
12.6871623887
 10
15.8691369801
 20
12.6981535115
  0
LWPOLYLINE
  5
2B4
100
AcDbEntity
  8
0
100
AcDbPolyline
 62
7
  6
CONTINUOUS
 90
7
 70
0
 10
15.9545538043
 20
12.9120878405
 10
15.9539691138
 20
12.9229001459
 10
15.9542551872
 20
12.9415516946
 10
15.9559577113
 20
12.9617375827
 10
15.9589362256
 20
12.9819058267
 10
15.9629059526
 20
13.0004931525
 10
15.9659635095
 20
13.0114842753
  0
LWPOLYLINE
  5
2B5
100
AcDbEntity
  8
0
100
AcDbPolyline
 62
7
  6
CONTINUOUS
 90
5
 70
0
 10
15.9515014817
 20
12.7743340302
 10
15.954685179
 20
12.786257489
 10
15.9581381178
 20
12.8050514226
 10
15.9601454322
 20
12.8246449751
 10
15.9605756578
 20
12.8437477056
  0
LWPOLYLINE
  5
2B6
100
AcDbEntity
  8
0
100
AcDbPolyline
 62
7
  6
CONTINUOUS
 90
5
 70
0
 10
16.0483280111
 20
13.087664794
 10
16.0515117083
 20
13.0995882528
 10
16.0549646472
 20
13.1183821865
 10
16.0569719616
 20
13.137975739
 10
16.0574021871
 20
13.1570784694
  0
LWPOLYLINE
  5
2B7
100
AcDbEntity
  8
0
100
AcDbPolyline
 62
7
  6
CONTINUOUS
 90
5
 70
0
 10
16.1451545405
 20
13.4009955579
 10
16.1483382377
 20
13.4129190167
 10
16.1517911765
 20
13.4317129503
 10
16.1537984909
 20
13.4513065028
 10
16.1542287165
 20
13.4704092333
  0
LWPOLYLINE
  5
2B8
100
AcDbEntity
  8
0
100
AcDbPolyline
 62
7
  6
CONTINUOUS
 90
5
 70
0
 10
16.2419810698
 20
13.7143263217
 10
16.245164767
 20
13.7262497805
 10
16.2486177059
 20
13.7450437142
 10
16.2506250203
 20
13.7646372667
 10
16.2510552459
 20
13.7837399971
  0
LWPOLYLINE
  5
2B9
100
AcDbEntity
  8
0
100
AcDbPolyline
 62
7
  6
CONTINUOUS
 90
4
 70
0
 10
15.5918511582
 20
11.7999133579
 10
15.596180765
 20
11.8096218367
 10
15.599573423
 20
11.8147919572
 10
15.6002170846
 20
11.8154660932
  0
LWPOLYLINE
  5
2BA
100
AcDbEntity
  8
0
100
AcDbPolyline
 62
7
  6
CONTINUOUS
 90
4
 70
0
 10
15.4950246289
 20
11.4865825941
 10
15.4993542356
 20
11.4962910729
 10
15.5027468936
 20
11.5014611934
 10
15.5033905553
 20
11.5021353293
  0
LWPOLYLINE
  5
2BB
100
AcDbEntity
  8
0
100
AcDbPolyline
 62
7
  6
CONTINUOUS
 90
4
 70
0
 10
15.3981980995
 20
11.1732518302
 10
15.4025277062
 20
11.182960309
 10
15.4059203642
 20
11.1881304295
 10
15.4065640259
 20
11.1888045655
  0
LWPOLYLINE
  5
2BC
100
AcDbEntity
  8
0
100
AcDbPolyline
 62
7
  6
CONTINUOUS
 90
4
 70
0
 10
15.7347189285
 20
12.0894194717
 10
15.7400095118
 20
12.0964450011
 10
15.7447504948
 20
12.1063720756
 10
15.7477082647
 20
12.1148593886
  0
LINE
  5
2BD
100
AcDbEntity
  8
0
100
AcDbLine
 62
7
  6
CONTINUOUS
 10
15.7281734649
 20
12.0850202919
 11
15.7347189285
 21
12.0894194717
  0
LINE
  5
2BE
100
AcDbEntity
  8
0
100
AcDbLine
 62
7
  6
CONTINUOUS
 10
16.0132932801
 20
13.0239864225
 11
16.018653053
 21
13.0250125835
  0
LWPOLYLINE
  5
2BF
100
AcDbEntity
  8
0
100
AcDbPolyline
 62
7
  6
CONTINUOUS
 90
3
 70
0
 10
15.9598094469
 20
12.8566443756
 10
15.9581428798
 20
12.8733118982
 10
15.9560836629
 20
12.8950220724
  0
LINE
  5
2C0
100
AcDbEntity
  8
0
100
AcDbLine
 62
7
  6
CONTINUOUS
 10
15.9560836629
 20
12.8950220724
 11
15.9545545768
 21
12.9120787484
  0
LINE
  5
2C1
100
AcDbEntity
  8
0
100
AcDbLine
 62
7
  6
CONTINUOUS
 10
16.0574021871
 20
13.1570784694
 11
16.0566343705
 21
13.1699868636
  0
LWPOLYLINE
  5
2C2
100
AcDbEntity
  8
0
100
AcDbPolyline
 62
7
  6
CONTINUOUS
 90
7
 70
0
 10
16.0513803336
 20
13.2254186043
 10
16.0507956431
 20
13.2362309098
 10
16.0510817165
 20
13.2548824585
 10
16.0527842407
 20
13.2750683466
 10
16.055762755
 20
13.2952365906
 10
16.059732482
 20
13.3138239164
 10
16.0627900388
 20
13.3248150392
  0
LWPOLYLINE
  5
2C3
100
AcDbEntity
  8
0
100
AcDbPolyline
 62
7
  6
CONTINUOUS
 90
4
 70
0
 10
15.3013715701
 20
10.8599210664
 10
15.3057011769
 20
10.8696295452
 10
15.3090938349
 20
10.8747996657
 10
15.3097374966
 20
10.8754738016
  0
LWPOLYLINE
  5
2C4
100
AcDbEntity
  8
0
100
AcDbPolyline
 62
7
  6
CONTINUOUS
 90
4
 70
0
 10
15.6378923991
 20
11.7760887078
 10
15.6431829824
 20
11.7831142372
 10
15.6479239654
 20
11.7930413118
 10
15.6508817354
 20
11.8015286247
  0
LINE
  5
2C5
100
AcDbEntity
  8
0
100
AcDbLine
 62
7
  6
CONTINUOUS
 10
15.9698267438
 20
13.0239861527
 11
16.0132675479
 21
13.0239861527
  0
LWPOLYLINE
  5
2C6
100
AcDbEntity
  8
0
100
AcDbPolyline
 62
7
  6
CONTINUOUS
 90
3
 70
0
 10
16.0566359763
 20
13.1699751394
 10
16.0549694091
 20
13.1866426621
 10
16.0529101923
 20
13.2083528363
  0
LINE
  5
2C7
100
AcDbEntity
  8
0
100
AcDbLine
 62
7
  6
CONTINUOUS
 10
16.0529101923
 20
13.2083528363
 11
16.0513811061
 21
13.2254095122
  0
LINE
  5
2C8
100
AcDbEntity
  8
0
100
AcDbLine
 62
7
  6
CONTINUOUS
 10
16.1542287165
 20
13.4704092333
 11
16.1534608998
 21
13.4833176275
  0
LWPOLYLINE
  5
2C9
100
AcDbEntity
  8
0
100
AcDbPolyline
 62
7
  6
CONTINUOUS
 90
7
 70
0
 10
16.148206863
 20
13.5387493682
 10
16.1476221725
 20
13.5495616736
 10
16.1479082459
 20
13.5682132223
 10
16.1496107701
 20
13.5883991104
 10
16.1525892843
 20
13.6085673544
 10
16.1565590113
 20
13.6271546802
 10
16.1596165682
 20
13.638145803
  0
LINE
  5
2CA
100
AcDbEntity
  8
0
100
AcDbLine
 62
7
  6
CONTINUOUS
 10
16.2616005409
 20
13.9695933147
 11
16.2615180352
 21
13.9678978148
  0
LWPOLYLINE
  5
2CB
100
AcDbEntity
  8
0
100
AcDbPolyline
 62
7
  6
CONTINUOUS
 90
4
 70
0
 10
15.5410658698
 20
11.462757944
 10
15.5463564531
 20
11.4697834734
 10
15.5510974361
 20
11.4797105479
 10
15.554055206
 20
11.4881978609
  0
LINE
  5
2CC
100
AcDbEntity
  8
0
100
AcDbLine
 62
7
  6
CONTINUOUS
 10
15.6313469356
 20
11.7716895281
 11
15.6378923991
 21
11.7760887078
  0
LINE
  5
2CD
100
AcDbEntity
  8
0
100
AcDbLine
 62
7
  6
CONTINUOUS
 10
16.1101198095
 20
13.3373171863
 11
16.1154795824
 21
13.3383433473
  0
LWPOLYLINE
  5
2CE
100
AcDbEntity
  8
0
100
AcDbPolyline
 62
7
  6
CONTINUOUS
 90
3
 70
0
 10
16.1534625056
 20
13.4833059033
 10
16.1517959385
 20
13.4999734259
 10
16.1497367216
 20
13.5216836001
  0
LINE
  5
2CF
100
AcDbEntity
  8
0
100
AcDbLine
 62
7
  6
CONTINUOUS
 10
16.1497367216
 20
13.5216836001
 11
16.1482076355
 21
13.5387402761
  0
LINE
  5
2D0
100
AcDbEntity
  8
0
100
AcDbLine
 62
7
  6
CONTINUOUS
 10
16.2510552459
 20
13.7837399971
 11
16.2502874292
 21
13.7966483914
  0
LWPOLYLINE
  5
2D1
100
AcDbEntity
  8
0
100
AcDbPolyline
 62
7
  6
CONTINUOUS
 90
7
 70
0
 10
16.2450333923
 20
13.852080132
 10
16.2444487018
 20
13.8628924375
 10
16.2447347753
 20
13.8815439862
 10
16.2464372994
 20
13.9017298743
 10
16.2494158137
 20
13.9218981183
 10
16.2533855407
 20
13.9404854441
 10
16.2564430975
 20
13.9514765669
  0
LWPOLYLINE
  5
2D2
100
AcDbEntity
  8
0
100
AcDbPolyline
 62
7
  6
CONTINUOUS
 90
4
 70
0
 10
15.4442393404
 20
11.1494271801
 10
15.4495299237
 20
11.1564527095
 10
15.4542709067
 20
11.1663797841
 10
15.4572286766
 20
11.174867097
  0
LINE
  5
2D3
100
AcDbEntity
  8
0
100
AcDbLine
 62
7
  6
CONTINUOUS
 10
16.0666532732
 20
13.3373169165
 11
16.1100940773
 21
13.3373169165
  0
LWPOLYLINE
  5
2D4
100
AcDbEntity
  8
0
100
AcDbPolyline
 62
7
  6
CONTINUOUS
 90
3
 70
0
 10
16.250289035
 20
13.7966366671
 10
16.2486224679
 20
13.8133041898
 10
16.246563251
 20
13.835014364
  0
LINE
  5
2D5
100
AcDbEntity
  8
0
100
AcDbLine
 62
7
  6
CONTINUOUS
 10
16.246563251
 20
13.835014364
 11
16.2450341649
 21
13.8520710399
  0
LWPOLYLINE
  5
2D6
100
AcDbEntity
  8
0
100
AcDbPolyline
 62
7
  6
CONTINUOUS
 90
4
 70
0
 10
15.347412811
 20
10.8360964163
 10
15.3527033943
 20
10.8431219457
 10
15.3574443773
 20
10.8530490202
 10
15.3604021473
 20
10.8615363332
  0
LINE
  5
2D7
100
AcDbEntity
  8
0
100
AcDbLine
 62
7
  6
CONTINUOUS
 10
15.5345204062
 20
11.4583587642
 11
15.5410658698
 21
11.462757944
  0
LINE
  5
2D8
100
AcDbEntity
  8
0
100
AcDbLine
 62
7
  6
CONTINUOUS
 10
16.2069463388
 20
13.6506479502
 11
16.2123061117
 21
13.6516741112
  0
LINE
  5
2D9
100
AcDbEntity
  8
0
100
AcDbLine
 62
7
  6
CONTINUOUS
 10
15.4376938768
 20
11.1450280004
 11
15.4442393404
 21
11.1494271801
  0
LINE
  5
2DA
100
AcDbEntity
  8
0
100
AcDbLine
 62
7
  6
CONTINUOUS
 10
16.1634798025
 20
13.6506476804
 11
16.2069206067
 21
13.6506476804
  0
LINE
  5
2DB
100
AcDbEntity
  8
0
100
AcDbLine
 62
7
  6
CONTINUOUS
 10
15.3408673475
 20
10.8316972365
 11
15.347412811
 21
10.8360964163
  0
LINE
  5
2DC
100
AcDbEntity
  8
0
100
AcDbLine
 62
7
  6
CONTINUOUS
 10
16.2303848755
 20
14.1711328076
 11
16.2250336523
 21
14.1820374541
  0
ARC
  5
2DD
100
AcDbEntity
  8
0
100
AcDbCircle
 62
7
  6
CONTINUOUS
 10
0.3825847855
 20
4.2996318767
 40
5.625
100
AcDbArc
 50
11.6677748977
 51
14.7894041499
  0
ARC
  5
2DE
100
AcDbEntity
  8
0
100
AcDbCircle
 62
7
  6
CONTINUOUS
 10
0.3825847855
 20
4.2996318767
 40
5.625
100
AcDbArc
 50
9.7812268842
 51
11.6404120173
  0
ARC
  5
2DF
100
AcDbEntity
  8
0
100
AcDbCircle
 62
7
  6
CONTINUOUS
 10
5.8280235262
 20
5.7789766437
 40
0.01015625
100
AcDbArc
 50
91.7755533184
 51
180.0
  0
ARC
  5
2E0
100
AcDbEntity
  8
0
100
AcDbCircle
 62
7
  6
CONTINUOUS
 10
5.9011471477
 20
5.4392346386
 40
0.01
100
AcDbArc
 50
191.6677748978
 51
270.0
  0
ARC
  5
2E1
100
AcDbEntity
  8
0
100
AcDbCircle
 62
7
  6
CONTINUOUS
 10
5.9356722571
 20
5.2569429719
 40
0.01
100
AcDbArc
 50
189.7812268842
 51
270.0
  0
ARC
  5
2E2
100
AcDbEntity
  8
0
100
AcDbCircle
 62
7
  6
CONTINUOUS
 10
5.9194297762
 20
5.7614340575
 40
0.1015625
100
AcDbArc
 50
180.0
 51
194.7894041499
  0
ARC
  5
2E3
100
AcDbEntity
  8
0
100
AcDbCircle
 62
7
  6
CONTINUOUS
 10
6.1303672762
 20
-3.9743070281
 40
9.768125
100
AcDbArc
 50
88.2244466816
 51
91.7755533184
  0
ARC
  5
2E4
100
AcDbEntity
  8
0
100
AcDbCircle
 62
7
  6
CONTINUOUS
 10
6.3250622953
 20
5.2569429719
 40
0.01
100
AcDbArc
 50
270.0
 51
350.2187731158
  0
ARC
  5
2E5
100
AcDbEntity
  8
0
100
AcDbCircle
 62
7
  6
CONTINUOUS
 10
6.3595874047
 20
5.4392346386
 40
0.01
100
AcDbArc
 50
270.0
 51
348.3322251023
  0
ARC
  5
2E6
100
AcDbEntity
  8
0
100
AcDbCircle
 62
7
  6
CONTINUOUS
 10
6.3413047762
 20
5.7614340575
 40
0.1015625
100
AcDbArc
 50
345.2105958501
 51
360.0
  0
ARC
  5
2E7
100
AcDbEntity
  8
0
100
AcDbCircle
 62
7
  6
CONTINUOUS
 10
6.4327110262
 20
5.7789766437
 40
0.01015625
100
AcDbArc
 50
0.0
 51
88.2244466816
  0
ARC
  5
2E8
100
AcDbEntity
  8
0
100
AcDbCircle
 62
7
  6
CONTINUOUS
 10
11.8781497668
 20
4.2996318767
 40
5.625
100
AcDbArc
 50
165.2105958501
 51
168.3322251023
  0
ARC
  5
2E9
100
AcDbEntity
  8
0
100
AcDbCircle
 62
7
  6
CONTINUOUS
 10
11.8781497668
 20
4.2996318767
 40
5.625
100
AcDbArc
 50
168.3595879831
 51
170.2187731158
  0
ARC
  5
2EA
100
AcDbEntity
  8
0
100
AcDbCircle
 62
7
  6
CONTINUOUS
 10
13.7393984662
 20
5.2603644463
 40
0.0729166667
100
AcDbArc
 50
193.0
 51
270.0
  0
ARC
  5
2EB
100
AcDbEntity
  8
0
100
AcDbCircle
 62
7
  6
CONTINUOUS
 10
14.1393984662
 20
5.2603644463
 40
0.0729166667
100
AcDbArc
 50
193.0
 51
270.0
  0
ARC
  5
2EC
100
AcDbEntity
  8
0
100
AcDbCircle
 62
7
  6
CONTINUOUS
 10
13.7813120477
 20
5.2603644463
 40
0.0729166667
100
AcDbArc
 50
270.0
 51
347.0
  0
ARC
  5
2ED
100
AcDbEntity
  8
0
100
AcDbCircle
 62
7
  6
CONTINUOUS
 10
14.5393984662
 20
5.2603644463
 40
0.0729166667
100
AcDbArc
 50
193.0
 51
270.0
  0
ARC
  5
2EE
100
AcDbEntity
  8
0
100
AcDbCircle
 62
7
  6
CONTINUOUS
 10
14.1813120477
 20
5.2603644463
 40
0.0729166667
100
AcDbArc
 50
270.0
 51
347.0
  0
ARC
  5
2EF
100
AcDbEntity
  8
0
100
AcDbCircle
 62
7
  6
CONTINUOUS
 10
14.9393984662
 20
5.2603644463
 40
0.0729166667
100
AcDbArc
 50
193.0
 51
270.0
  0
ARC
  5
2F0
100
AcDbEntity
  8
0
100
AcDbCircle
 62
7
  6
CONTINUOUS
 10
14.5813120477
 20
5.2603644463
 40
0.0729166667
100
AcDbArc
 50
270.0
 51
347.0
  0
ARC
  5
2F1
100
AcDbEntity
  8
0
100
AcDbCircle
 62
7
  6
CONTINUOUS
 10
15.3393984662
 20
5.2603644463
 40
0.0729166667
100
AcDbArc
 50
193.0
 51
270.0
  0
ARC
  5
2F2
100
AcDbEntity
  8
0
100
AcDbCircle
 62
7
  6
CONTINUOUS
 10
14.9813120477
 20
5.2603644463
 40
0.0729166667
100
AcDbArc
 50
270.0
 51
347.0
  0
ARC
  5
2F3
100
AcDbEntity
  8
0
100
AcDbCircle
 62
7
  6
CONTINUOUS
 10
15.3813120477
 20
5.2603644463
 40
0.0729166667
100
AcDbArc
 50
270.0
 51
347.0
  0
ARC
  5
2F4
100
AcDbEntity
  8
0
100
AcDbCircle
 62
7
  6
CONTINUOUS
 10
13.5813120477
 20
5.2968227796
 40
0.0729166667
100
AcDbArc
 50
13.0
 51
90.0
  0
ARC
  5
2F5
100
AcDbEntity
  8
0
100
AcDbCircle
 62
7
  6
CONTINUOUS
 10
13.9813120477
 20
5.2968227796
 40
0.0729166667
100
AcDbArc
 50
13.0
 51
90.0
  0
ARC
  5
2F6
100
AcDbEntity
  8
0
100
AcDbCircle
 62
7
  6
CONTINUOUS
 10
13.9393984662
 20
5.2968227796
 40
0.0729166667
100
AcDbArc
 50
90.0
 51
167.0
  0
ARC
  5
2F7
100
AcDbEntity
  8
0
100
AcDbCircle
 62
7
  6
CONTINUOUS
 10
14.3813120477
 20
5.2968227796
 40
0.0729166667
100
AcDbArc
 50
13.0
 51
90.0
  0
ARC
  5
2F8
100
AcDbEntity
  8
0
100
AcDbCircle
 62
7
  6
CONTINUOUS
 10
14.3393984662
 20
5.2968227796
 40
0.0729166667
100
AcDbArc
 50
90.0
 51
167.0
  0
ARC
  5
2F9
100
AcDbEntity
  8
0
100
AcDbCircle
 62
7
  6
CONTINUOUS
 10
14.7813120477
 20
5.2968227796
 40
0.0729166667
100
AcDbArc
 50
13.0
 51
90.0
  0
ARC
  5
2FA
100
AcDbEntity
  8
0
100
AcDbCircle
 62
7
  6
CONTINUOUS
 10
14.7393984662
 20
5.2968227796
 40
0.0729166667
100
AcDbArc
 50
90.0
 51
167.0
  0
ARC
  5
2FB
100
AcDbEntity
  8
0
100
AcDbCircle
 62
7
  6
CONTINUOUS
 10
15.1813120477
 20
5.2968227796
 40
0.0729166667
100
AcDbArc
 50
13.0
 51
90.0
  0
ARC
  5
2FC
100
AcDbEntity
  8
0
100
AcDbCircle
 62
7
  6
CONTINUOUS
 10
15.1393984662
 20
5.2968227796
 40
0.0729166667
100
AcDbArc
 50
90.0
 51
167.0
  0
ARC
  5
2FD
100
AcDbEntity
  8
0
100
AcDbCircle
 62
7
  6
CONTINUOUS
 10
15.5393984662
 20
5.2968227796
 40
0.0729166667
100
AcDbArc
 50
90.0
 51
167.0
  0
ARC
  5
2FE
100
AcDbEntity
  8
0
100
AcDbCircle
 62
7
  6
CONTINUOUS
 10
17.3813120477
 20
5.2603644463
 40
0.0729166667
100
AcDbArc
 50
270.0
 51
347.0
  0
ARC
  5
2FF
100
AcDbEntity
  8
0
100
AcDbCircle
 62
7
  6
CONTINUOUS
 10
16.9813120477
 20
5.2603644463
 40
0.0729166667
100
AcDbArc
 50
270.0
 51
347.0
  0
ARC
  5
300
100
AcDbEntity
  8
0
100
AcDbCircle
 62
7
  6
CONTINUOUS
 10
17.3393984662
 20
5.2603644463
 40
0.0729166667
100
AcDbArc
 50
193.0
 51
270.0
  0
ARC
  5
301
100
AcDbEntity
  8
0
100
AcDbCircle
 62
7
  6
CONTINUOUS
 10
16.5813120477
 20
5.2603644463
 40
0.0729166667
100
AcDbArc
 50
270.0
 51
347.0
  0
ARC
  5
302
100
AcDbEntity
  8
0
100
AcDbCircle
 62
7
  6
CONTINUOUS
 10
16.9393984662
 20
5.2603644463
 40
0.0729166667
100
AcDbArc
 50
193.0
 51
270.0
  0
ARC
  5
303
100
AcDbEntity
  8
0
100
AcDbCircle
 62
7
  6
CONTINUOUS
 10
16.1813120477
 20
5.2603644463
 40
0.0729166667
100
AcDbArc
 50
270.0
 51
347.0
  0
ARC
  5
304
100
AcDbEntity
  8
0
100
AcDbCircle
 62
7
  6
CONTINUOUS
 10
16.5393984662
 20
5.2603644463
 40
0.0729166667
100
AcDbArc
 50
193.0
 51
270.0
  0
ARC
  5
305
100
AcDbEntity
  8
0
100
AcDbCircle
 62
7
  6
CONTINUOUS
 10
15.7813120477
 20
5.2603644463
 40
0.0729166667
100
AcDbArc
 50
270.0
 51
347.0
  0
ARC
  5
306
100
AcDbEntity
  8
0
100
AcDbCircle
 62
7
  6
CONTINUOUS
 10
15.7393984662
 20
5.2603644463
 40
0.0729166667
100
AcDbArc
 50
193.0
 51
270.0
  0
ARC
  5
307
100
AcDbEntity
  8
0
100
AcDbCircle
 62
7
  6
CONTINUOUS
 10
16.1393984662
 20
5.2603644463
 40
0.0729166667
100
AcDbArc
 50
193.0
 51
270.0
  0
ARC
  5
308
100
AcDbEntity
  8
0
100
AcDbCircle
 62
7
  6
CONTINUOUS
 10
17.5393984662
 20
5.2968227796
 40
0.0729166667
100
AcDbArc
 50
90.0
 51
167.0
  0
ARC
  5
309
100
AcDbEntity
  8
0
100
AcDbCircle
 62
7
  6
CONTINUOUS
 10
17.1393984662
 20
5.2968227796
 40
0.0729166667
100
AcDbArc
 50
90.0
 51
167.0
  0
ARC
  5
30A
100
AcDbEntity
  8
0
100
AcDbCircle
 62
7
  6
CONTINUOUS
 10
17.1813120477
 20
5.2968227796
 40
0.0729166667
100
AcDbArc
 50
13.0
 51
90.0
  0
ARC
  5
30B
100
AcDbEntity
  8
0
100
AcDbCircle
 62
7
  6
CONTINUOUS
 10
16.7393984662
 20
5.2968227796
 40
0.0729166667
100
AcDbArc
 50
90.0
 51
167.0
  0
ARC
  5
30C
100
AcDbEntity
  8
0
100
AcDbCircle
 62
7
  6
CONTINUOUS
 10
16.7813120477
 20
5.2968227796
 40
0.0729166667
100
AcDbArc
 50
13.0
 51
90.0
  0
ARC
  5
30D
100
AcDbEntity
  8
0
100
AcDbCircle
 62
7
  6
CONTINUOUS
 10
16.3393984662
 20
5.2968227796
 40
0.0729166667
100
AcDbArc
 50
90.0
 51
167.0
  0
ARC
  5
30E
100
AcDbEntity
  8
0
100
AcDbCircle
 62
7
  6
CONTINUOUS
 10
16.3813120477
 20
5.2968227796
 40
0.0729166667
100
AcDbArc
 50
13.0
 51
90.0
  0
ARC
  5
30F
100
AcDbEntity
  8
0
100
AcDbCircle
 62
7
  6
CONTINUOUS
 10
15.9393984662
 20
5.2968227796
 40
0.0729166667
100
AcDbArc
 50
90.0
 51
167.0
  0
ARC
  5
310
100
AcDbEntity
  8
0
100
AcDbCircle
 62
7
  6
CONTINUOUS
 10
15.9813120477
 20
5.2968227796
 40
0.0729166667
100
AcDbArc
 50
13.0
 51
90.0
  0
ARC
  5
311
100
AcDbEntity
  8
0
100
AcDbCircle
 62
7
  6
CONTINUOUS
 10
15.5813120477
 20
5.2968227796
 40
0.0729166667
100
AcDbArc
 50
13.0
 51
90.0
  0
ARC
  5
312
100
AcDbEntity
  8
0
100
AcDbCircle
 62
7
  6
CONTINUOUS
 10
15.9341054977
 20
0.7940394361
 40
13.3972087943
100
AcDbArc
 50
88.8077129625
 51
91.1922870375
  0
ARC
  5
313
100
AcDbEntity
  8
0
100
AcDbCircle
 62
7
  6
CONTINUOUS
 10
14.965840204
 20
-2.3392682024
 40
13.3972087943
100
AcDbArc
 50
88.8077129625
 51
91.1922870375
  0
ARC
  5
314
100
AcDbEntity
  8
0
100
AcDbCircle
 62
7
  6
CONTINUOUS
 10
11.0402742412
 20
7.7951760673
 40
4.877043677
100
AcDbArc
 50
38.5762764236
 51
41.4201546343
  0
ARC
  5
315
100
AcDbEntity
  8
0
100
AcDbCircle
 62
7
  6
CONTINUOUS
 10
18.4679435236
 20
14.3783928156
 40
2.2438953606
100
AcDbArc
 50
185.7131504323
 51
190.4969369988
  0
ARC
  5
316
100
AcDbEntity
  8
0
100
AcDbCircle
 62
7
  6
CONTINUOUS
 10
17.49967823
 20
11.2450851771
 40
2.2438953606
100
AcDbArc
 50
185.7131504323
 51
190.4969369988
  0
SPLINE
  5
317
100
AcDbEntity
  8
0
100
AcDbSpline
 62
7
  6
CONTINUOUS
 70
0
 71
3
 72
9
 73
5
 74
0
 42
0.0000001
 43
0.0000001
 44
0.0000000001
 40
0.0
 40
0.0
 40
0.0
 40
0.0
 40
0.5173942481
 40
1.0
 40
1.0
 40
1.0
 40
1.0
 10
16.2303848755
 20
14.1711328076
 30
0.0
 10
16.2316677686
 20
14.1685185463
 30
0.0
 10
16.2337792758
 20
14.1632713745
 30
0.0
 10
16.2349251334
 20
14.1577201447
 30
0.0
 10
16.2351941567
 20
14.1550172271
 30
0.0
  0
SPLINE
  5
318
100
AcDbEntity
  8
0
100
AcDbSpline
 62
7
  6
CONTINUOUS
 70
0
 71
3
 72
15
 73
11
 74
0
 42
0.0000001
 43
0.0000001
 44
0.0000000001
 40
0.0
 40
0.0
 40
0.0
 40
0.0
 40
0.1304324338
 40
0.2659992101
 40
0.4028039569
 40
0.5374940502
 40
0.6669608565
 40
0.7885154491
 40
0.8999958451
 40
1.0
 40
1.0
 40
1.0
 40
1.0
 10
16.2128723759
 20
14.1883476492
 30
0.0
 10
16.2134927711
 20
14.1883348018
 30
0.0
 10
16.2147571282
 20
14.1882252964
 30
0.0
 10
16.2166392751
 20
14.1878458717
 30
0.0
 10
16.2184873689
 20
14.1872540409
 30
0.0
 10
16.2202334842
 20
14.1864760882
 30
0.0
 10
16.2218151049
 20
14.1855370076
 30
0.0
 10
16.2231785753
 20
14.1844716131
 30
0.0
 10
16.2242700824
 20
14.1833145639
 30
0.0
 10
16.2248240567
 20
14.1824645648
 30
0.0
 10
16.2250336523
 20
14.1820374541
 30
0.0
  0
SPLINE
  5
319
100
AcDbEntity
  8
0
100
AcDbSpline
 62
7
  6
CONTINUOUS
 70
0
 71
3
 72
9
 73
5
 74
0
 42
0.0000001
 43
0.0000001
 44
0.0000000001
 40
0.0
 40
0.0
 40
0.0
 40
0.0
 40
0.4816008928
 40
1.0
 40
1.0
 40
1.0
 40
1.0
 10
14.6864564606
 20
11.0378251691
 30
0.0
 10
14.6878397163
 20
11.0350063905
 30
0.0
 10
14.6911809772
 20
11.0293778338
 30
0.0
 10
14.6952283927
 20
11.0242444287
 30
0.0
 10
14.697463936
 20
11.0217095886
 30
0.0
  0
SPLINE
  5
31A
100
AcDbEntity
  8
0
100
AcDbSpline
 62
7
  6
CONTINUOUS
 70
0
 71
3
 72
13
 73
9
 74
0
 42
0.0000001
 43
0.0000001
 44
0.0000000001
 40
0.0
 40
0.0
 40
0.0
 40
0.0
 40
0.3029650434
 40
0.568689123
 40
0.6870609666
 40
0.7968333401
 40
0.900149582
 40
1.0
 40
1.0
 40
1.0
 40
1.0
 10
15.2867484715
 20
10.8313266988
 30
0.0
 10
15.2875308673
 20
10.8313266988
 30
0.0
 10
15.2890038607
 20
10.8314507719
 30
0.0
 10
15.2907182118
 20
10.8319893295
 30
0.0
 10
15.2918186982
 20
10.8326449789
 30
0.0
 10
15.292468179
 20
10.8332107591
 30
0.0
 10
15.292960373
 20
10.833859385
 30
0.0
 10
15.2931761632
 20
10.8343439492
 30
0.0
 10
15.293252013
 20
10.8345904011
 30
0.0
  0
SPLINE
  5
31B
100
AcDbEntity
  8
0
100
AcDbSpline
 62
7
  6
CONTINUOUS
 70
0
 71
3
 72
13
 73
9
 74
0
 42
0.0000001
 43
0.0000001
 44
0.0000000001
 40
0.0
 40
0.0
 40
0.0
 40
0.0
 40
0.1080962462
 40
0.2253202167
 40
0.3497670479
 40
0.4793490495
 40
0.7442699722
 40
1.0
 40
1.0
 40
1.0
 40
1.0
 10
14.8530432316
 20
10.8362856762
 30
0.0
 10
14.8533314904
 20
10.8359238658
 30
0.0
 10
14.8539966084
 20
10.835219949
 30
0.0
 10
14.8551620871
 20
10.8342751757
 30
0.0
 10
14.8565085005
 20
10.8334251897
 30
0.0
 10
14.8585037496
 20
10.8324422704
 30
0.0
 10
14.8611710519
 20
10.8315895675
 30
0.0
 10
14.8634026283
 20
10.8313266988
 30
0.0
 10
14.8644970327
 20
10.8313266988
 30
0.0
  0
SPLINE
  5
31C
100
AcDbEntity
  8
0
100
AcDbSpline
 62
7
  6
CONTINUOUS
 70
0
 71
3
 72
13
 73
9
 74
0
 42
0.0000001
 43
0.0000001
 44
0.0000000001
 40
0.0
 40
0.0
 40
0.0
 40
0.0
 40
0.1005529558
 40
0.204423897
 40
0.3145441678
 40
0.4329627057
 40
0.6982015726
 40
1.0
 40
1.0
 40
1.0
 40
1.0
 10
15.6490216403
 20
14.185036027
 30
0.0
 10
15.6490967988
 20
14.1852787506
 30
0.0
 10
15.6493075329
 20
14.1857561056
 30
0.0
 10
15.649784276
 20
14.1863992679
 30
0.0
 10
15.6504140293
 20
14.1869628124
 30
0.0
 10
15.6514787672
 20
14.1876234629
 30
0.0
 10
15.6531420958
 20
14.1881802886
 30
0.0
 10
15.6545761565
 20
14.1883315323
 30
0.0
 10
15.6553386194
 20
14.1883476492
 30
0.0
  0
SPLINE
  5
31D
100
AcDbEntity
  8
0
100
AcDbSpline
 62
7
  6
CONTINUOUS
 70
0
 71
3
 72
10
 73
6
 74
0
 42
0.0000001
 43
0.0000001
 44
0.0000000001
 40
0.0
 40
0.0
 40
0.0
 40
0.0
 40
0.2343337491
 40
0.4760942429
 40
1.0
 40
1.0
 40
1.0
 40
1.0
 10
14.6807563467
 20
11.0517283885
 30
0.0
 10
14.680685123
 20
11.0514983724
 30
0.0
 10
14.6805915999
 20
11.0510133642
 30
0.0
 10
14.6806164308
 20
11.0499802908
 30
0.0
 10
14.6808680748
 20
11.0492131022
 30
0.0
 10
14.6811052374
 20
11.0487298156
 30
0.0
  0
SPLINE
  5
31E
100
AcDbEntity
  8
0
100
AcDbSpline
 62
7
  6
CONTINUOUS
 70
0
 71
3
 72
9
 73
5
 74
0
 42
0.0000001
 43
0.0000001
 44
0.0000000001
 40
0.0
 40
0.0
 40
0.0
 40
0.0
 40
0.4826057519
 40
1.0
 40
1.0
 40
1.0
 40
1.0
 10
15.266928863
 20
11.0217095886
 30
0.0
 10
15.2666598398
 20
11.0244125062
 30
0.0
 10
15.2655139821
 20
11.029963736
 30
0.0
 10
15.263402475
 20
11.0352109078
 30
0.0
 10
15.2621195819
 20
11.0378251691
 30
0.0
  0
SPLINE
  5
31F
100
AcDbEntity
  8
0
100
AcDbSpline
 62
7
  6
CONTINUOUS
 70
0
 71
3
 72
13
 73
9
 74
0
 42
0.0000001
 43
0.0000001
 44
0.0000000001
 40
0.0
 40
0.0
 40
0.0
 40
0.0
 40
0.3017984274
 40
0.5670372943
 40
0.6854558322
 40
0.795576103
 40
0.8994470442
 40
1.0
 40
1.0
 40
1.0
 40
1.0
 10
14.6870733258
 20
11.0550400106
 30
0.0
 10
14.6863108628
 20
11.0550238938
 30
0.0
 10
14.6848768022
 20
11.0548726501
 30
0.0
 10
14.6832134735
 20
11.0543158243
 30
0.0
 10
14.6821487357
 20
11.0536551739
 30
0.0
 10
14.6815189823
 20
11.0530916293
 30
0.0
 10
14.6810422393
 20
11.0524484671
 30
0.0
 10
14.6808315052
 20
11.0519711121
 30
0.0
 10
14.6807563467
 20
11.0517283885
 30
0.0
  0
SPLINE
  5
320
100
AcDbEntity
  8
0
100
AcDbSpline
 62
7
  6
CONTINUOUS
 70
0
 71
3
 72
15
 73
11
 74
0
 42
0.0000001
 43
0.0000001
 44
0.0000000001
 40
0.0
 40
0.0
 40
0.0
 40
0.0
 40
0.1000041549
 40
0.2114845509
 40
0.3330391435
 40
0.4625059498
 40
0.5971960431
 40
0.7340007899
 40
0.8695675662
 40
1.0
 40
1.0
 40
1.0
 40
1.0
 10
15.2567683586
 20
11.0487298156
 30
0.0
 10
15.2565587631
 20
11.0491569263
 30
0.0
 10
15.2560047888
 20
11.0500069254
 30
0.0
 10
15.2549132816
 20
11.0511639746
 30
0.0
 10
15.2535498112
 20
11.0522293691
 30
0.0
 10
15.2519681906
 20
11.0531684497
 30
0.0
 10
15.2502220753
 20
11.0539464024
 30
0.0
 10
15.2483739815
 20
11.0545382332
 30
0.0
 10
15.2464918345
 20
11.0549176579
 30
0.0
 10
15.2452274775
 20
11.0550271633
 30
0.0
 10
15.2446070823
 20
11.0550400106
 30
0.0
  0
ENDSEC
  0
SECTION
  2
OBJECTS
  0
DICTIONARY
  5
C
100
AcDbDictionary
280
0
281
1
  3
ACAD_GROUP
350
D
  3
ACAD_MLINESTYLE
350
17
  3
ACAD_LAYOUT
350
1A
  3
ACAD_PLOTSETTINGS
350
19
  3
ACAD_PLOTSTYLENAME
350
E
  0
DICTIONARY
  5
D
102
{ACAD_REACTORS
330
C
102
}
100
AcDbDictionary
280
0
281
1
  0
ACDBDICTIONARYWDFLT
  5
E
102
{ACAD_REACTORS
330
C
102
}
100
AcDbDictionary
281
1
  3
Normal
350
F
100
AcDbDictionaryWithDefault
340
F
  0
DICTIONARY
  5
17
102
{ACAD_REACTORS
330
C
102
}
100
AcDbDictionary
280
0
281
1
  3
Standard
350
18
  0
DICTIONARY
  5
19
102
{ACAD_REACTORS
330
C
102
}
100
AcDbDictionary
281
1
  0
DICTIONARY
  5
1A
102
{ACAD_REACTORS
330
C
102
}
100
AcDbDictionary
281
1
  3
Model
350
321
  3
Layout1
350
322
  0
ACDBPLACEHOLDER
  5
F
102
{ACAD_REACTORS
330
E
102
}
  0
MLINESTYLE
  5
18
102
{ACAD_REACTORS
330
17
102
}
100
AcDbMlineStyle
  2
STANDARD
 70
0
  3

 62
256
 51
90.0
 52
90.0
 71
2
 49
0.5
 62
256
  6
BYLAYER
 49
-0.5
 62
256
  6
BYLAYER
  0
LAYOUT
  5
321
102
{ACAD_REACTORS
330
1A
102
}
100
AcDbPlotSettings
  1

  2
none_device
  4
ANSI_C_(22.00_x_17.00_Inches)
  6

 40
0.0
 41
0.0
 42
0.0
 43
0.0
 44
558.8
 45
431.8
 46
0.0
 47
0.0
 48
0.0
 49
0.0
140
0.0
141
0.0
142
1.0
143
1.0
 70
1024
 72
0
 73
0
 74
0
  7

 75
0
147
1.0
148
0.0
149
0.0
100
AcDbLayout
  1
Model
 70
0
 71
0
 10
0.0
 20
0.0
 11
22.0
 21
17.0
 12
0.0
 22
0.0
 32
0.0
 14
0.0
 24
0.0
 34
0.0
 15
0.0
 25
0.0
 35
0.0
146
0.0
 13
0.0
 23
0.0
 33
0.0
 16
1.0
 26
0.0
 36
0.0
 17
0.0
 27
1.0
 37
0.0
 76
0
330
216
345
0
346
0
  0
LAYOUT
  5
322
102
{ACAD_REACTORS
330
1A
102
}
100
AcDbPlotSettings
  1

  2
none_device
  4
ANSI_C_(22.00_x_17.00_Inches)
  6

 40
0.0
 41
0.0
 42
0.0
 43
0.0
 44
558.8
 45
431.8
 46
0.0
 47
0.0
 48
0.0
 49
0.0
140
0.0
141
0.0
142
1.0
143
1.0
 70
0
 72
0
 73
0
 74
0
  7

 75
0
147
1.0
148
0.0
149
0.0
100
AcDbLayout
  1
Layout1
 70
0
 71
1
 10
0.0
 20
0.0
 11
22.0
 21
17.0
 12
0.0
 22
0.0
 32
0.0
 14
0.0
 24
0.0
 34
0.0
 15
0.0
 25
0.0
 35
0.0
146
0.0
 13
0.0
 23
0.0
 33
0.0
 16
1.0
 26
0.0
 36
0.0
 17
0.0
 27
1.0
 37
0.0
 76
0
330
217
345
0
346
0
  0
ENDSEC
  0
EOF