999
DXF file: _cgs_temp_output.dxf
999
Pro/ENGINEER 2015110 by Parametric Technology Corporation
  0
SECTION
  2
HEADER
  9
$ACADVER
  1
AC1021
  9
$DWGCODEPAGE
  3
ANSI_1252
  9
$EXTMAX
 10
22.0
 20
17.0
 30
0.0
  9
$EXTMIN
 10
0.0
 20
0.0
 30
0.0
  9
$LIMMIN
 10
0.0
 20
0.0
  9
$LIMMAX
 10
22.0
 20
17.0
  9
$VIEWCTR
 10
11.0
 20
8.5
  9
$VIEWSIZE
 40
17.0
  9
$CLAYER
  8
0
  9
$LTSCALE
 40
1.21
  9
$CELTYPE
  6
BYLAYER
  9
$DIMSCALE
 40
1.0
  9
$DIMASZ
 40
0.1875
  9
$DIMEXO
 40
0.0625
  9
$DIMDLI
 40
0.836
  9
$DIMEXE
 40
0.125
  9
$DIMCEN
 40
0.198
  9
$DIMLFAC
 40
1.0
  9
$DIMBLK
  1
_CLOSED
  9
$DIMALT
 70
0
  9
$DIMALTF
 40
25.4
  9
$DIMTXT
 40
0.15625
  9
$DIMTOL
 70
0
  9
$DIMLIM
 70
0
  9
$DIMTFAC
 40
1.0
  9
$DIMGAP
 40
0.09
  9
$DIMDSEP
 70
46
  9
$AUNITS
 70
0
  9
$PDMODE
 70
3
  9
$PDSIZE
 40
0.3125
  9
$HANDSEED
  5
2AF
  9
$TILEMODE
 70
1
  9
$MEASUREMENT
 70
0
  9
$INSUNITS
 70
1
  0
ENDSEC
  0
SECTION
  2
CLASSES
  0
CLASS
  1
ACDBDICTIONARYWDFLT
  2
AcDbDictionaryWithDefault
  3
AutoCAD 2000
 90
0
 91
1
280
0
281
0
  0
CLASS
  1
ACDBPLACEHOLDER
  2
AcDbPlaceHolder
  3
AutoCAD 2000
 90
0
 91
1
280
0
281
0
  0
CLASS
  1
LAYOUT
  2
AcDbLayout
  3
AutoCAD 2000
 90
0
 91
0
280
0
281
0
  0
ENDSEC
  0
SECTION
  2
TABLES
  0
TABLE
  2
VPORT
  5
8
100
AcDbSymbolTable
 70
2
  0
VPORT
  5
1F4
100
AcDbSymbolTableRecord
100
AcDbViewportTableRecord
  2
*ACTIVE
 70
0
 10
0.0
 20
0.0
 11
1.0
 21
1.0
 12
11.0
 22
8.5
 13
0.0
 23
0.0
 14
1.0
 24
1.0
 15
0.0
 25
0.0
 16
0.0
 26
0.0
 36
1.0
 17
0.0
 27
0.0
 37
0.0
 40
17.0
 41
1.2941176471
 42
50.0
 43
0.0
 44
0.0
 50
0.0
 51
0.0
 71
0
 72
100
 73
1
 74
1
 75
0
 76
0
 77
0
 78
0
  0
ENDTAB
  0
TABLE
  2
LTYPE
  5
5
100
AcDbSymbolTable
 70
6
  0
LTYPE
  5
14
100
AcDbSymbolTableRecord
100
AcDbLinetypeTableRecord
  2
BYBLOCK
 70
0
  3

 72
65
 73
0
 40
0.0
  0
LTYPE
  5
15
100
AcDbSymbolTableRecord
100
AcDbLinetypeTableRecord
  2
BYLAYER
 70
0
  3

 72
65
 73
0
 40
0.0
  0
LTYPE
  5
16
100
AcDbSymbolTableRecord
100
AcDbLinetypeTableRecord
  2
CONTINUOUS
 70
64
  3
Solid line
 72
65
 73
0
 40
0.0
  0
LTYPE
  5
1F5
100
AcDbSymbolTableRecord
100
AcDbLinetypeTableRecord
  2
CENTER
 70
64
  3
____ _ ____ _ ____ _ ____ _ ____ _ ____ _ ____
 72
65
 73
4
 40
0.6
 49
0.375
 74
0
 49
-0.075
 74
0
 49
0.075
 74
0
 49
-0.075
 74
0
  0
LTYPE
  5
1F6
100
AcDbSymbolTableRecord
100
AcDbLinetypeTableRecord
  2
HIDDEN
 70
64
  3
- - - - - - - - - - - - - - - - - - - -
 72
65
 73
2
 40
0.2
 49
0.1
 74
0
 49
-0.1
 74
0
  0
LTYPE
  5
1F7
100
AcDbSymbolTableRecord
100
AcDbLinetypeTableRecord
  2
PHANTOM
 70
64
  3
_____ _ _ _____ _ _ _____ _ _ _____
 72
65
 73
6
 40
0.8
 49
0.45
 74
0
 49
-0.05
 74
0
 49
0.1
 74
0
 49
-0.05
 74
0
 49
0.1
 74
0
 49
-0.05
 74
0
  0
LTYPE
  5
1F8
100
AcDbSymbolTableRecord
100
AcDbLinetypeTableRecord
  2
DOT
 70
64
  3
. . . . . . . . . . . . . . . . . . . .
 72
65
 73
2
 40
0.2
 49
0.1
 74
0
 49
-0.1
 74
0
  0
LTYPE
  5
1F9
100
AcDbSymbolTableRecord
100
AcDbLinetypeTableRecord
  2
DASHED
 70
64
  3
- - - - - - - - - - - - - - - - - - - -
 72
65
 73
2
 40
0.2
 49
0.1
 74
0
 49
-0.1
 74
0
  0
ENDTAB
  0
TABLE
  2
LAYER
  5
2
100
AcDbSymbolTable
 70
36
  0
LAYER
  5
10
100
AcDbSymbolTableRecord
100
AcDbLayerTableRecord
  2
0
 70
0
 62
7
  6
CONTINUOUS
370
-3
390
F
  0
LAYER
  5
1FA
100
AcDbSymbolTableRecord
100
AcDbLayerTableRecord
  2
DEFAULT_1
 70
0
 62
7
  6
CENTER
370
-3
390
F
  0
LAYER
  5
1FB
100
AcDbSymbolTableRecord
100
AcDbLayerTableRecord
  2
DEFAULT_2
 70
0
 62
8
  6
HIDDEN
370
-3
390
F
  0
LAYER
  5
1FC
100
AcDbSymbolTableRecord
100
AcDbLayerTableRecord
  2
DEFAULT_3
 70
0
 62
7
  6
PHANTOM
370
-3
390
F
  0
LAYER
  5
1FD
100
AcDbSymbolTableRecord
100
AcDbLayerTableRecord
  2
01_ALL_DTM_PLN
 70
0
 62
7
  6
CONTINUOUS
370
-3
390
F
  0
LAYER
  5
1FE
100
AcDbSymbolTableRecord
100
AcDbLayerTableRecord
  2
01__ASM_ALL_DTM_PLN
 70
0
 62
7
  6
CONTINUOUS
370
-3
390
F
  0
LAYER
  5
1FF
100
AcDbSymbolTableRecord
100
AcDbLayerTableRecord
  2
01__ASM_DEF_DTM_PLN
 70
0
 62
7
  6
CONTINUOUS
370
-3
390
F
  0
LAYER
  5
200
100
AcDbSymbolTableRecord
100
AcDbLayerTableRecord
  2
01___PRT_ALL_DTM_PLN
 70
0
 62
7
  6
CONTINUOUS
370
-3
390
F
  0
LAYER
  5
201
100
AcDbSymbolTableRecord
100
AcDbLayerTableRecord
  2
01___PRT_DEF_DTM_PLN
 70
0
 62
7
  6
CONTINUOUS
370
-3
390
F
  0
LAYER
  5
202
100
AcDbSymbolTableRecord
100
AcDbLayerTableRecord
  2
02_ALL_AXES
 70
0
 62
7
  6
CONTINUOUS
370
-3
390
F
  0
LAYER
  5
203
100
AcDbSymbolTableRecord
100
AcDbLayerTableRecord
  2
02__ASM_ALL_AXES
 70
0
 62
7
  6
CONTINUOUS
370
-3
390
F
  0
LAYER
  5
204
100
AcDbSymbolTableRecord
100
AcDbLayerTableRecord
  2
02___PRT_ALL_AXES
 70
0
 62
7
  6
CONTINUOUS
370
-3
390
F
  0
LAYER
  5
205
100
AcDbSymbolTableRecord
100
AcDbLayerTableRecord
  2
03_ALL_CURVES
 70
0
 62
7
  6
CONTINUOUS
370
-3
390
F
  0
LAYER
  5
206
100
AcDbSymbolTableRecord
100
AcDbLayerTableRecord
  2
03__ASM_ALL_CURVES
 70
0
 62
7
  6
CONTINUOUS
370
-3
390
F
  0
LAYER
  5
207
100
AcDbSymbolTableRecord
100
AcDbLayerTableRecord
  2
03___PRT_ALL_CURVES
 70
0
 62
7
  6
CONTINUOUS
370
-3
390
F
  0
LAYER
  5
208
100
AcDbSymbolTableRecord
100
AcDbLayerTableRecord
  2
04_ALL_DTM_PNT
 70
0
 62
7
  6
CONTINUOUS
370
-3
390
F
  0
LAYER
  5
209
100
AcDbSymbolTableRecord
100
AcDbLayerTableRecord
  2
04__ASM_ALL_DTM_PNT
 70
0
 62
7
  6
CONTINUOUS
370
-3
390
F
  0
LAYER
  5
20A
100
AcDbSymbolTableRecord
100
AcDbLayerTableRecord
  2
04___PRT_ALL_DTM_PNT
 70
0
 62
7
  6
CONTINUOUS
370
-3
390
F
  0
LAYER
  5
20B
100
AcDbSymbolTableRecord
100
AcDbLayerTableRecord
  2
05_ALL_DTM_CSYS
 70
0
 62
7
  6
CONTINUOUS
370
-3
390
F
  0
LAYER
  5
20C
100
AcDbSymbolTableRecord
100
AcDbLayerTableRecord
  2
05__ASM_ALL_DTM_CSYS
 70
0
 62
7
  6
CONTINUOUS
370
-3
390
F
  0
LAYER
  5
20D
100
AcDbSymbolTableRecord
100
AcDbLayerTableRecord
  2
05__ASM_DEF_DTM_CSYS
 70
0
 62
7
  6
CONTINUOUS
370
-3
390
F
  0
LAYER
  5
20E
100
AcDbSymbolTableRecord
100
AcDbLayerTableRecord
  2
05___PRT_ALL_DTM_CSYS
 70
0
 62
7
  6
CONTINUOUS
370
-3
390
F
  0
LAYER
  5
20F
100
AcDbSymbolTableRecord
100
AcDbLayerTableRecord
  2
05___PRT_DEF_DTM_CSYS
 70
0
 62
7
  6
CONTINUOUS
370
-3
390
F
  0
LAYER
  5
210
100
AcDbSymbolTableRecord
100
AcDbLayerTableRecord
  2
06_ALL_SURFS
 70
0
 62
7
  6
CONTINUOUS
370
-3
390
F
  0
LAYER
  5
211
100
AcDbSymbolTableRecord
100
AcDbLayerTableRecord
  2
06__ASM_ALL_SURFS
 70
0
 62
7
  6
CONTINUOUS
370
-3
390
F
  0
LAYER
  5
212
100
AcDbSymbolTableRecord
100
AcDbLayerTableRecord
  2
06___PRT_ALL_SURFS
 70
0
 62
7
  6
CONTINUOUS
370
-3
390
F
  0
LAYER
  5
213
100
AcDbSymbolTableRecord
100
AcDbLayerTableRecord
  2
07__ASM_ALL_SKELETONS
 70
0
 62
7
  6
CONTINUOUS
370
-3
390
F
  0
LAYER
  5
214
100
AcDbSymbolTableRecord
100
AcDbLayerTableRecord
  2
LAYER_DIM
 70
0
 62
7
  6
CONTINUOUS
370
-3
390
F
  0
LAYER
  5
215
100
AcDbSymbolTableRecord
100
AcDbLayerTableRecord
  2
LAYER_FEATURE
 70
0
 62
7
  6
CONTINUOUS
370
-3
390
F
  0
LAYER
  5
216
100
AcDbSymbolTableRecord
100
AcDbLayerTableRecord
  2
LAYER_GEOM_FEAT
 70
0
 62
7
  6
CONTINUOUS
370
-3
390
F
  0
LAYER
  5
217
100
AcDbSymbolTableRecord
100
AcDbLayerTableRecord
  2
LAYER_PARAMETER_DIM
 70
0
 62
7
  6
CONTINUOUS
370
-3
390
F
  0
LAYER
  5
218
100
AcDbSymbolTableRecord
100
AcDbLayerTableRecord
  2
LAYER_PROTRUSION_FEAT
 70
0
 62
7
  6
CONTINUOUS
370
-3
390
F
  0
LAYER
  5
219
100
AcDbSymbolTableRecord
100
AcDbLayerTableRecord
  2
LAYER_ROUND_FEAT
 70
0
 62
7
  6
CONTINUOUS
370
-3
390
F
  0
ENDTAB
  0
TABLE
  2
STYLE
  5
3
100
AcDbSymbolTable
 70
1
  0
STYLE
  5
11
100
AcDbSymbolTableRecord
100
AcDbTextStyleTableRecord
  2
STANDARD
 70
0
 40
0.0
 41
0.8
 50
0.0
 71
0
 42
0.2
  3
txt
  4

  0
STYLE
  5
21A
100
AcDbSymbolTableRecord
100
AcDbTextStyleTableRecord
  2
TEXTSTYLE_1
 70
0
 40
0.0
 41
0.8
 50
0.0
 71
0
 42
0.2
  3
gdt
  4

  0
ENDTAB
  0
TABLE
  2
VIEW
  5
6
100
AcDbSymbolTable
 70
0
  0
ENDTAB
  0
TABLE
  2
UCS
  5
7
100
AcDbSymbolTable
 70
0
  0
ENDTAB
  0
TABLE
  2
APPID
  5
9
100
AcDbSymbolTable
 70
1
  0
APPID
  5
21B
100
AcDbSymbolTableRecord
100
AcDbRegAppTableRecord
  2
ACAD
 70
0
  0
ENDTAB
  0
TABLE
  2
BLOCK_RECORD
  5
1
100
AcDbSymbolTable
 70
0
  0
BLOCK_RECORD
  5
21C
100
AcDbSymbolTableRecord
100
AcDbBlockTableRecord
  2
*Model_Space
  0
BLOCK_RECORD
  5
21D
100
AcDbSymbolTableRecord
100
AcDbBlockTableRecord
  2
*Paper_Space
  0
ENDTAB
  0
TABLE
  2
DIMSTYLE
  5
A
100
AcDbSymbolTable
 70
1
100
AcDbDimStyleTable
 71
0
  0
DIMSTYLE
105
21E
100
AcDbSymbolTableRecord
100
AcDbDimStyleTableRecord
  2
STANDARD
 70
0
  3

  4

 40
1.0
 41
0.1875
 42
0.0625
 43
0.38
 44
0.125
 45
0.0
 46
0.0
 47
0.0001
 48
0.0001
140
0.15625
141
0.09
142
0.0
143
25.4
144
1.0
145
0.0
146
1.0
147
0.09
 71
0.0
 72
0.0
 73
1
 74
1
 75
0
 76
0
 77
0
 78
4
170
0
171
2
172
0
173
0
174
0
175
0
176
0
177
0
178
0
270
2
271
4
272
4
273
2
274
2
275
0
280
0
281
0
282
0
283
1
284
4
285
0
286
0
287
3
288
0
340
11
278
46
  0
ENDTAB
  0
ENDSEC
  0
SECTION
  2
BLOCKS
  0
BLOCK
  5
20
100
AcDbEntity
  8
0
100
AcDbBlockBegin
  2
*Model_Space
 70
0
 10
0.0
 20
0.0
 30
0.0
  3
*Model_Space
  1

  0
ENDBLK
  5
21
100
AcDbEntity
  8
0
100
AcDbBlockEnd
  0
BLOCK
  5
1C
100
AcDbEntity
  8
0
100
AcDbBlockBegin
  2
*Paper_Space
 70
0
 10
0.0
 20
0.0
 30
0.0
  3
*Paper_Space
  1

  0
ENDBLK
  5
1D
100
AcDbEntity
  8
0
100
AcDbBlockEnd
  0
ENDSEC
  0
SECTION
  2
ENTITIES
  0
MTEXT
  5
21F
100
AcDbEntity
  8
0
100
AcDbMText
 62
7
  6
CONTINUOUS
  7
STANDARD
 71
1
 72
1
 10
15.9560215477
 20
0.9479130325
 30
0.0
 11
1.0
 21
0.0
 31
0.0
 44
0.9
  1
SCALE: 1:1.000
 40
0.3
 41
3.36
  0
LINE
  5
220
100
AcDbEntity
  8
0
100
AcDbLine
 62
7
  6
CONTINUOUS
 10
0.0
 20
0.0
 11
0.0
 21
17.0
  0
LINE
  5
221
100
AcDbEntity
  8
0
100
AcDbLine
 62
7
  6
CONTINUOUS
 10
0.0
 20
0.0
 11
22.0
 21
0.0
  0
LINE
  5
222
100
AcDbEntity
  8
0
100
AcDbLine
 62
7
  6
CONTINUOUS
 10
0.0
 20
17.0
 11
22.0
 21
17.0
  0
LINE
  5
223
100
AcDbEntity
  8
0
100
AcDbLine
 62
7
  6
CONTINUOUS
 10
22.0
 20
0.0
 11
22.0
 21
17.0
  0
LINE
  5
224
100
AcDbEntity
  8
0
100
AcDbLine
 62
7
  6
CONTINUOUS
 10
4.1003672762
 20
5.8151198968
 11
4.1003672762
 21
5.7401198968
  0
LINE
  5
225
100
AcDbEntity
  8
0
100
AcDbLine
 62
7
  6
CONTINUOUS
 10
4.1003672762
 20
5.7401198968
 11
4.2121649817
 21
5.2304185295
  0
LINE
  5
226
100
AcDbEntity
  8
0
100
AcDbLine
 62
7
  6
CONTINUOUS
 10
4.7203672762
 20
5.7401198968
 11
4.7203672762
 21
5.7851198968
  0
LINE
  5
227
100
AcDbEntity
  8
0
100
AcDbLine
 62
7
  6
CONTINUOUS
 10
4.6085695706
 20
5.2304185295
 11
4.7203672762
 21
5.7401198968
  0
LINE
  5
228
100
AcDbEntity
  8
LAYER_FEATURE
100
AcDbLine
 62
7
  6
CONTINUOUS
 10
4.7883672762
 20
5.7851198968
 11
4.7883672762
 21
5.7401198968
  0
LINE
  5
229
100
AcDbEntity
  8
LAYER_FEATURE
100
AcDbLine
 62
7
  6
CONTINUOUS
 10
4.7883672762
 20
5.7401198968
 11
4.9001649817
 21
5.2304185295
  0
LINE
  5
22A
100
AcDbEntity
  8
LAYER_FEATURE
100
AcDbLine
 62
7
  6
CONTINUOUS
 10
5.4083672762
 20
5.7401198968
 11
5.4083672762
 21
5.7851198968
  0
LINE
  5
22B
100
AcDbEntity
  8
LAYER_FEATURE
100
AcDbLine
 62
7
  6
CONTINUOUS
 10
5.2965695706
 20
5.2304185295
 11
5.4083672762
 21
5.7401198968
  0
LINE
  5
22C
100
AcDbEntity
  8
LAYER_FEATURE
100
AcDbLine
 62
7
  6
CONTINUOUS
 10
5.4763672762
 20
5.7851198968
 11
5.4763672762
 21
5.7401198968
  0
LINE
  5
22D
100
AcDbEntity
  8
LAYER_FEATURE
100
AcDbLine
 62
7
  6
CONTINUOUS
 10
5.4763672762
 20
5.7401198968
 11
5.5881649817
 21
5.2304185295
  0
LINE
  5
22E
100
AcDbEntity
  8
0
100
AcDbLine
 62
7
  6
CONTINUOUS
 10
4.2373984555
 20
5.2101198968
 11
4.5833360968
 21
5.2101198968
  0
LINE
  5
22F
100
AcDbEntity
  8
LAYER_FEATURE
100
AcDbLine
 62
7
  6
CONTINUOUS
 10
4.9253984555
 20
5.2101198968
 11
5.2713360968
 21
5.2101198968
  0
LINE
  5
230
100
AcDbEntity
  8
LAYER_FEATURE
100
AcDbLine
 62
7
  6
CONTINUOUS
 10
5.6133984555
 20
5.2101198968
 11
5.9593360968
 21
5.2101198968
  0
LINE
  5
231
100
AcDbEntity
  8
LAYER_FEATURE
100
AcDbLine
 62
7
  6
CONTINUOUS
 10
6.3013984555
 20
5.2101198968
 11
6.6473360968
 21
5.2101198968
  0
LINE
  5
232
100
AcDbEntity
  8
LAYER_FEATURE
100
AcDbLine
 62
7
  6
CONTINUOUS
 10
6.9893984555
 20
5.2101198968
 11
7.3353360968
 21
5.2101198968
  0
LINE
  5
233
100
AcDbEntity
  8
LAYER_FEATURE
100
AcDbLine
 62
7
  6
CONTINUOUS
 10
7.6773984555
 20
5.2101198968
 11
8.0233360968
 21
5.2101198968
  0
LINE
  5
234
100
AcDbEntity
  8
LAYER_FEATURE
100
AcDbLine
 62
7
  6
CONTINUOUS
 10
6.0963672762
 20
5.7401198968
 11
6.0963672762
 21
5.7851198968
  0
LINE
  5
235
100
AcDbEntity
  8
LAYER_FEATURE
100
AcDbLine
 62
7
  6
CONTINUOUS
 10
5.9845695706
 20
5.2304185295
 11
6.0963672762
 21
5.7401198968
  0
LINE
  5
236
100
AcDbEntity
  8
LAYER_FEATURE
100
AcDbLine
 62
7
  6
CONTINUOUS
 10
6.1643672762
 20
5.7851198968
 11
6.1643672762
 21
5.7401198968
  0
LINE
  5
237
100
AcDbEntity
  8
LAYER_FEATURE
100
AcDbLine
 62
7
  6
CONTINUOUS
 10
6.1643672762
 20
5.7401198968
 11
6.2761649817
 21
5.2304185295
  0
LINE
  5
238
100
AcDbEntity
  8
LAYER_FEATURE
100
AcDbLine
 62
7
  6
CONTINUOUS
 10
4.7203672762
 20
5.7851198968
 11
4.7883672762
 21
5.7851198968
  0
LINE
  5
239
100
AcDbEntity
  8
LAYER_FEATURE
100
AcDbLine
 62
7
  6
CONTINUOUS
 10
5.4083672762
 20
5.7851198968
 11
5.4763672762
 21
5.7851198968
  0
LINE
  5
23A
100
AcDbEntity
  8
LAYER_FEATURE
100
AcDbLine
 62
7
  6
CONTINUOUS
 10
6.0963672762
 20
5.7851198968
 11
6.1643672762
 21
5.7851198968
  0
LINE
  5
23B
100
AcDbEntity
  8
LAYER_FEATURE
100
AcDbLine
 62
7
  6
CONTINUOUS
 10
6.7843672762
 20
5.7851198968
 11
6.8523672762
 21
5.7851198968
  0
LINE
  5
23C
100
AcDbEntity
  8
LAYER_FEATURE
100
AcDbLine
 62
7
  6
CONTINUOUS
 10
7.4723672762
 20
5.7851198968
 11
7.5403672762
 21
5.7851198968
  0
LINE
  5
23D
100
AcDbEntity
  8
0
100
AcDbLine
 62
7
  6
CONTINUOUS
 10
8.1453672762
 20
5.8301198968
 11
4.1153672762
 21
5.8301198968
  0
LINE
  5
23E
100
AcDbEntity
  8
LAYER_FEATURE
100
AcDbLine
 62
7
  6
CONTINUOUS
 10
6.7843672762
 20
5.7401198968
 11
6.7843672762
 21
5.7851198968
  0
LINE
  5
23F
100
AcDbEntity
  8
LAYER_FEATURE
100
AcDbLine
 62
7
  6
CONTINUOUS
 10
6.6725695706
 20
5.2304185295
 11
6.7843672762
 21
5.7401198968
  0
LINE
  5
240
100
AcDbEntity
  8
LAYER_FEATURE
100
AcDbLine
 62
7
  6
CONTINUOUS
 10
6.8523672762
 20
5.7851198968
 11
6.8523672762
 21
5.7401198968
  0
LINE
  5
241
100
AcDbEntity
  8
LAYER_FEATURE
100
AcDbLine
 62
7
  6
CONTINUOUS
 10
6.8523672762
 20
5.7401198968
 11
6.9641649817
 21
5.2304185295
  0
LINE
  5
242
100
AcDbEntity
  8
LAYER_FEATURE
100
AcDbLine
 62
7
  6
CONTINUOUS
 10
7.4723672762
 20
5.7401198968
 11
7.4723672762
 21
5.7851198968
  0
LINE
  5
243
100
AcDbEntity
  8
LAYER_FEATURE
100
AcDbLine
 62
7
  6
CONTINUOUS
 10
7.3605695706
 20
5.2304185295
 11
7.4723672762
 21
5.7401198968
  0
LINE
  5
244
100
AcDbEntity
  8
LAYER_FEATURE
100
AcDbLine
 62
7
  6
CONTINUOUS
 10
7.5403672762
 20
5.7851198968
 11
7.5403672762
 21
5.7401198968
  0
LINE
  5
245
100
AcDbEntity
  8
LAYER_FEATURE
100
AcDbLine
 62
7
  6
CONTINUOUS
 10
7.5403672762
 20
5.7401198968
 11
7.6521649817
 21
5.2304185295
  0
LINE
  5
246
100
AcDbEntity
  8
0
100
AcDbLine
 62
7
  6
CONTINUOUS
 10
8.1603672762
 20
5.7401198968
 11
8.1603672762
 21
5.8151198968
  0
LINE
  5
247
100
AcDbEntity
  8
LAYER_FEATURE
100
AcDbLine
 62
7
  6
CONTINUOUS
 10
8.0485695706
 20
5.2304185295
 11
8.1603672762
 21
5.7401198968
  0
LINE
  5
248
100
AcDbEntity
  8
0
100
AcDbLine
 62
7
  6
CONTINUOUS
 10
4.0408720839
 20
14.6000477814
 11
4.0408720839
 21
10.6000477814
  0
LINE
  5
249
100
AcDbEntity
  8
0
100
AcDbLine
 62
7
  6
CONTINUOUS
 10
8.1008720839
 20
10.6000477814
 11
4.0408720839
 21
10.6000477814
  0
LINE
  5
24A
100
AcDbEntity
  8
0
100
AcDbLine
 62
7
  6
CONTINUOUS
 10
8.1008720839
 20
10.6000477814
 11
8.1008720839
 21
14.6000477814
  0
LINE
  5
24B
100
AcDbEntity
  8
0
100
AcDbLine
 62
7
  6
CONTINUOUS
 10
4.0408720839
 20
14.6000477814
 11
8.1008720839
 21
14.6000477814
  0
LINE
  5
24C
100
AcDbEntity
  8
LAYER_FEATURE
100
AcDbLine
 62
7
  6
CONTINUOUS
 10
13.5603552569
 20
5.1506247044
 11
13.5603552569
 21
5.6806247044
  0
LINE
  5
24D
100
AcDbEntity
  8
0
100
AcDbLine
 62
7
  6
CONTINUOUS
 10
13.5603552569
 20
5.6806247044
 11
13.5603552569
 21
5.7706247044
  0
LINE
  5
24E
100
AcDbEntity
  8
LAYER_FEATURE
100
AcDbLine
 62
7
  6
CONTINUOUS
 10
13.5603552569
 20
5.1506247044
 11
17.5603552569
 21
5.1506247044
  0
LINE
  5
24F
100
AcDbEntity
  8
LAYER_FEATURE
100
AcDbLine
 62
7
  6
CONTINUOUS
 10
17.5603552569
 20
5.6806247044
 11
13.5603552569
 21
5.6806247044
  0
LINE
  5
250
100
AcDbEntity
  8
0
100
AcDbLine
 62
7
  6
CONTINUOUS
 10
13.5603552569
 20
5.7706247044
 11
17.5603552569
 21
5.7706247044
  0
LINE
  5
251
100
AcDbEntity
  8
0
100
AcDbLine
 62
7
  6
CONTINUOUS
 10
17.5603552569
 20
5.7706247044
 11
17.5603552569
 21
5.6806247044
  0
LINE
  5
252
100
AcDbEntity
  8
LAYER_FEATURE
100
AcDbLine
 62
7
  6
CONTINUOUS
 10
17.5603552569
 20
5.1506247044
 11
17.5603552569
 21
5.6806247044
  0
LINE
  5
253
100
AcDbEntity
  8
0
100
AcDbLine
 62
7
  6
CONTINUOUS
 10
13.0798833963
 20
11.1275261143
 11
13.1027615363
 21
11.0809053667
  0
LINE
  5
254
100
AcDbEntity
  8
0
100
AcDbLine
 62
7
  6
CONTINUOUS
 10
13.1027615363
 20
11.0809053667
 11
13.3612142986
 21
10.7640699159
  0
LINE
  5
255
100
AcDbEntity
  8
LAYER_FEATURE
100
AcDbLine
 62
7
  6
CONTINUOUS
 10
13.7364515001
 20
11.0809053667
 11
13.9949042625
 21
10.7640699159
  0
LINE
  5
256
100
AcDbEntity
  8
0
100
AcDbLine
 62
7
  6
CONTINUOUS
 10
13.6738193526
 20
11.0809053667
 11
13.6600924686
 21
11.1088778152
  0
LINE
  5
257
100
AcDbEntity
  8
LAYER_FEATURE
100
AcDbLine
 62
7
  6
CONTINUOUS
 10
13.7227246162
 20
11.1088778152
 11
13.7364515001
 21
11.0809053667
  0
LINE
  5
258
100
AcDbEntity
  8
0
100
AcDbLine
 62
7
  6
CONTINUOUS
 10
13.7263271032
 20
10.7640699159
 11
13.6738193526
 21
11.0809053667
  0
LINE
  5
259
100
AcDbEntity
  8
0
100
AcDbLine
 62
7
  6
CONTINUOUS
 10
14.0476332921
 20
14.2652624634
 11
13.0793679985
 21
11.1319548249
  0
LINE
  5
25A
100
AcDbEntity
  8
0
100
AcDbLine
 62
7
  6
CONTINUOUS
 10
13.3906477999
 20
10.7514520835
 11
13.7092774676
 21
10.7514520835
  0
LINE
  5
25B
100
AcDbEntity
  8
LAYER_FEATURE
100
AcDbLine
 62
7
  6
CONTINUOUS
 10
14.0243377637
 20
10.7514520835
 11
14.3429674315
 21
10.7514520835
  0
LINE
  5
25C
100
AcDbEntity
  8
LAYER_FEATURE
100
AcDbLine
 62
7
  6
CONTINUOUS
 10
14.6580277276
 20
10.7514520835
 11
14.9766573953
 21
10.7514520835
  0
LINE
  5
25D
100
AcDbEntity
  8
LAYER_FEATURE
100
AcDbLine
 62
7
  6
CONTINUOUS
 10
15.2917176915
 20
10.7514520835
 11
15.6103473592
 21
10.7514520835
  0
LINE
  5
25E
100
AcDbEntity
  8
LAYER_FEATURE
100
AcDbLine
 62
7
  6
CONTINUOUS
 10
15.9254076554
 20
10.7514520835
 11
16.2440373231
 21
10.7514520835
  0
LINE
  5
25F
100
AcDbEntity
  8
LAYER_FEATURE
100
AcDbLine
 62
7
  6
CONTINUOUS
 10
16.5590976192
 20
10.7514520835
 11
16.877727287
 21
10.7514520835
  0
LINE
  5
260
100
AcDbEntity
  8
LAYER_FEATURE
100
AcDbLine
 62
7
  6
CONTINUOUS
 10
14.370141464
 20
11.0809053667
 11
14.6285942263
 21
10.7640699159
  0
LINE
  5
261
100
AcDbEntity
  8
0
100
AcDbLine
 62
7
  6
CONTINUOUS
 10
13.7260759739
 20
10.7598840241
 11
13.7263271032
 21
10.7640699159
  0
LINE
  5
262
100
AcDbEntity
  8
LAYER_FEATURE
100
AcDbLine
 62
7
  6
CONTINUOUS
 10
14.3075093164
 20
11.0809053667
 11
14.2937824324
 21
11.1088778152
  0
LINE
  5
263
100
AcDbEntity
  8
LAYER_FEATURE
100
AcDbLine
 62
7
  6
CONTINUOUS
 10
14.35641458
 20
11.1088778152
 11
14.370141464
 21
11.0809053667
  0
LINE
  5
264
100
AcDbEntity
  8
LAYER_FEATURE
100
AcDbLine
 62
7
  6
CONTINUOUS
 10
13.6600924686
 20
11.1088778152
 11
13.7227246162
 21
11.1088778152
  0
LINE
  5
265
100
AcDbEntity
  8
LAYER_FEATURE
100
AcDbLine
 62
7
  6
CONTINUOUS
 10
14.2937824324
 20
11.1088778152
 11
14.35641458
 21
11.1088778152
  0
LINE
  5
266
100
AcDbEntity
  8
LAYER_FEATURE
100
AcDbLine
 62
7
  6
CONTINUOUS
 10
14.9274723963
 20
11.1088778152
 11
14.9901045439
 21
11.1088778152
  0
LINE
  5
267
100
AcDbEntity
  8
LAYER_FEATURE
100
AcDbLine
 62
7
  6
CONTINUOUS
 10
15.5611623602
 20
11.1088778152
 11
15.6237945078
 21
11.1088778152
  0
LINE
  5
268
100
AcDbEntity
  8
LAYER_FEATURE
100
AcDbLine
 62
7
  6
CONTINUOUS
 10
16.1948523241
 20
11.1088778152
 11
16.2574844716
 21
11.1088778152
  0
LINE
  5
269
100
AcDbEntity
  8
0
100
AcDbLine
 62
7
  6
CONTINUOUS
 10
16.800999489
 20
11.1368502638
 11
13.0891236832
 21
11.1368502638
  0
LINE
  5
26A
100
AcDbEntity
  8
LAYER_FEATURE
100
AcDbLine
 62
7
  6
CONTINUOUS
 10
14.3600170671
 20
10.7640699159
 11
14.3075093164
 21
11.0809053667
  0
LINE
  5
26B
100
AcDbEntity
  8
0
100
AcDbLine
 62
7
  6
CONTINUOUS
 10
13.682463493
 20
11.1088778152
 11
13.6738193526
 21
11.0809053667
  0
LINE
  5
26C
100
AcDbEntity
  8
LAYER_FEATURE
100
AcDbLine
 62
7
  6
CONTINUOUS
 10
15.0038314279
 20
11.0809053667
 11
15.2622841902
 21
10.7640699159
  0
LINE
  5
26D
100
AcDbEntity
  8
LAYER_FEATURE
100
AcDbLine
 62
7
  6
CONTINUOUS
 10
14.3597659377
 20
10.7598840241
 11
14.3600170671
 21
10.7640699159
  0
LINE
  5
26E
100
AcDbEntity
  8
0
100
AcDbLine
 62
7
  6
CONTINUOUS
 10
13.7272815937
 20
10.7637749561
 11
13.8008762861
 21
11.0019274679
  0
LINE
  5
26F
100
AcDbEntity
  8
LAYER_FEATURE
100
AcDbLine
 62
7
  6
CONTINUOUS
 10
14.9411992803
 20
11.0809053667
 11
14.9274723963
 21
11.1088778152
  0
LINE
  5
270
100
AcDbEntity
  8
LAYER_FEATURE
100
AcDbLine
 62
7
  6
CONTINUOUS
 10
14.9901045439
 20
11.1088778152
 11
15.0038314279
 21
11.0809053667
  0
LINE
  5
271
100
AcDbEntity
  8
LAYER_FEATURE
100
AcDbLine
 62
7
  6
CONTINUOUS
 10
15.6375213918
 20
11.0809053667
 11
15.8959741541
 21
10.7640699159
  0
LINE
  5
272
100
AcDbEntity
  8
LAYER_FEATURE
100
AcDbLine
 62
7
  6
CONTINUOUS
 10
14.3161534568
 20
11.1088778152
 11
14.3075093164
 21
11.0809053667
  0
LINE
  5
273
100
AcDbEntity
  8
LAYER_FEATURE
100
AcDbLine
 62
7
  6
CONTINUOUS
 10
14.993707031
 20
10.7640699159
 11
14.9411992803
 21
11.0809053667
  0
LINE
  5
274
100
AcDbEntity
  8
LAYER_FEATURE
100
AcDbLine
 62
7
  6
CONTINUOUS
 10
14.9934559016
 20
10.7598840241
 11
14.993707031
 21
10.7640699159
  0
LINE
  5
275
100
AcDbEntity
  8
LAYER_FEATURE
100
AcDbLine
 62
7
  6
CONTINUOUS
 10
14.3609715576
 20
10.7637749561
 11
14.4345662499
 21
11.0019274679
  0
LINE
  5
276
100
AcDbEntity
  8
LAYER_FEATURE
100
AcDbLine
 62
7
  6
CONTINUOUS
 10
15.5748892442
 20
11.0809053667
 11
15.5611623602
 21
11.1088778152
  0
LINE
  5
277
100
AcDbEntity
  8
LAYER_FEATURE
100
AcDbLine
 62
7
  6
CONTINUOUS
 10
15.6237945078
 20
11.1088778152
 11
15.6375213918
 21
11.0809053667
  0
LINE
  5
278
100
AcDbEntity
  8
LAYER_FEATURE
100
AcDbLine
 62
7
  6
CONTINUOUS
 10
16.2712113556
 20
11.0809053667
 11
16.529664118
 21
10.7640699159
  0
LINE
  5
279
100
AcDbEntity
  8
LAYER_FEATURE
100
AcDbLine
 62
7
  6
CONTINUOUS
 10
14.9498434207
 20
11.1088778152
 11
14.9411992803
 21
11.0809053667
  0
LINE
  5
27A
100
AcDbEntity
  8
LAYER_FEATURE
100
AcDbLine
 62
7
  6
CONTINUOUS
 10
15.6273969949
 20
10.7640699159
 11
15.5748892442
 21
11.0809053667
  0
LINE
  5
27B
100
AcDbEntity
  8
LAYER_FEATURE
100
AcDbLine
 62
7
  6
CONTINUOUS
 10
14.9946615214
 20
10.7637749561
 11
15.0682562138
 21
11.0019274679
  0
LINE
  5
27C
100
AcDbEntity
  8
LAYER_FEATURE
100
AcDbLine
 62
7
  6
CONTINUOUS
 10
16.2085792081
 20
11.0809053667
 11
16.1948523241
 21
11.1088778152
  0
LINE
  5
27D
100
AcDbEntity
  8
LAYER_FEATURE
100
AcDbLine
 62
7
  6
CONTINUOUS
 10
16.2574844716
 20
11.1088778152
 11
16.2712113556
 21
11.0809053667
  0
LINE
  5
27E
100
AcDbEntity
  8
LAYER_FEATURE
100
AcDbLine
 62
7
  6
CONTINUOUS
 10
15.6271458655
 20
10.7598840241
 11
15.6273969949
 21
10.7640699159
  0
LINE
  5
27F
100
AcDbEntity
  8
LAYER_FEATURE
100
AcDbLine
 62
7
  6
CONTINUOUS
 10
15.5835333846
 20
11.1088778152
 11
15.5748892442
 21
11.0809053667
  0
LINE
  5
280
100
AcDbEntity
  8
0
100
AcDbLine
 62
7
  6
CONTINUOUS
 10
16.8422691719
 20
11.0809053667
 11
16.8193910319
 21
11.1275261143
  0
LINE
  5
281
100
AcDbEntity
  8
LAYER_FEATURE
100
AcDbLine
 62
7
  6
CONTINUOUS
 10
16.2610869587
 20
10.7640699159
 11
16.2085792081
 21
11.0809053667
  0
LINE
  5
282
100
AcDbEntity
  8
LAYER_FEATURE
100
AcDbLine
 62
7
  6
CONTINUOUS
 10
15.6283514853
 20
10.7637749561
 11
15.7019461777
 21
11.0019274679
  0
LINE
  5
283
100
AcDbEntity
  8
LAYER_FEATURE
100
AcDbLine
 62
7
  6
CONTINUOUS
 10
16.2608358294
 20
10.7598840241
 11
16.2610869587
 21
10.7640699159
  0
LINE
  5
284
100
AcDbEntity
  8
LAYER_FEATURE
100
AcDbLine
 62
7
  6
CONTINUOUS
 10
16.2172233484
 20
11.1088778152
 11
16.2085792081
 21
11.0809053667
  0
LINE
  5
285
100
AcDbEntity
  8
LAYER_FEATURE
100
AcDbLine
 62
7
  6
CONTINUOUS
 10
16.8947769226
 20
10.7640699159
 11
16.8422691719
 21
11.0809053667
  0
LINE
  5
286
100
AcDbEntity
  8
LAYER_FEATURE
100
AcDbLine
 62
7
  6
CONTINUOUS
 10
16.2620414492
 20
10.7637749561
 11
16.3356361416
 21
11.0019274679
  0
LINE
  5
287
100
AcDbEntity
  8
LAYER_FEATURE
100
AcDbLine
 62
7
  6
CONTINUOUS
 10
16.8945257932
 20
10.7598840241
 11
16.8947769226
 21
10.7640699159
  0
LINE
  5
288
100
AcDbEntity
  8
LAYER_FEATURE
100
AcDbLine
 62
7
  6
CONTINUOUS
 10
17.8105344656
 20
14.2142130052
 11
16.8422691719
 21
11.0809053667
  0
LINE
  5
289
100
AcDbEntity
  8
0
100
AcDbLine
 62
7
  6
CONTINUOUS
 10
14.0573889768
 20
14.2701579023
 11
17.7692647826
 21
14.2701579023
  0
LINE
  5
28A
100
AcDbEntity
  8
LAYER_FEATURE
100
AcDbLine
 62
7
  6
CONTINUOUS
 10
16.8957314131
 20
10.7637749561
 11
17.8627940375
 21
13.8931907557
  0
LINE
  5
28B
100
AcDbEntity
  8
LAYER_FEATURE
100
AcDbLine
 62
7
  6
CONTINUOUS
 10
17.8630422162
 20
13.8973775544
 11
17.8627910869
 21
13.8931916626
  0
LINE
  5
28C
100
AcDbEntity
  8
LAYER_FEATURE
100
AcDbLine
 62
7
  6
CONTINUOUS
 10
17.8630422162
 20
13.8973775544
 11
17.8105344656
 21
14.2142130052
  0
LINE
  5
28D
100
AcDbEntity
  8
0
100
AcDbLine
 62
7
  6
CONTINUOUS
 10
17.7876563256
 20
14.2608337528
 11
17.8105344656
 21
14.2142130052
  0
ARC
  5
28E
100
AcDbEntity
  8
0
100
AcDbCircle
 62
7
  6
CONTINUOUS
 10
4.2373984555
 20
5.2359532301
 40
0.0258333333
100
AcDbArc
 50
192.3713234544
 51
270.0
  0
ARC
  5
28F
100
AcDbEntity
  8
0
100
AcDbCircle
 62
7
  6
CONTINUOUS
 10
4.5833360968
 20
5.2359532301
 40
0.0258333333
100
AcDbArc
 50
270.0
 51
347.6286765456
  0
ARC
  5
290
100
AcDbEntity
  8
LAYER_FEATURE
100
AcDbCircle
 62
7
  6
CONTINUOUS
 10
4.9253984555
 20
5.2359532301
 40
0.0258333333
100
AcDbArc
 50
192.3713234544
 51
270.0
  0
ARC
  5
291
100
AcDbEntity
  8
LAYER_FEATURE
100
AcDbCircle
 62
7
  6
CONTINUOUS
 10
5.2713360968
 20
5.2359532301
 40
0.0258333333
100
AcDbArc
 50
270.0
 51
347.6286765456
  0
ARC
  5
292
100
AcDbEntity
  8
LAYER_FEATURE
100
AcDbCircle
 62
7
  6
CONTINUOUS
 10
5.6133984555
 20
5.2359532301
 40
0.0258333333
100
AcDbArc
 50
192.3713234544
 51
270.0
  0
ARC
  5
293
100
AcDbEntity
  8
LAYER_FEATURE
100
AcDbCircle
 62
7
  6
CONTINUOUS
 10
5.9593360968
 20
5.2359532301
 40
0.0258333333
100
AcDbArc
 50
270.0
 51
347.6286765456
  0
ARC
  5
294
100
AcDbEntity
  8
LAYER_FEATURE
100
AcDbCircle
 62
7
  6
CONTINUOUS
 10
6.3013984555
 20
5.2359532301
 40
0.0258333333
100
AcDbArc
 50
192.3713234544
 51
270.0
  0
ARC
  5
295
100
AcDbEntity
  8
LAYER_FEATURE
100
AcDbCircle
 62
7
  6
CONTINUOUS
 10
6.6473360968
 20
5.2359532301
 40
0.0258333333
100
AcDbArc
 50
270.0
 51
347.6286765456
  0
ARC
  5
296
100
AcDbEntity
  8
LAYER_FEATURE
100
AcDbCircle
 62
7
  6
CONTINUOUS
 10
6.9893984555
 20
5.2359532301
 40
0.0258333333
100
AcDbArc
 50
192.3713234544
 51
270.0
  0
ARC
  5
297
100
AcDbEntity
  8
LAYER_FEATURE
100
AcDbCircle
 62
7
  6
CONTINUOUS
 10
7.3353360968
 20
5.2359532301
 40
0.0258333333
100
AcDbArc
 50
270.0
 51
347.6286765456
  0
ARC
  5
298
100
AcDbEntity
  8
LAYER_FEATURE
100
AcDbCircle
 62
7
  6
CONTINUOUS
 10
8.0233360968
 20
5.2359532301
 40
0.0258333333
100
AcDbArc
 50
270.0
 51
347.6286765456
  0
ARC
  5
299
100
AcDbEntity
  8
LAYER_FEATURE
100
AcDbCircle
 62
7
  6
CONTINUOUS
 10
7.6773984555
 20
5.2359532301
 40
0.0258333333
100
AcDbArc
 50
192.3713234544
 51
270.0
  0
ARC
  5
29A
100
AcDbEntity
  8
0
100
AcDbCircle
 62
7
  6
CONTINUOUS
 10
4.1153672762
 20
5.8151198968
 40
0.015
100
AcDbArc
 50
90.0
 51
180.0
  0
ARC
  5
29B
100
AcDbEntity
  8
0
100
AcDbCircle
 62
7
  6
CONTINUOUS
 10
8.1453672762
 20
5.8151198968
 40
0.015
100
AcDbArc
 50
0.0
 51
90.0
  0
SPLINE
  5
29C
100
AcDbEntity
  8
0
100
AcDbSpline
 62
7
  6
CONTINUOUS
 70
0
 71
3
 72
15
 73
11
 74
0
 42
0.0000001
 43
0.0000001
 44
0.0000000001
 40
0.0
 40
0.0
 40
0.0
 40
0.0
 40
0.1294168207
 40
0.2645188108
 40
0.401297905
 40
0.5362632528
 40
0.6661556918
 40
0.7881385733
 40
0.8999190763
 40
1.0
 40
1.0
 40
1.0
 40
1.0
 10
17.7692647826
 20
14.2701579023
 30
0.0
 10
17.7701926379
 20
14.2701579023
 30
0.0
 10
17.7720904473
 20
14.2700276914
 30
0.0
 10
17.7749245161
 20
14.2694992578
 30
0.0
 10
17.7777188693
 20
14.2686412791
 30
0.0
 10
17.7803667036
 20
14.2674937992
 30
0.0
 10
17.7827694437
 20
14.2660949877
 30
0.0
 10
17.784842328
 20
14.2644989035
 30
0.0
 10
17.7865003468
 20
14.2627593652
 30
0.0
 10
17.7873402224
 20
14.2614779033
 30
0.0
 10
17.7876563256
 20
14.2608337528
 30
0.0
  0
SPLINE
  5
29D
100
AcDbEntity
  8
0
100
AcDbSpline
 62
7
  6
CONTINUOUS
 70
0
 71
3
 72
10
 73
6
 74
0
 42
0.0000001
 43
0.0000001
 44
0.0000000001
 40
0.0
 40
0.0
 40
0.0
 40
0.0
 40
0.2343751468
 40
0.4761727454
 40
1.0
 40
1.0
 40
1.0
 40
1.0
 10
13.0793680809
 20
11.1319547751
 30
0.0
 10
13.0792628542
 20
11.1316150106
 30
0.0
 10
13.0791249093
 20
11.1308985305
 30
0.0
 10
13.0791617889
 20
11.1293728298
 30
0.0
 10
13.079533184
 20
11.1282397719
 30
0.0
 10
13.0798833963
 20
11.1275261143
 30
0.0
  0
SPLINE
  5
29E
100
AcDbEntity
  8
0
100
AcDbSpline
 62
7
  6
CONTINUOUS
 70
0
 71
3
 72
13
 73
9
 74
0
 42
0.0000001
 43
0.0000001
 44
0.0000000001
 40
0.0
 40
0.0
 40
0.0
 40
0.0
 40
0.0997937241
 40
0.2030637009
 40
0.3128485003
 40
0.4312436007
 40
0.6971827119
 40
1.0
 40
1.0
 40
1.0
 40
1.0
 10
14.0476333746
 20
14.2652624136
 30
0.0
 10
14.0477477359
 20
14.2656316726
 30
0.0
 10
14.0480715386
 20
14.266357778
 30
0.0
 10
14.0488082309
 20
14.2673315537
 30
0.0
 10
14.0497832207
 20
14.2681793161
 30
0.0
 10
14.051433905
 20
14.2691645546
 30
0.0
 10
14.0540066159
 20
14.2699704417
 30
0.0
 10
14.0562159785
 20
14.2701579023
 30
0.0
 10
14.0573889768
 20
14.2701579023
 30
0.0
  0
SPLINE
  5
29F
100
AcDbEntity
  8
LAYER_FEATURE
100
AcDbSpline
 62
7
  6
CONTINUOUS
 70
0
 71
3
 72
14
 73
10
 74
0
 42
0.0000001
 43
0.0000001
 44
0.0000000001
 40
0.0
 40
0.0
 40
0.0
 40
0.0
 40
0.1556050847
 40
0.3032541786
 40
0.5688600604
 40
0.6871706752
 40
0.7968948601
 40
0.9001741636
 40
1.0
 40
1.0
 40
1.0
 40
1.0
 10
16.877727287
 20
10.7514520835
 30
0.0
 10
16.8787657786
 20
10.7514520835
 30
0.0
 10
16.8807920537
 20
10.7515429648
 30
0.0
 10
16.8845513748
 20
10.7520852301
 30
0.0
 10
16.8879831318
 20
10.7531640984
 30
0.0
 10
16.8908252004
 20
10.7548575485
 30
0.0
 10
16.8925030089
 20
10.7563190596
 30
0.0
 10
16.8937748453
 20
10.7579945301
 30
0.0
 10
16.8943319116
 20
10.7592466269
 30
0.0
 10
16.8945278621
 20
10.7598833856
 30
0.0
  0
SPLINE
  5
2A0
100
AcDbEntity
  8
LAYER_FEATURE
100
AcDbSpline
 62
7
  6
CONTINUOUS
 70
0
 71
3
 72
15
 73
11
 74
0
 42
0.0000001
 43
0.0000001
 44
0.0000000001
 40
0.0
 40
0.0
 40
0.0
 40
0.0
 40
0.1084962034
 40
0.2259479952
 40
0.3504350864
 40
0.4798877034
 40
0.6120571673
 40
0.7445383984
 40
0.8748116177
 40
1.0
 40
1.0
 40
1.0
 40
1.0
 10
16.529664118
 20
10.7640699159
 30
0.0
 10
16.5304171624
 20
10.7631467639
 30
0.0
 10
16.5321455612
 20
10.7613525315
 30
0.0
 10
16.5351588145
 20
10.7589454602
 30
0.0
 10
16.5386261695
 20
10.7567828382
 30
0.0
 10
16.5424430218
 20
10.7549210082
 30
0.0
 10
16.5465067458
 20
10.7534139523
 30
0.0
 10
16.5507048127
 20
10.7522998272
 30
0.0
 10
16.5549162779
 20
10.7516174731
 30
0.0
 10
16.5577229938
 20
10.7514520835
 30
0.0
 10
16.5590976192
 20
10.7514520835
 30
0.0
  0
SPLINE
  5
2A1
100
AcDbEntity
  8
LAYER_FEATURE
100
AcDbSpline
 62
7
  6
CONTINUOUS
 70
0
 71
3
 72
14
 73
10
 74
0
 42
0.0000001
 43
0.0000001
 44
0.0000000001
 40
0.0
 40
0.0
 40
0.0
 40
0.0
 40
0.1556050847
 40
0.3032541786
 40
0.5688600604
 40
0.6871706752
 40
0.7968948601
 40
0.9001741636
 40
1.0
 40
1.0
 40
1.0
 40
1.0
 10
16.2440373231
 20
10.7514520835
 30
0.0
 10
16.2450758147
 20
10.7514520835
 30
0.0
 10
16.2471020898
 20
10.7515429648
 30
0.0
 10
16.2508614109
 20
10.7520852301
 30
0.0
 10
16.2542931679
 20
10.7531640984
 30
0.0
 10
16.2571352365
 20
10.7548575485
 30
0.0
 10
16.258813045
 20
10.7563190596
 30
0.0
 10
16.2600848814
 20
10.7579945301
 30
0.0
 10
16.2606419478
 20
10.7592466269
 30
0.0
 10
16.2608378983
 20
10.7598833856
 30
0.0
  0
SPLINE
  5
2A2
100
AcDbEntity
  8
LAYER_FEATURE
100
AcDbSpline
 62
7
  6
CONTINUOUS
 70
0
 71
3
 72
15
 73
11
 74
0
 42
0.0000001
 43
0.0000001
 44
0.0000000001
 40
0.0
 40
0.0
 40
0.0
 40
0.0
 40
0.1084962034
 40
0.2259479952
 40
0.3504350864
 40
0.4798877034
 40
0.6120571673
 40
0.7445383984
 40
0.8748116177
 40
1.0
 40
1.0
 40
1.0
 40
1.0
 10
15.8959741541
 20
10.7640699159
 30
0.0
 10
15.8967271985
 20
10.7631467639
 30
0.0
 10
15.8984555974
 20
10.7613525315
 30
0.0
 10
15.9014688506
 20
10.7589454602
 30
0.0
 10
15.9049362056
 20
10.7567828382
 30
0.0
 10
15.908753058
 20
10.7549210082
 30
0.0
 10
15.9128167819
 20
10.7534139523
 30
0.0
 10
15.9170148489
 20
10.7522998272
 30
0.0
 10
15.921226314
 20
10.7516174731
 30
0.0
 10
15.9240330299
 20
10.7514520835
 30
0.0
 10
15.9254076554
 20
10.7514520835
 30
0.0
  0
SPLINE
  5
2A3
100
AcDbEntity
  8
LAYER_FEATURE
100
AcDbSpline
 62
7
  6
CONTINUOUS
 70
0
 71
3
 72
14
 73
10
 74
0
 42
0.0000001
 43
0.0000001
 44
0.0000000001
 40
0.0
 40
0.0
 40
0.0
 40
0.0
 40
0.1556050847
 40
0.3032541786
 40
0.5688600604
 40
0.6871706752
 40
0.7968948601
 40
0.9001741636
 40
1.0
 40
1.0
 40
1.0
 40
1.0
 10
15.6103473592
 20
10.7514520835
 30
0.0
 10
15.6113858509
 20
10.7514520835
 30
0.0
 10
15.6134121259
 20
10.7515429648
 30
0.0
 10
15.617171447
 20
10.7520852301
 30
0.0
 10
15.6206032041
 20
10.7531640984
 30
0.0
 10
15.6234452726
 20
10.7548575485
 30
0.0
 10
15.6251230812
 20
10.7563190596
 30
0.0
 10
15.6263949175
 20
10.7579945301
 30
0.0
 10
15.6269519839
 20
10.7592466269
 30
0.0
 10
15.6271479344
 20
10.7598833856
 30
0.0
  0
SPLINE
  5
2A4
100
AcDbEntity
  8
LAYER_FEATURE
100
AcDbSpline
 62
7
  6
CONTINUOUS
 70
0
 71
3
 72
15
 73
11
 74
0
 42
0.0000001
 43
0.0000001
 44
0.0000000001
 40
0.0
 40
0.0
 40
0.0
 40
0.0
 40
0.1084962034
 40
0.2259479952
 40
0.3504350864
 40
0.4798877034
 40
0.6120571673
 40
0.7445383984
 40
0.8748116177
 40
1.0
 40
1.0
 40
1.0
 40
1.0
 10
15.2622841902
 20
10.7640699159
 30
0.0
 10
15.2630372347
 20
10.7631467639
 30
0.0
 10
15.2647656335
 20
10.7613525315
 30
0.0
 10
15.2677788867
 20
10.7589454602
 30
0.0
 10
15.2712462418
 20
10.7567828382
 30
0.0
 10
15.2750630941
 20
10.7549210082
 30
0.0
 10
15.2791268181
 20
10.7534139523
 30
0.0
 10
15.283324885
 20
10.7522998272
 30
0.0
 10
15.2875363502
 20
10.7516174731
 30
0.0
 10
15.290343066
 20
10.7514520835
 30
0.0
 10
15.2917176915
 20
10.7514520835
 30
0.0
  0
SPLINE
  5
2A5
100
AcDbEntity
  8
LAYER_FEATURE
100
AcDbSpline
 62
7
  6
CONTINUOUS
 70
0
 71
3
 72
14
 73
10
 74
0
 42
0.0000001
 43
0.0000001
 44
0.0000000001
 40
0.0
 40
0.0
 40
0.0
 40
0.0
 40
0.1556050847
 40
0.3032541786
 40
0.5688600604
 40
0.6871706752
 40
0.7968948601
 40
0.9001741636
 40
1.0
 40
1.0
 40
1.0
 40
1.0
 10
14.9766573953
 20
10.7514520835
 30
0.0
 10
14.977695887
 20
10.7514520835
 30
0.0
 10
14.9797221621
 20
10.7515429648
 30
0.0
 10
14.9834814832
 20
10.7520852301
 30
0.0
 10
14.9869132402
 20
10.7531640984
 30
0.0
 10
14.9897553087
 20
10.7548575485
 30
0.0
 10
14.9914331173
 20
10.7563190596
 30
0.0
 10
14.9927049536
 20
10.7579945301
 30
0.0
 10
14.99326202
 20
10.7592466269
 30
0.0
 10
14.9934579705
 20
10.7598833856
 30
0.0
  0
SPLINE
  5
2A6
100
AcDbEntity
  8
LAYER_FEATURE
100
AcDbSpline
 62
7
  6
CONTINUOUS
 70
0
 71
3
 72
15
 73
11
 74
0
 42
0.0000001
 43
0.0000001
 44
0.0000000001
 40
0.0
 40
0.0
 40
0.0
 40
0.0
 40
0.1084962034
 40
0.2259479952
 40
0.3504350864
 40
0.4798877034
 40
0.6120571673
 40
0.7445383984
 40
0.8748116177
 40
1.0
 40
1.0
 40
1.0
 40
1.0
 10
14.6285942263
 20
10.7640699159
 30
0.0
 10
14.6293472708
 20
10.7631467639
 30
0.0
 10
14.6310756696
 20
10.7613525315
 30
0.0
 10
14.6340889229
 20
10.7589454602
 30
0.0
 10
14.6375562779
 20
10.7567828382
 30
0.0
 10
14.6413731302
 20
10.7549210082
 30
0.0
 10
14.6454368542
 20
10.7534139523
 30
0.0
 10
14.6496349211
 20
10.7522998272
 30
0.0
 10
14.6538463863
 20
10.7516174731
 30
0.0
 10
14.6566531022
 20
10.7514520835
 30
0.0
 10
14.6580277276
 20
10.7514520835
 30
0.0
  0
SPLINE
  5
2A7
100
AcDbEntity
  8
LAYER_FEATURE
100
AcDbSpline
 62
7
  6
CONTINUOUS
 70
0
 71
3
 72
14
 73
10
 74
0
 42
0.0000001
 43
0.0000001
 44
0.0000000001
 40
0.0
 40
0.0
 40
0.0
 40
0.0
 40
0.1556050847
 40
0.3032541786
 40
0.5688600604
 40
0.6871706752
 40
0.7968948601
 40
0.9001741636
 40
1.0
 40
1.0
 40
1.0
 40
1.0
 10
14.3429674315
 20
10.7514520835
 30
0.0
 10
14.3440059231
 20
10.7514520835
 30
0.0
 10
14.3460321982
 20
10.7515429648
 30
0.0
 10
14.3497915193
 20
10.7520852301
 30
0.0
 10
14.3532232763
 20
10.7531640984
 30
0.0
 10
14.3560653449
 20
10.7548575485
 30
0.0
 10
14.3577431534
 20
10.7563190596
 30
0.0
 10
14.3590149898
 20
10.7579945301
 30
0.0
 10
14.3595720561
 20
10.7592466269
 30
0.0
 10
14.3597680066
 20
10.7598833856
 30
0.0
  0
SPLINE
  5
2A8
100
AcDbEntity
  8
LAYER_FEATURE
100
AcDbSpline
 62
7
  6
CONTINUOUS
 70
0
 71
3
 72
15
 73
11
 74
0
 42
0.0000001
 43
0.0000001
 44
0.0000000001
 40
0.0
 40
0.0
 40
0.0
 40
0.0
 40
0.1084962034
 40
0.2259479952
 40
0.3504350864
 40
0.4798877034
 40
0.6120571673
 40
0.7445383984
 40
0.8748116177
 40
1.0
 40
1.0
 40
1.0
 40
1.0
 10
13.9949042625
 20
10.7640699159
 30
0.0
 10
13.9956573069
 20
10.7631467639
 30
0.0
 10
13.9973857057
 20
10.7613525315
 30
0.0
 10
14.000398959
 20
10.7589454602
 30
0.0
 10
14.003866314
 20
10.7567828382
 30
0.0
 10
14.0076831664
 20
10.7549210082
 30
0.0
 10
14.0117468903
 20
10.7534139523
 30
0.0
 10
14.0159449572
 20
10.7522998272
 30
0.0
 10
14.0201564224
 20
10.7516174731
 30
0.0
 10
14.0229631383
 20
10.7514520835
 30
0.0
 10
14.0243377637
 20
10.7514520835
 30
0.0
  0
SPLINE
  5
2A9
100
AcDbEntity
  8
0
100
AcDbSpline
 62
7
  6
CONTINUOUS
 70
0
 71
3
 72
14
 73
10
 74
0
 42
0.0000001
 43
0.0000001
 44
0.0000000001
 40
0.0
 40
0.0
 40
0.0
 40
0.0
 40
0.1556050847
 40
0.3032541786
 40
0.5688600604
 40
0.6871706752
 40
0.7968948601
 40
0.9001741636
 40
1.0
 40
1.0
 40
1.0
 40
1.0
 10
13.7092774676
 20
10.7514520835
 30
0.0
 10
13.7103159592
 20
10.7514520835
 30
0.0
 10
13.7123422343
 20
10.7515429648
 30
0.0
 10
13.7161015554
 20
10.7520852301
 30
0.0
 10
13.7195333124
 20
10.7531640984
 30
0.0
 10
13.722375381
 20
10.7548575485
 30
0.0
 10
13.7240531895
 20
10.7563190596
 30
0.0
 10
13.7253250259
 20
10.7579945301
 30
0.0
 10
13.7258820923
 20
10.7592466269
 30
0.0
 10
13.7260780428
 20
10.7598833856
 30
0.0
  0
SPLINE
  5
2AA
100
AcDbEntity
  8
0
100
AcDbSpline
 62
7
  6
CONTINUOUS
 70
0
 71
3
 72
15
 73
11
 74
0
 42
0.0000001
 43
0.0000001
 44
0.0000000001
 40
0.0
 40
0.0
 40
0.0
 40
0.0
 40
0.1084962034
 40
0.2259479952
 40
0.3504350864
 40
0.4798877034
 40
0.6120571673
 40
0.7445383984
 40
0.8748116177
 40
1.0
 40
1.0
 40
1.0
 40
1.0
 10
13.3612142986
 20
10.7640699159
 30
0.0
 10
13.3619673431
 20
10.7631467639
 30
0.0
 10
13.3636957419
 20
10.7613525315
 30
0.0
 10
13.3667089951
 20
10.7589454602
 30
0.0
 10
13.3701763501
 20
10.7567828382
 30
0.0
 10
13.3739932025
 20
10.7549210082
 30
0.0
 10
13.3780569264
 20
10.7534139523
 30
0.0
 10
13.3822549934
 20
10.7522998272
 30
0.0
 10
13.3864664585
 20
10.7516174731
 30
0.0
 10
13.3892731744
 20
10.7514520835
 30
0.0
 10
13.3906477999
 20
10.7514520835
 30
0.0
  0
SPLINE
  5
2AB
100
AcDbEntity
  8
0
100
AcDbSpline
 62
7
  6
CONTINUOUS
 70
0
 71
3
 72
13
 73
9
 74
0
 42
0.0000001
 43
0.0000001
 44
0.0000000001
 40
0.0
 40
0.0
 40
0.0
 40
0.0
 40
0.3028172881
 40
0.5687563993
 40
0.6871514997
 40
0.7969362991
 40
0.9002062759
 40
1.0
 40
1.0
 40
1.0
 40
1.0
 10
13.0891236832
 20
11.1368502638
 30
0.0
 10
13.0879506849
 20
11.1368502638
 30
0.0
 10
13.0857413222
 20
11.1366628032
 30
0.0
 10
13.0831686114
 20
11.1358569161
 30
0.0
 10
13.0815179271
 20
11.1348716776
 30
0.0
 10
13.0805429372
 20
11.1340239152
 30
0.0
 10
13.079806245
 20
11.1330501395
 30
0.0
 10
13.0794824423
 20
11.1323240341
 30
0.0
 10
13.0793680809
 20
11.1319547751
 30
0.0
  0
SPLINE
  5
2AC
100
AcDbEntity
  8
0
100
AcDbSpline
 62
7
  6
CONTINUOUS
 70
0
 71
3
 72
15
 73
11
 74
0
 42
0.0000001
 43
0.0000001
 44
0.0000000001
 40
0.0
 40
0.0
 40
0.0
 40
0.0
 40
0.1000809237
 40
0.2118614267
 40
0.3338443082
 40
0.4637367472
 40
0.598702095
 40
0.7354811892
 40
0.8705831793
 40
1.0
 40
1.0
 40
1.0
 40
1.0
 10
16.8193910319
 20
11.1275261143
 30
0.0
 10
16.8190749288
 20
11.1281702648
 30
0.0
 10
16.8182350532
 20
11.1294517267
 30
0.0
 10
16.8165770344
 20
11.131191265
 30
0.0
 10
16.8145041501
 20
11.1327873492
 30
0.0
 10
16.8121014099
 20
11.1341861607
 30
0.0
 10
16.8094535756
 20
11.1353336406
 30
0.0
 10
16.8066592225
 20
11.1361916193
 30
0.0
 10
16.8038251537
 20
11.1367200529
 30
0.0
 10
16.8019273443
 20
11.1368502638
 30
0.0
 10
16.800999489
 20
11.1368502638
 30
0.0
  0
ENDSEC
  0
SECTION
  2
OBJECTS
  0
DICTIONARY
  5
C
100
AcDbDictionary
280
0
281
1
  3
ACAD_GROUP
350
D
  3
ACAD_MLINESTYLE
350
17
  3
ACAD_LAYOUT
350
1A
  3
ACAD_PLOTSETTINGS
350
19
  3
ACAD_PLOTSTYLENAME
350
E
  0
DICTIONARY
  5
D
102
{ACAD_REACTORS
330
C
102
}
100
AcDbDictionary
280
0
281
1
  0
ACDBDICTIONARYWDFLT
  5
E
102
{ACAD_REACTORS
330
C
102
}
100
AcDbDictionary
281
1
  3
Normal
350
F
100
AcDbDictionaryWithDefault
340
F
  0
DICTIONARY
  5
17
102
{ACAD_REACTORS
330
C
102
}
100
AcDbDictionary
280
0
281
1
  3
Standard
350
18
  0
DICTIONARY
  5
19
102
{ACAD_REACTORS
330
C
102
}
100
AcDbDictionary
281
1
  0
DICTIONARY
  5
1A
102
{ACAD_REACTORS
330
C
102
}
100
AcDbDictionary
281
1
  3
Model
350
2AD
  3
Layout1
350
2AE
  0
ACDBPLACEHOLDER
  5
F
102
{ACAD_REACTORS
330
E
102
}
  0
MLINESTYLE
  5
18
102
{ACAD_REACTORS
330
17
102
}
100
AcDbMlineStyle
  2
STANDARD
 70
0
  3

 62
256
 51
90.0
 52
90.0
 71
2
 49
0.5
 62
256
  6
BYLAYER
 49
-0.5
 62
256
  6
BYLAYER
  0
LAYOUT
  5
2AD
102
{ACAD_REACTORS
330
1A
102
}
100
AcDbPlotSettings
  1

  2
none_device
  4
ANSI_C_(22.00_x_17.00_Inches)
  6

 40
0.0
 41
0.0
 42
0.0
 43
0.0
 44
558.8
 45
431.8
 46
0.0
 47
0.0
 48
0.0
 49
0.0
140
0.0
141
0.0
142
1.0
143
1.0
 70
1024
 72
0
 73
0
 74
0
  7

 75
0
147
1.0
148
0.0
149
0.0
100
AcDbLayout
  1
Model
 70
0
 71
0
 10
0.0
 20
0.0
 11
22.0
 21
17.0
 12
0.0
 22
0.0
 32
0.0
 14
0.0
 24
0.0
 34
0.0
 15
0.0
 25
0.0
 35
0.0
146
0.0
 13
0.0
 23
0.0
 33
0.0
 16
1.0
 26
0.0
 36
0.0
 17
0.0
 27
1.0
 37
0.0
 76
0
330
21C
345
0
346
0
  0
LAYOUT
  5
2AE
102
{ACAD_REACTORS
330
1A
102
}
100
AcDbPlotSettings
  1

  2
none_device
  4
ANSI_C_(22.00_x_17.00_Inches)
  6

 40
0.0
 41
0.0
 42
0.0
 43
0.0
 44
558.8
 45
431.8
 46
0.0
 47
0.0
 48
0.0
 49
0.0
140
0.0
141
0.0
142
1.0
143
1.0
 70
0
 72
0
 73
0
 74
0
  7

 75
0
147
1.0
148
0.0
149
0.0
100
AcDbLayout
  1
Layout1
 70
0
 71
1
 10
0.0
 20
0.0
 11
22.0
 21
17.0
 12
0.0
 22
0.0
 32
0.0
 14
0.0
 24
0.0
 34
0.0
 15
0.0
 25
0.0
 35
0.0
146
0.0
 13
0.0
 23
0.0
 33
0.0
 16
1.0
 26
0.0
 36
0.0
 17
0.0
 27
1.0
 37
0.0
 76
0
330
21D
345
0
346
0
  0
ENDSEC
  0
EOF