999
DXF file: _cgs_temp_output.dxf
999
Pro/ENGINEER 2015110 by Parametric Technology Corporation
  0
SECTION
  2
HEADER
  9
$ACADVER
  1
AC1021
  9
$DWGCODEPAGE
  3
ANSI_1252
  9
$EXTMAX
 10
22.0
 20
17.0
 30
0.0
  9
$EXTMIN
 10
0.0
 20
0.0
 30
0.0
  9
$LIMMIN
 10
0.0
 20
0.0
  9
$LIMMAX
 10
22.0
 20
17.0
  9
$VIEWCTR
 10
11.0
 20
8.5
  9
$VIEWSIZE
 40
17.0
  9
$CLAYER
  8
0
  9
$LTSCALE
 40
1.21
  9
$CELTYPE
  6
BYLAYER
  9
$DIMSCALE
 40
1.0
  9
$DIMASZ
 40
0.1875
  9
$DIMEXO
 40
0.0625
  9
$DIMDLI
 40
0.836
  9
$DIMEXE
 40
0.125
  9
$DIMCEN
 40
0.198
  9
$DIMLFAC
 40
1.0
  9
$DIMBLK
  1
_CLOSED
  9
$DIMALT
 70
0
  9
$DIMALTF
 40
25.4
  9
$DIMTXT
 40
0.15625
  9
$DIMTOL
 70
0
  9
$DIMLIM
 70
0
  9
$DIMTFAC
 40
1.0
  9
$DIMGAP
 40
0.09
  9
$DIMDSEP
 70
46
  9
$AUNITS
 70
0
  9
$PDMODE
 70
3
  9
$PDSIZE
 40
0.3125
  9
$HANDSEED
  5
2AF
  9
$TILEMODE
 70
1
  9
$MEASUREMENT
 70
0
  9
$INSUNITS
 70
1
  0
ENDSEC
  0
SECTION
  2
CLASSES
  0
CLASS
  1
ACDBDICTIONARYWDFLT
  2
AcDbDictionaryWithDefault
  3
AutoCAD 2000
 90
0
 91
1
280
0
281
0
  0
CLASS
  1
ACDBPLACEHOLDER
  2
AcDbPlaceHolder
  3
AutoCAD 2000
 90
0
 91
1
280
0
281
0
  0
CLASS
  1
LAYOUT
  2
AcDbLayout
  3
AutoCAD 2000
 90
0
 91
0
280
0
281
0
  0
ENDSEC
  0
SECTION
  2
TABLES
  0
TABLE
  2
VPORT
  5
8
100
AcDbSymbolTable
 70
2
  0
VPORT
  5
1F4
100
AcDbSymbolTableRecord
100
AcDbViewportTableRecord
  2
*ACTIVE
 70
0
 10
0.0
 20
0.0
 11
1.0
 21
1.0
 12
11.0
 22
8.5
 13
0.0
 23
0.0
 14
1.0
 24
1.0
 15
0.0
 25
0.0
 16
0.0
 26
0.0
 36
1.0
 17
0.0
 27
0.0
 37
0.0
 40
17.0
 41
1.2941176471
 42
50.0
 43
0.0
 44
0.0
 50
0.0
 51
0.0
 71
0
 72
100
 73
1
 74
1
 75
0
 76
0
 77
0
 78
0
  0
ENDTAB
  0
TABLE
  2
LTYPE
  5
5
100
AcDbSymbolTable
 70
6
  0
LTYPE
  5
14
100
AcDbSymbolTableRecord
100
AcDbLinetypeTableRecord
  2
BYBLOCK
 70
0
  3

 72
65
 73
0
 40
0.0
  0
LTYPE
  5
15
100
AcDbSymbolTableRecord
100
AcDbLinetypeTableRecord
  2
BYLAYER
 70
0
  3

 72
65
 73
0
 40
0.0
  0
LTYPE
  5
16
100
AcDbSymbolTableRecord
100
AcDbLinetypeTableRecord
  2
CONTINUOUS
 70
64
  3
Solid line
 72
65
 73
0
 40
0.0
  0
LTYPE
  5
1F5
100
AcDbSymbolTableRecord
100
AcDbLinetypeTableRecord
  2
CENTER
 70
64
  3
____ _ ____ _ ____ _ ____ _ ____ _ ____ _ ____
 72
65
 73
4
 40
0.6
 49
0.375
 74
0
 49
-0.075
 74
0
 49
0.075
 74
0
 49
-0.075
 74
0
  0
LTYPE
  5
1F6
100
AcDbSymbolTableRecord
100
AcDbLinetypeTableRecord
  2
HIDDEN
 70
64
  3
- - - - - - - - - - - - - - - - - - - -
 72
65
 73
2
 40
0.2
 49
0.1
 74
0
 49
-0.1
 74
0
  0
LTYPE
  5
1F7
100
AcDbSymbolTableRecord
100
AcDbLinetypeTableRecord
  2
PHANTOM
 70
64
  3
_____ _ _ _____ _ _ _____ _ _ _____
 72
65
 73
6
 40
0.8
 49
0.45
 74
0
 49
-0.05
 74
0
 49
0.1
 74
0
 49
-0.05
 74
0
 49
0.1
 74
0
 49
-0.05
 74
0
  0
LTYPE
  5
1F8
100
AcDbSymbolTableRecord
100
AcDbLinetypeTableRecord
  2
DOT
 70
64
  3
. . . . . . . . . . . . . . . . . . . .
 72
65
 73
2
 40
0.2
 49
0.1
 74
0
 49
-0.1
 74
0
  0
LTYPE
  5
1F9
100
AcDbSymbolTableRecord
100
AcDbLinetypeTableRecord
  2
DASHED
 70
64
  3
- - - - - - - - - - - - - - - - - - - -
 72
65
 73
2
 40
0.2
 49
0.1
 74
0
 49
-0.1
 74
0
  0
ENDTAB
  0
TABLE
  2
LAYER
  5
2
100
AcDbSymbolTable
 70
36
  0
LAYER
  5
10
100
AcDbSymbolTableRecord
100
AcDbLayerTableRecord
  2
0
 70
0
 62
7
  6
CONTINUOUS
370
-3
390
F
  0
LAYER
  5
1FA
100
AcDbSymbolTableRecord
100
AcDbLayerTableRecord
  2
DEFAULT_1
 70
0
 62
7
  6
CENTER
370
-3
390
F
  0
LAYER
  5
1FB
100
AcDbSymbolTableRecord
100
AcDbLayerTableRecord
  2
DEFAULT_2
 70
0
 62
8
  6
HIDDEN
370
-3
390
F
  0
LAYER
  5
1FC
100
AcDbSymbolTableRecord
100
AcDbLayerTableRecord
  2
DEFAULT_3
 70
0
 62
7
  6
PHANTOM
370
-3
390
F
  0
LAYER
  5
1FD
100
AcDbSymbolTableRecord
100
AcDbLayerTableRecord
  2
01_ALL_DTM_PLN
 70
0
 62
7
  6
CONTINUOUS
370
-3
390
F
  0
LAYER
  5
1FE
100
AcDbSymbolTableRecord
100
AcDbLayerTableRecord
  2
01__ASM_ALL_DTM_PLN
 70
0
 62
7
  6
CONTINUOUS
370
-3
390
F
  0
LAYER
  5
1FF
100
AcDbSymbolTableRecord
100
AcDbLayerTableRecord
  2
01__ASM_DEF_DTM_PLN
 70
0
 62
7
  6
CONTINUOUS
370
-3
390
F
  0
LAYER
  5
200
100
AcDbSymbolTableRecord
100
AcDbLayerTableRecord
  2
01___PRT_ALL_DTM_PLN
 70
0
 62
7
  6
CONTINUOUS
370
-3
390
F
  0
LAYER
  5
201
100
AcDbSymbolTableRecord
100
AcDbLayerTableRecord
  2
01___PRT_DEF_DTM_PLN
 70
0
 62
7
  6
CONTINUOUS
370
-3
390
F
  0
LAYER
  5
202
100
AcDbSymbolTableRecord
100
AcDbLayerTableRecord
  2
02_ALL_AXES
 70
0
 62
7
  6
CONTINUOUS
370
-3
390
F
  0
LAYER
  5
203
100
AcDbSymbolTableRecord
100
AcDbLayerTableRecord
  2
02__ASM_ALL_AXES
 70
0
 62
7
  6
CONTINUOUS
370
-3
390
F
  0
LAYER
  5
204
100
AcDbSymbolTableRecord
100
AcDbLayerTableRecord
  2
02___PRT_ALL_AXES
 70
0
 62
7
  6
CONTINUOUS
370
-3
390
F
  0
LAYER
  5
205
100
AcDbSymbolTableRecord
100
AcDbLayerTableRecord
  2
03_ALL_CURVES
 70
0
 62
7
  6
CONTINUOUS
370
-3
390
F
  0
LAYER
  5
206
100
AcDbSymbolTableRecord
100
AcDbLayerTableRecord
  2
03__ASM_ALL_CURVES
 70
0
 62
7
  6
CONTINUOUS
370
-3
390
F
  0
LAYER
  5
207
100
AcDbSymbolTableRecord
100
AcDbLayerTableRecord
  2
03___PRT_ALL_CURVES
 70
0
 62
7
  6
CONTINUOUS
370
-3
390
F
  0
LAYER
  5
208
100
AcDbSymbolTableRecord
100
AcDbLayerTableRecord
  2
04_ALL_DTM_PNT
 70
0
 62
7
  6
CONTINUOUS
370
-3
390
F
  0
LAYER
  5
209
100
AcDbSymbolTableRecord
100
AcDbLayerTableRecord
  2
04__ASM_ALL_DTM_PNT
 70
0
 62
7
  6
CONTINUOUS
370
-3
390
F
  0
LAYER
  5
20A
100
AcDbSymbolTableRecord
100
AcDbLayerTableRecord
  2
04___PRT_ALL_DTM_PNT
 70
0
 62
7
  6
CONTINUOUS
370
-3
390
F
  0
LAYER
  5
20B
100
AcDbSymbolTableRecord
100
AcDbLayerTableRecord
  2
05_ALL_DTM_CSYS
 70
0
 62
7
  6
CONTINUOUS
370
-3
390
F
  0
LAYER
  5
20C
100
AcDbSymbolTableRecord
100
AcDbLayerTableRecord
  2
05__ASM_ALL_DTM_CSYS
 70
0
 62
7
  6
CONTINUOUS
370
-3
390
F
  0
LAYER
  5
20D
100
AcDbSymbolTableRecord
100
AcDbLayerTableRecord
  2
05__ASM_DEF_DTM_CSYS
 70
0
 62
7
  6
CONTINUOUS
370
-3
390
F
  0
LAYER
  5
20E
100
AcDbSymbolTableRecord
100
AcDbLayerTableRecord
  2
05___PRT_ALL_DTM_CSYS
 70
0
 62
7
  6
CONTINUOUS
370
-3
390
F
  0
LAYER
  5
20F
100
AcDbSymbolTableRecord
100
AcDbLayerTableRecord
  2
05___PRT_DEF_DTM_CSYS
 70
0
 62
7
  6
CONTINUOUS
370
-3
390
F
  0
LAYER
  5
210
100
AcDbSymbolTableRecord
100
AcDbLayerTableRecord
  2
06_ALL_SURFS
 70
0
 62
7
  6
CONTINUOUS
370
-3
390
F
  0
LAYER
  5
211
100
AcDbSymbolTableRecord
100
AcDbLayerTableRecord
  2
06__ASM_ALL_SURFS
 70
0
 62
7
  6
CONTINUOUS
370
-3
390
F
  0
LAYER
  5
212
100
AcDbSymbolTableRecord
100
AcDbLayerTableRecord
  2
06___PRT_ALL_SURFS
 70
0
 62
7
  6
CONTINUOUS
370
-3
390
F
  0
LAYER
  5
213
100
AcDbSymbolTableRecord
100
AcDbLayerTableRecord
  2
07__ASM_ALL_SKELETONS
 70
0
 62
7
  6
CONTINUOUS
370
-3
390
F
  0
LAYER
  5
214
100
AcDbSymbolTableRecord
100
AcDbLayerTableRecord
  2
LAYER_DIM
 70
0
 62
7
  6
CONTINUOUS
370
-3
390
F
  0
LAYER
  5
215
100
AcDbSymbolTableRecord
100
AcDbLayerTableRecord
  2
LAYER_FEATURE
 70
0
 62
7
  6
CONTINUOUS
370
-3
390
F
  0
LAYER
  5
216
100
AcDbSymbolTableRecord
100
AcDbLayerTableRecord
  2
LAYER_GEOM_FEAT
 70
0
 62
7
  6
CONTINUOUS
370
-3
390
F
  0
LAYER
  5
217
100
AcDbSymbolTableRecord
100
AcDbLayerTableRecord
  2
LAYER_PARAMETER_DIM
 70
0
 62
7
  6
CONTINUOUS
370
-3
390
F
  0
LAYER
  5
218
100
AcDbSymbolTableRecord
100
AcDbLayerTableRecord
  2
LAYER_PROTRUSION_FEAT
 70
0
 62
7
  6
CONTINUOUS
370
-3
390
F
  0
LAYER
  5
219
100
AcDbSymbolTableRecord
100
AcDbLayerTableRecord
  2
LAYER_ROUND_FEAT
 70
0
 62
7
  6
CONTINUOUS
370
-3
390
F
  0
ENDTAB
  0
TABLE
  2
STYLE
  5
3
100
AcDbSymbolTable
 70
1
  0
STYLE
  5
11
100
AcDbSymbolTableRecord
100
AcDbTextStyleTableRecord
  2
STANDARD
 70
0
 40
0.0
 41
0.8
 50
0.0
 71
0
 42
0.2
  3
txt
  4

  0
STYLE
  5
21A
100
AcDbSymbolTableRecord
100
AcDbTextStyleTableRecord
  2
TEXTSTYLE_1
 70
0
 40
0.0
 41
0.8
 50
0.0
 71
0
 42
0.2
  3
gdt
  4

  0
ENDTAB
  0
TABLE
  2
VIEW
  5
6
100
AcDbSymbolTable
 70
0
  0
ENDTAB
  0
TABLE
  2
UCS
  5
7
100
AcDbSymbolTable
 70
0
  0
ENDTAB
  0
TABLE
  2
APPID
  5
9
100
AcDbSymbolTable
 70
1
  0
APPID
  5
21B
100
AcDbSymbolTableRecord
100
AcDbRegAppTableRecord
  2
ACAD
 70
0
  0
ENDTAB
  0
TABLE
  2
BLOCK_RECORD
  5
1
100
AcDbSymbolTable
 70
0
  0
BLOCK_RECORD
  5
21C
100
AcDbSymbolTableRecord
100
AcDbBlockTableRecord
  2
*Model_Space
  0
BLOCK_RECORD
  5
21D
100
AcDbSymbolTableRecord
100
AcDbBlockTableRecord
  2
*Paper_Space
  0
ENDTAB
  0
TABLE
  2
DIMSTYLE
  5
A
100
AcDbSymbolTable
 70
1
100
AcDbDimStyleTable
 71
0
  0
DIMSTYLE
105
21E
100
AcDbSymbolTableRecord
100
AcDbDimStyleTableRecord
  2
STANDARD
 70
0
  3

  4

 40
1.0
 41
0.1875
 42
0.0625
 43
0.38
 44
0.125
 45
0.0
 46
0.0
 47
0.0001
 48
0.0001
140
0.15625
141
0.09
142
0.0
143
25.4
144
1.0
145
0.0
146
1.0
147
0.09
 71
0.0
 72
0.0
 73
1
 74
1
 75
0
 76
0
 77
0
 78
4
170
0
171
2
172
0
173
0
174
0
175
0
176
0
177
0
178
0
270
2
271
4
272
4
273
2
274
2
275
0
280
0
281
0
282
0
283
1
284
4
285
0
286
0
287
3
288
0
340
11
278
46
  0
ENDTAB
  0
ENDSEC
  0
SECTION
  2
BLOCKS
  0
BLOCK
  5
20
100
AcDbEntity
  8
0
100
AcDbBlockBegin
  2
*Model_Space
 70
0
 10
0.0
 20
0.0
 30
0.0
  3
*Model_Space
  1

  0
ENDBLK
  5
21
100
AcDbEntity
  8
0
100
AcDbBlockEnd
  0
BLOCK
  5
1C
100
AcDbEntity
  8
0
100
AcDbBlockBegin
  2
*Paper_Space
 70
0
 10
0.0
 20
0.0
 30
0.0
  3
*Paper_Space
  1

  0
ENDBLK
  5
1D
100
AcDbEntity
  8
0
100
AcDbBlockEnd
  0
ENDSEC
  0
SECTION
  2
ENTITIES
  0
MTEXT
  5
21F
100
AcDbEntity
  8
0
100
AcDbMText
 62
7
  6
CONTINUOUS
  7
STANDARD
 71
1
 72
1
 10
15.9560215477
 20
0.9479130325
 30
0.0
 11
1.0
 21
0.0
 31
0.0
 44
0.9
  1
SCALE: 1:1.000
 40
0.3
 41
3.36
  0
LINE
  5
220
100
AcDbEntity
  8
0
100
AcDbLine
 62
7
  6
CONTINUOUS
 10
0.0
 20
0.0
 11
0.0
 21
17.0
  0
LINE
  5
221
100
AcDbEntity
  8
0
100
AcDbLine
 62
7
  6
CONTINUOUS
 10
0.0
 20
0.0
 11
22.0
 21
0.0
  0
LINE
  5
222
100
AcDbEntity
  8
0
100
AcDbLine
 62
7
  6
CONTINUOUS
 10
0.0
 20
17.0
 11
22.0
 21
17.0
  0
LINE
  5
223
100
AcDbEntity
  8
0
100
AcDbLine
 62
7
  6
CONTINUOUS
 10
22.0
 20
0.0
 11
22.0
 21
17.0
  0
LINE
  5
224
100
AcDbEntity
  8
0
100
AcDbLine
 62
7
  6
CONTINUOUS
 10
2.8178672762
 20
6.0051198968
 11
2.8178672762
 21
5.9301198968
  0
LINE
  5
225
100
AcDbEntity
  8
0
100
AcDbLine
 62
7
  6
CONTINUOUS
 10
2.8178672762
 20
5.9301198968
 11
2.9985146385
 21
5.0533780317
  0
LINE
  5
226
100
AcDbEntity
  8
0
100
AcDbLine
 62
7
  6
CONTINUOUS
 10
3.8178672762
 20
5.9301198968
 11
3.8178672762
 21
5.9751198968
  0
LINE
  5
227
100
AcDbEntity
  8
0
100
AcDbLine
 62
7
  6
CONTINUOUS
 10
3.6372199139
 20
5.0533780317
 11
3.8178672762
 21
5.9301198968
  0
LINE
  5
228
100
AcDbEntity
  8
LAYER_FEATURE
100
AcDbLine
 62
7
  6
CONTINUOUS
 10
3.9428672762
 20
5.9751198968
 11
3.9428672762
 21
5.9301198968
  0
LINE
  5
229
100
AcDbEntity
  8
LAYER_FEATURE
100
AcDbLine
 62
7
  6
CONTINUOUS
 10
3.9428672762
 20
5.9301198968
 11
4.1235146385
 21
5.0533780317
  0
LINE
  5
22A
100
AcDbEntity
  8
LAYER_FEATURE
100
AcDbLine
 62
7
  6
CONTINUOUS
 10
4.9428672762
 20
5.9301198968
 11
4.9428672762
 21
5.9751198968
  0
LINE
  5
22B
100
AcDbEntity
  8
LAYER_FEATURE
100
AcDbLine
 62
7
  6
CONTINUOUS
 10
4.7622199139
 20
5.0533780317
 11
4.9428672762
 21
5.9301198968
  0
LINE
  5
22C
100
AcDbEntity
  8
LAYER_FEATURE
100
AcDbLine
 62
7
  6
CONTINUOUS
 10
5.0678672762
 20
5.9751198968
 11
5.0678672762
 21
5.9301198968
  0
LINE
  5
22D
100
AcDbEntity
  8
LAYER_FEATURE
100
AcDbLine
 62
7
  6
CONTINUOUS
 10
5.0678672762
 20
5.9301198968
 11
5.2485146385
 21
5.0533780317
  0
LINE
  5
22E
100
AcDbEntity
  8
0
100
AcDbLine
 62
7
  6
CONTINUOUS
 10
3.0393240455
 20
5.0201198968
 11
3.5964105068
 21
5.0201198968
  0
LINE
  5
22F
100
AcDbEntity
  8
LAYER_FEATURE
100
AcDbLine
 62
7
  6
CONTINUOUS
 10
4.1643240455
 20
5.0201198968
 11
4.7214105068
 21
5.0201198968
  0
LINE
  5
230
100
AcDbEntity
  8
LAYER_FEATURE
100
AcDbLine
 62
7
  6
CONTINUOUS
 10
5.2893240455
 20
5.0201198968
 11
5.8464105068
 21
5.0201198968
  0
LINE
  5
231
100
AcDbEntity
  8
LAYER_FEATURE
100
AcDbLine
 62
7
  6
CONTINUOUS
 10
6.4143240455
 20
5.0201198968
 11
6.9714105068
 21
5.0201198968
  0
LINE
  5
232
100
AcDbEntity
  8
LAYER_FEATURE
100
AcDbLine
 62
7
  6
CONTINUOUS
 10
7.5393240455
 20
5.0201198968
 11
8.0964105068
 21
5.0201198968
  0
LINE
  5
233
100
AcDbEntity
  8
LAYER_FEATURE
100
AcDbLine
 62
7
  6
CONTINUOUS
 10
8.6643240455
 20
5.0201198968
 11
9.2214105068
 21
5.0201198968
  0
LINE
  5
234
100
AcDbEntity
  8
LAYER_FEATURE
100
AcDbLine
 62
7
  6
CONTINUOUS
 10
6.0678672762
 20
5.9301198968
 11
6.0678672762
 21
5.9751198968
  0
LINE
  5
235
100
AcDbEntity
  8
LAYER_FEATURE
100
AcDbLine
 62
7
  6
CONTINUOUS
 10
5.8872199139
 20
5.0533780317
 11
6.0678672762
 21
5.9301198968
  0
LINE
  5
236
100
AcDbEntity
  8
LAYER_FEATURE
100
AcDbLine
 62
7
  6
CONTINUOUS
 10
6.1928672762
 20
5.9751198968
 11
6.1928672762
 21
5.9301198968
  0
LINE
  5
237
100
AcDbEntity
  8
LAYER_FEATURE
100
AcDbLine
 62
7
  6
CONTINUOUS
 10
6.1928672762
 20
5.9301198968
 11
6.3735146385
 21
5.0533780317
  0
LINE
  5
238
100
AcDbEntity
  8
LAYER_FEATURE
100
AcDbLine
 62
7
  6
CONTINUOUS
 10
3.8178672762
 20
5.9751198968
 11
3.9428672762
 21
5.9751198968
  0
LINE
  5
239
100
AcDbEntity
  8
LAYER_FEATURE
100
AcDbLine
 62
7
  6
CONTINUOUS
 10
4.9428672762
 20
5.9751198968
 11
5.0678672762
 21
5.9751198968
  0
LINE
  5
23A
100
AcDbEntity
  8
LAYER_FEATURE
100
AcDbLine
 62
7
  6
CONTINUOUS
 10
6.0678672762
 20
5.9751198968
 11
6.1928672762
 21
5.9751198968
  0
LINE
  5
23B
100
AcDbEntity
  8
LAYER_FEATURE
100
AcDbLine
 62
7
  6
CONTINUOUS
 10
7.1928672762
 20
5.9751198968
 11
7.3178672762
 21
5.9751198968
  0
LINE
  5
23C
100
AcDbEntity
  8
LAYER_FEATURE
100
AcDbLine
 62
7
  6
CONTINUOUS
 10
8.3178672762
 20
5.9751198968
 11
8.4428672762
 21
5.9751198968
  0
LINE
  5
23D
100
AcDbEntity
  8
0
100
AcDbLine
 62
7
  6
CONTINUOUS
 10
9.4278672762
 20
6.0201198968
 11
2.8328672762
 21
6.0201198968
  0
LINE
  5
23E
100
AcDbEntity
  8
LAYER_FEATURE
100
AcDbLine
 62
7
  6
CONTINUOUS
 10
7.1928672762
 20
5.9301198968
 11
7.1928672762
 21
5.9751198968
  0
LINE
  5
23F
100
AcDbEntity
  8
LAYER_FEATURE
100
AcDbLine
 62
7
  6
CONTINUOUS
 10
7.0122199139
 20
5.0533780317
 11
7.1928672762
 21
5.9301198968
  0
LINE
  5
240
100
AcDbEntity
  8
LAYER_FEATURE
100
AcDbLine
 62
7
  6
CONTINUOUS
 10
7.3178672762
 20
5.9751198968
 11
7.3178672762
 21
5.9301198968
  0
LINE
  5
241
100
AcDbEntity
  8
LAYER_FEATURE
100
AcDbLine
 62
7
  6
CONTINUOUS
 10
7.3178672762
 20
5.9301198968
 11
7.4985146385
 21
5.0533780317
  0
LINE
  5
242
100
AcDbEntity
  8
LAYER_FEATURE
100
AcDbLine
 62
7
  6
CONTINUOUS
 10
8.3178672762
 20
5.9301198968
 11
8.3178672762
 21
5.9751198968
  0
LINE
  5
243
100
AcDbEntity
  8
LAYER_FEATURE
100
AcDbLine
 62
7
  6
CONTINUOUS
 10
8.1372199139
 20
5.0533780317
 11
8.3178672762
 21
5.9301198968
  0
LINE
  5
244
100
AcDbEntity
  8
LAYER_FEATURE
100
AcDbLine
 62
7
  6
CONTINUOUS
 10
8.4428672762
 20
5.9751198968
 11
8.4428672762
 21
5.9301198968
  0
LINE
  5
245
100
AcDbEntity
  8
LAYER_FEATURE
100
AcDbLine
 62
7
  6
CONTINUOUS
 10
8.4428672762
 20
5.9301198968
 11
8.6235146385
 21
5.0533780317
  0
LINE
  5
246
100
AcDbEntity
  8
0
100
AcDbLine
 62
7
  6
CONTINUOUS
 10
9.4428672762
 20
5.9301198968
 11
9.4428672762
 21
6.0051198968
  0
LINE
  5
247
100
AcDbEntity
  8
LAYER_FEATURE
100
AcDbLine
 62
7
  6
CONTINUOUS
 10
9.2622199139
 20
5.0533780317
 11
9.4428672762
 21
5.9301198968
  0
LINE
  5
248
100
AcDbEntity
  8
0
100
AcDbLine
 62
7
  6
CONTINUOUS
 10
2.7583720839
 20
14.6000477814
 11
2.7583720839
 21
10.6000477814
  0
LINE
  5
249
100
AcDbEntity
  8
0
100
AcDbLine
 62
7
  6
CONTINUOUS
 10
9.3833720839
 20
10.6000477814
 11
2.7583720839
 21
10.6000477814
  0
LINE
  5
24A
100
AcDbEntity
  8
0
100
AcDbLine
 62
7
  6
CONTINUOUS
 10
2.7583720839
 20
14.6000477814
 11
9.3833720839
 21
14.6000477814
  0
LINE
  5
24B
100
AcDbEntity
  8
0
100
AcDbLine
 62
7
  6
CONTINUOUS
 10
9.3833720839
 20
10.6000477814
 11
9.3833720839
 21
14.6000477814
  0
LINE
  5
24C
100
AcDbEntity
  8
LAYER_FEATURE
100
AcDbLine
 62
7
  6
CONTINUOUS
 10
13.5603552569
 20
4.9606247044
 11
13.5603552569
 21
5.8706247044
  0
LINE
  5
24D
100
AcDbEntity
  8
0
100
AcDbLine
 62
7
  6
CONTINUOUS
 10
13.5603552569
 20
5.8706247044
 11
13.5603552569
 21
5.9606247044
  0
LINE
  5
24E
100
AcDbEntity
  8
LAYER_FEATURE
100
AcDbLine
 62
7
  6
CONTINUOUS
 10
13.5603552569
 20
4.9606247044
 11
17.5603552569
 21
4.9606247044
  0
LINE
  5
24F
100
AcDbEntity
  8
LAYER_FEATURE
100
AcDbLine
 62
7
  6
CONTINUOUS
 10
17.5603552569
 20
5.8706247044
 11
13.5603552569
 21
5.8706247044
  0
LINE
  5
250
100
AcDbEntity
  8
0
100
AcDbLine
 62
7
  6
CONTINUOUS
 10
13.5603552569
 20
5.9606247044
 11
17.5603552569
 21
5.9606247044
  0
LINE
  5
251
100
AcDbEntity
  8
0
100
AcDbLine
 62
7
  6
CONTINUOUS
 10
17.5603552569
 20
5.9606247044
 11
17.5603552569
 21
5.8706247044
  0
LINE
  5
252
100
AcDbEntity
  8
LAYER_FEATURE
100
AcDbLine
 62
7
  6
CONTINUOUS
 10
17.5603552569
 20
4.9606247044
 11
17.5603552569
 21
5.8706247044
  0
LINE
  5
253
100
AcDbEntity
  8
0
100
AcDbLine
 62
7
  6
CONTINUOUS
 10
11.8743487433
 20
11.2456320083
 11
11.8972268833
 21
11.1990112606
  0
LINE
  5
254
100
AcDbEntity
  8
0
100
AcDbLine
 62
7
  6
CONTINUOUS
 10
11.8972268833
 20
11.1990112606
 11
12.3310570975
 21
10.6540197778
  0
LINE
  5
255
100
AcDbEntity
  8
0
100
AcDbLine
 62
7
  6
CONTINUOUS
 10
12.8420986392
 20
14.3833683573
 11
11.8738333456
 21
11.2500607188
  0
LINE
  5
256
100
AcDbEntity
  8
0
100
AcDbLine
 62
7
  6
CONTINUOUS
 10
12.8182878773
 20
11.1990112606
 11
12.8045609933
 21
11.2269837092
  0
LINE
  5
257
100
AcDbEntity
  8
LAYER_FEATURE
100
AcDbLine
 62
7
  6
CONTINUOUS
 10
12.9334205016
 20
11.1990112606
 11
13.3672507157
 21
10.6540197778
  0
LINE
  5
258
100
AcDbEntity
  8
LAYER_FEATURE
100
AcDbLine
 62
7
  6
CONTINUOUS
 10
12.9196936176
 20
11.2269837092
 11
12.9334205016
 21
11.1990112606
  0
LINE
  5
259
100
AcDbEntity
  8
0
100
AcDbLine
 62
7
  6
CONTINUOUS
 10
12.9193436133
 20
10.6540197778
 11
12.8182878773
 21
11.1990112606
  0
LINE
  5
25A
100
AcDbEntity
  8
0
100
AcDbLine
 62
7
  6
CONTINUOUS
 10
12.9189976908
 20
10.6469453137
 11
12.9193436133
 21
10.6540197778
  0
LINE
  5
25B
100
AcDbEntity
  8
0
100
AcDbLine
 62
7
  6
CONTINUOUS
 10
12.8269320177
 20
11.2269837092
 11
12.8182878773
 21
11.1990112606
  0
LINE
  5
25C
100
AcDbEntity
  8
0
100
AcDbLine
 62
7
  6
CONTINUOUS
 10
12.9210256653
 20
10.6534999844
 11
13.045926137
 21
11.0576780591
  0
LINE
  5
25D
100
AcDbEntity
  8
0
100
AcDbLine
 62
7
  6
CONTINUOUS
 10
12.3787901741
 20
10.6333461895
 11
12.8919007838
 21
10.6333461895
  0
LINE
  5
25E
100
AcDbEntity
  8
LAYER_FEATURE
100
AcDbLine
 62
7
  6
CONTINUOUS
 10
13.4149837923
 20
10.6333461895
 11
13.9280944021
 21
10.6333461895
  0
LINE
  5
25F
100
AcDbEntity
  8
LAYER_FEATURE
100
AcDbLine
 62
7
  6
CONTINUOUS
 10
14.4511774106
 20
10.6333461895
 11
14.9642880203
 21
10.6333461895
  0
LINE
  5
260
100
AcDbEntity
  8
LAYER_FEATURE
100
AcDbLine
 62
7
  6
CONTINUOUS
 10
15.4873710289
 20
10.6333461895
 11
16.0004816386
 21
10.6333461895
  0
LINE
  5
261
100
AcDbEntity
  8
LAYER_FEATURE
100
AcDbLine
 62
7
  6
CONTINUOUS
 10
16.5235646471
 20
10.6333461895
 11
17.0366752569
 21
10.6333461895
  0
LINE
  5
262
100
AcDbEntity
  8
LAYER_FEATURE
100
AcDbLine
 62
7
  6
CONTINUOUS
 10
17.5597582654
 20
10.6333461895
 11
18.0728688751
 21
10.6333461895
  0
LINE
  5
263
100
AcDbEntity
  8
LAYER_FEATURE
100
AcDbLine
 62
7
  6
CONTINUOUS
 10
13.9696141198
 20
11.1990112606
 11
14.403444334
 21
10.6540197778
  0
LINE
  5
264
100
AcDbEntity
  8
LAYER_FEATURE
100
AcDbLine
 62
7
  6
CONTINUOUS
 10
13.8544814956
 20
11.1990112606
 11
13.8407546116
 21
11.2269837092
  0
LINE
  5
265
100
AcDbEntity
  8
LAYER_FEATURE
100
AcDbLine
 62
7
  6
CONTINUOUS
 10
13.9558872358
 20
11.2269837092
 11
13.9696141198
 21
11.1990112606
  0
LINE
  5
266
100
AcDbEntity
  8
LAYER_FEATURE
100
AcDbLine
 62
7
  6
CONTINUOUS
 10
13.9555372316
 20
10.6540197778
 11
13.8544814956
 21
11.1990112606
  0
LINE
  5
267
100
AcDbEntity
  8
LAYER_FEATURE
100
AcDbLine
 62
7
  6
CONTINUOUS
 10
13.9551913091
 20
10.6469453137
 11
13.9555372316
 21
10.6540197778
  0
LINE
  5
268
100
AcDbEntity
  8
LAYER_FEATURE
100
AcDbLine
 62
7
  6
CONTINUOUS
 10
13.863125636
 20
11.2269837092
 11
13.8544814956
 21
11.1990112606
  0
LINE
  5
269
100
AcDbEntity
  8
LAYER_FEATURE
100
AcDbLine
 62
7
  6
CONTINUOUS
 10
12.8045609933
 20
11.2269837092
 11
12.9196936176
 21
11.2269837092
  0
LINE
  5
26A
100
AcDbEntity
  8
LAYER_FEATURE
100
AcDbLine
 62
7
  6
CONTINUOUS
 10
13.8407546116
 20
11.2269837092
 11
13.9558872358
 21
11.2269837092
  0
LINE
  5
26B
100
AcDbEntity
  8
LAYER_FEATURE
100
AcDbLine
 62
7
  6
CONTINUOUS
 10
14.8769482298
 20
11.2269837092
 11
14.9920808541
 21
11.2269837092
  0
LINE
  5
26C
100
AcDbEntity
  8
LAYER_FEATURE
100
AcDbLine
 62
7
  6
CONTINUOUS
 10
15.9131418481
 20
11.2269837092
 11
16.0282744723
 21
11.2269837092
  0
LINE
  5
26D
100
AcDbEntity
  8
LAYER_FEATURE
100
AcDbLine
 62
7
  6
CONTINUOUS
 10
16.9493354663
 20
11.2269837092
 11
17.0644680906
 21
11.2269837092
  0
LINE
  5
26E
100
AcDbEntity
  8
0
100
AcDbLine
 62
7
  6
CONTINUOUS
 10
17.9579862857
 20
11.2549561578
 11
11.8835890302
 21
11.2549561578
  0
LINE
  5
26F
100
AcDbEntity
  8
LAYER_FEATURE
100
AcDbLine
 62
7
  6
CONTINUOUS
 10
15.0058077381
 20
11.1990112606
 11
15.4396379522
 21
10.6540197778
  0
LINE
  5
270
100
AcDbEntity
  8
LAYER_FEATURE
100
AcDbLine
 62
7
  6
CONTINUOUS
 10
14.8906751138
 20
11.1990112606
 11
14.8769482298
 21
11.2269837092
  0
LINE
  5
271
100
AcDbEntity
  8
LAYER_FEATURE
100
AcDbLine
 62
7
  6
CONTINUOUS
 10
13.9572192836
 20
10.6534999844
 11
14.0821197553
 21
11.0576780591
  0
LINE
  5
272
100
AcDbEntity
  8
LAYER_FEATURE
100
AcDbLine
 62
7
  6
CONTINUOUS
 10
14.9920808541
 20
11.2269837092
 11
15.0058077381
 21
11.1990112606
  0
LINE
  5
273
100
AcDbEntity
  8
LAYER_FEATURE
100
AcDbLine
 62
7
  6
CONTINUOUS
 10
14.9917308498
 20
10.6540197778
 11
14.8906751138
 21
11.1990112606
  0
LINE
  5
274
100
AcDbEntity
  8
LAYER_FEATURE
100
AcDbLine
 62
7
  6
CONTINUOUS
 10
14.9913849273
 20
10.6469453137
 11
14.9917308498
 21
10.6540197778
  0
LINE
  5
275
100
AcDbEntity
  8
LAYER_FEATURE
100
AcDbLine
 62
7
  6
CONTINUOUS
 10
16.0420013563
 20
11.1990112606
 11
16.4758315705
 21
10.6540197778
  0
LINE
  5
276
100
AcDbEntity
  8
LAYER_FEATURE
100
AcDbLine
 62
7
  6
CONTINUOUS
 10
14.8993192542
 20
11.2269837092
 11
14.8906751138
 21
11.1990112606
  0
LINE
  5
277
100
AcDbEntity
  8
LAYER_FEATURE
100
AcDbLine
 62
7
  6
CONTINUOUS
 10
15.9268687321
 20
11.1990112606
 11
15.9131418481
 21
11.2269837092
  0
LINE
  5
278
100
AcDbEntity
  8
LAYER_FEATURE
100
AcDbLine
 62
7
  6
CONTINUOUS
 10
16.0282744723
 20
11.2269837092
 11
16.0420013563
 21
11.1990112606
  0
LINE
  5
279
100
AcDbEntity
  8
LAYER_FEATURE
100
AcDbLine
 62
7
  6
CONTINUOUS
 10
14.9934129018
 20
10.6534999844
 11
15.1183133736
 21
11.0576780591
  0
LINE
  5
27A
100
AcDbEntity
  8
LAYER_FEATURE
100
AcDbLine
 62
7
  6
CONTINUOUS
 10
16.0279244681
 20
10.6540197778
 11
15.9268687321
 21
11.1990112606
  0
LINE
  5
27B
100
AcDbEntity
  8
LAYER_FEATURE
100
AcDbLine
 62
7
  6
CONTINUOUS
 10
17.0781949746
 20
11.1990112606
 11
17.5120251887
 21
10.6540197778
  0
LINE
  5
27C
100
AcDbEntity
  8
LAYER_FEATURE
100
AcDbLine
 62
7
  6
CONTINUOUS
 10
16.0275785456
 20
10.6469453137
 11
16.0279244681
 21
10.6540197778
  0
LINE
  5
27D
100
AcDbEntity
  8
LAYER_FEATURE
100
AcDbLine
 62
7
  6
CONTINUOUS
 10
15.9355128725
 20
11.2269837092
 11
15.9268687321
 21
11.1990112606
  0
LINE
  5
27E
100
AcDbEntity
  8
LAYER_FEATURE
100
AcDbLine
 62
7
  6
CONTINUOUS
 10
16.9630623503
 20
11.1990112606
 11
16.9493354663
 21
11.2269837092
  0
LINE
  5
27F
100
AcDbEntity
  8
LAYER_FEATURE
100
AcDbLine
 62
7
  6
CONTINUOUS
 10
16.0296065201
 20
10.6534999844
 11
16.1545069918
 21
11.0576780591
  0
LINE
  5
280
100
AcDbEntity
  8
LAYER_FEATURE
100
AcDbLine
 62
7
  6
CONTINUOUS
 10
17.0644680906
 20
11.2269837092
 11
17.0781949746
 21
11.1990112606
  0
LINE
  5
281
100
AcDbEntity
  8
LAYER_FEATURE
100
AcDbLine
 62
7
  6
CONTINUOUS
 10
17.0641180863
 20
10.6540197778
 11
16.9630623503
 21
11.1990112606
  0
LINE
  5
282
100
AcDbEntity
  8
LAYER_FEATURE
100
AcDbLine
 62
7
  6
CONTINUOUS
 10
17.0637721638
 20
10.6469453137
 11
17.0641180863
 21
10.6540197778
  0
LINE
  5
283
100
AcDbEntity
  8
LAYER_FEATURE
100
AcDbLine
 62
7
  6
CONTINUOUS
 10
16.9717064907
 20
11.2269837092
 11
16.9630623503
 21
11.1990112606
  0
LINE
  5
284
100
AcDbEntity
  8
0
100
AcDbLine
 62
7
  6
CONTINUOUS
 10
12.8518543239
 20
14.3882637963
 11
18.9262515793
 21
14.3882637963
  0
LINE
  5
285
100
AcDbEntity
  8
0
100
AcDbLine
 62
7
  6
CONTINUOUS
 10
17.9992559686
 20
11.1990112606
 11
17.9763778286
 21
11.2456320083
  0
LINE
  5
286
100
AcDbEntity
  8
LAYER_FEATURE
100
AcDbLine
 62
7
  6
CONTINUOUS
 10
17.0658001383
 20
10.6534999844
 11
17.1907006101
 21
11.0576780591
  0
LINE
  5
287
100
AcDbEntity
  8
LAYER_FEATURE
100
AcDbLine
 62
7
  6
CONTINUOUS
 10
18.1003117046
 20
10.6540197778
 11
17.9992559686
 21
11.1990112606
  0
LINE
  5
288
100
AcDbEntity
  8
LAYER_FEATURE
100
AcDbLine
 62
7
  6
CONTINUOUS
 10
18.0999657821
 20
10.6469453137
 11
18.1003117046
 21
10.6540197778
  0
LINE
  5
289
100
AcDbEntity
  8
LAYER_FEATURE
100
AcDbLine
 62
7
  6
CONTINUOUS
 10
18.9675212622
 20
14.3323188992
 11
17.9992559686
 21
11.1990112606
  0
LINE
  5
28A
100
AcDbEntity
  8
LAYER_FEATURE
100
AcDbLine
 62
7
  6
CONTINUOUS
 10
18.1019937566
 20
10.6534999844
 11
19.0682332928
 21
13.7802522696
  0
LINE
  5
28B
100
AcDbEntity
  8
LAYER_FEATURE
100
AcDbLine
 62
7
  6
CONTINUOUS
 10
19.0685769982
 20
13.7873274163
 11
19.0682310757
 21
13.7802529522
  0
LINE
  5
28C
100
AcDbEntity
  8
0
100
AcDbLine
 62
7
  6
CONTINUOUS
 10
18.9446431222
 20
14.3789396468
 11
18.9675212622
 21
14.3323188992
  0
LINE
  5
28D
100
AcDbEntity
  8
LAYER_FEATURE
100
AcDbLine
 62
7
  6
CONTINUOUS
 10
19.0685769982
 20
13.7873274163
 11
18.9675212622
 21
14.3323188992
  0
ARC
  5
28E
100
AcDbEntity
  8
0
100
AcDbCircle
 62
7
  6
CONTINUOUS
 10
3.0393240455
 20
5.0617865634
 40
0.0416666667
100
AcDbArc
 50
191.6425163769
 51
270.0
  0
ARC
  5
28F
100
AcDbEntity
  8
0
100
AcDbCircle
 62
7
  6
CONTINUOUS
 10
3.5964105068
 20
5.0617865634
 40
0.0416666667
100
AcDbArc
 50
270.0
 51
348.3574836231
  0
ARC
  5
290
100
AcDbEntity
  8
LAYER_FEATURE
100
AcDbCircle
 62
7
  6
CONTINUOUS
 10
4.1643240455
 20
5.0617865634
 40
0.0416666667
100
AcDbArc
 50
191.6425163769
 51
270.0
  0
ARC
  5
291
100
AcDbEntity
  8
LAYER_FEATURE
100
AcDbCircle
 62
7
  6
CONTINUOUS
 10
4.7214105068
 20
5.0617865634
 40
0.0416666667
100
AcDbArc
 50
270.0
 51
348.3574836231
  0
ARC
  5
292
100
AcDbEntity
  8
LAYER_FEATURE
100
AcDbCircle
 62
7
  6
CONTINUOUS
 10
5.2893240455
 20
5.0617865634
 40
0.0416666667
100
AcDbArc
 50
191.6425163769
 51
270.0
  0
ARC
  5
293
100
AcDbEntity
  8
LAYER_FEATURE
100
AcDbCircle
 62
7
  6
CONTINUOUS
 10
5.8464105068
 20
5.0617865634
 40
0.0416666667
100
AcDbArc
 50
270.0
 51
348.3574836231
  0
ARC
  5
294
100
AcDbEntity
  8
LAYER_FEATURE
100
AcDbCircle
 62
7
  6
CONTINUOUS
 10
6.4143240455
 20
5.0617865634
 40
0.0416666667
100
AcDbArc
 50
191.6425163769
 51
270.0
  0
ARC
  5
295
100
AcDbEntity
  8
LAYER_FEATURE
100
AcDbCircle
 62
7
  6
CONTINUOUS
 10
6.9714105068
 20
5.0617865634
 40
0.0416666667
100
AcDbArc
 50
270.0
 51
348.3574836231
  0
ARC
  5
296
100
AcDbEntity
  8
LAYER_FEATURE
100
AcDbCircle
 62
7
  6
CONTINUOUS
 10
7.5393240455
 20
5.0617865634
 40
0.0416666667
100
AcDbArc
 50
191.6425163769
 51
270.0
  0
ARC
  5
297
100
AcDbEntity
  8
LAYER_FEATURE
100
AcDbCircle
 62
7
  6
CONTINUOUS
 10
8.0964105068
 20
5.0617865634
 40
0.0416666667
100
AcDbArc
 50
270.0
 51
348.3574836231
  0
ARC
  5
298
100
AcDbEntity
  8
LAYER_FEATURE
100
AcDbCircle
 62
7
  6
CONTINUOUS
 10
9.2214105068
 20
5.0617865634
 40
0.0416666667
100
AcDbArc
 50
270.0
 51
348.3574836231
  0
ARC
  5
299
100
AcDbEntity
  8
LAYER_FEATURE
100
AcDbCircle
 62
7
  6
CONTINUOUS
 10
8.6643240455
 20
5.0617865634
 40
0.0416666667
100
AcDbArc
 50
191.6425163769
 51
270.0
  0
ARC
  5
29A
100
AcDbEntity
  8
0
100
AcDbCircle
 62
7
  6
CONTINUOUS
 10
2.8328672762
 20
6.0051198968
 40
0.015
100
AcDbArc
 50
90.0
 51
180.0
  0
ARC
  5
29B
100
AcDbEntity
  8
0
100
AcDbCircle
 62
7
  6
CONTINUOUS
 10
9.4278672762
 20
6.0051198968
 40
0.015
100
AcDbArc
 50
0.0
 51
90.0
  0
SPLINE
  5
29C
100
AcDbEntity
  8
0
100
AcDbSpline
 62
7
  6
CONTINUOUS
 70
0
 71
3
 72
15
 73
11
 74
0
 42
0.0000001
 43
0.0000001
 44
0.0000000001
 40
0.0
 40
0.0
 40
0.0
 40
0.0
 40
0.1294165569
 40
0.2645180781
 40
0.4012970774
 40
0.5362628266
 40
0.6661560434
 40
0.78813941
 40
0.8999194788
 40
1.0
 40
1.0
 40
1.0
 40
1.0
 10
18.9262515793
 20
14.3882637963
 30
0.0
 10
18.9271794327
 20
14.3882637963
 30
0.0
 10
18.9290772371
 20
14.3881335881
 30
0.0
 10
18.9319113001
 20
14.3876051547
 30
0.0
 10
18.9347056524
 20
14.3867471781
 30
0.0
 10
18.9373534955
 20
14.3855996977
 30
0.0
 10
18.9397562426
 20
14.3842008743
 30
0.0
 10
18.9418291338
 20
14.3826047901
 30
0.0
 10
18.9434871536
 20
14.3808652551
 30
0.0
 10
18.9443270203
 20
14.3795837947
 30
0.0
 10
18.9446431222
 20
14.3789396468
 30
0.0
  0
SPLINE
  5
29D
100
AcDbEntity
  8
0
100
AcDbSpline
 62
7
  6
CONTINUOUS
 70
0
 71
3
 72
10
 73
6
 74
0
 42
0.0000001
 43
0.0000001
 44
0.0000000001
 40
0.0
 40
0.0
 40
0.0
 40
0.0
 40
0.2343758129
 40
0.4761728829
 40
1.0
 40
1.0
 40
1.0
 40
1.0
 10
11.8738334319
 20
11.2500606669
 30
0.0
 10
11.8737282037
 20
11.2497209018
 30
0.0
 10
11.8735902526
 20
11.2490044226
 30
0.0
 10
11.8736271296
 20
11.2474787207
 30
0.0
 10
11.8739985311
 20
11.2463456657
 30
0.0
 10
11.8743487433
 20
11.2456320083
 30
0.0
  0
SPLINE
  5
29E
100
AcDbEntity
  8
0
100
AcDbSpline
 62
7
  6
CONTINUOUS
 70
0
 71
3
 72
13
 73
9
 74
0
 42
0.0000001
 43
0.0000001
 44
0.0000000001
 40
0.0
 40
0.0
 40
0.0
 40
0.0
 40
0.0997942201
 40
0.2030647278
 40
0.3128498857
 40
0.4312452013
 40
0.6971835619
 40
1.0
 40
1.0
 40
1.0
 40
1.0
 10
12.8420987255
 20
14.3833683054
 30
0.0
 10
12.8422130886
 20
14.3837375659
 30
0.0
 10
12.8425368931
 20
14.3844636744
 30
0.0
 10
12.8432735858
 20
14.3854374566
 30
0.0
 10
12.8442485801
 20
14.3862852211
 30
0.0
 10
12.8458992675
 20
14.3872704527
 30
0.0
 10
12.8484719717
 20
14.3880763404
 30
0.0
 10
12.8506813288
 20
14.3882637963
 30
0.0
 10
12.8518543239
 20
14.3882637963
 30
0.0
  0
SPLINE
  5
29F
100
AcDbEntity
  8
LAYER_FEATURE
100
AcDbSpline
 62
7
  6
CONTINUOUS
 70
0
 71
3
 72
14
 73
10
 74
0
 42
0.0000001
 43
0.0000001
 44
0.0000000001
 40
0.0
 40
0.0
 40
0.0
 40
0.0
 40
0.1555951176
 40
0.3032425063
 40
0.568861809
 40
0.6871783494
 40
0.7969036948
 40
0.900180426
 40
1.0
 40
1.0
 40
1.0
 40
1.0
 10
18.0728688751
 20
10.6333461895
 30
0.0
 10
18.0745437534
 20
10.6333461895
 30
0.0
 10
18.0778118104
 20
10.6334927924
 30
0.0
 10
18.0838752443
 20
10.6343674055
 30
0.0
 10
18.0894105381
 20
10.6361075356
 30
0.0
 10
18.0939947006
 20
10.6388390031
 30
0.0
 10
18.0967009115
 20
10.6411963328
 30
0.0
 10
18.0987518558
 20
10.6438988292
 30
0.0
 10
18.099650836
 20
10.6459180142
 30
0.0
 10
18.0999668441
 20
10.646944986
 30
0.0
  0
SPLINE
  5
2A0
100
AcDbEntity
  8
LAYER_FEATURE
100
AcDbSpline
 62
7
  6
CONTINUOUS
 70
0
 71
3
 72
15
 73
11
 74
0
 42
0.0000001
 43
0.0000001
 44
0.0000000001
 40
0.0
 40
0.0
 40
0.0
 40
0.0
 40
0.1080122596
 40
0.2251567855
 40
0.3495210378
 40
0.4790126986
 40
0.6113446378
 40
0.744061847
 40
0.8745913768
 40
1.0
 40
1.0
 40
1.0
 40
1.0
 10
17.5120251887
 20
10.6540197778
 30
0.0
 10
17.5132258267
 20
10.6525114977
 30
0.0
 10
17.5159968154
 20
10.6495770313
 30
0.0
 10
17.5208530921
 20
10.6456381471
 30
0.0
 10
17.5264638207
 20
10.6420951201
 30
0.0
 10
17.532656475
 20
10.6390417841
 30
0.0
 10
17.5392615822
 20
10.6365685312
 30
0.0
 10
17.5460926309
 20
10.6347389626
 30
0.0
 10
17.5529492805
 20
10.6336180884
 30
0.0
 10
17.5575199673
 20
10.6333461895
 30
0.0
 10
17.5597582654
 20
10.6333461895
 30
0.0
  0
SPLINE
  5
2A1
100
AcDbEntity
  8
LAYER_FEATURE
100
AcDbSpline
 62
7
  6
CONTINUOUS
 70
0
 71
3
 72
14
 73
10
 74
0
 42
0.0000001
 43
0.0000001
 44
0.0000000001
 40
0.0
 40
0.0
 40
0.0
 40
0.0
 40
0.1555951176
 40
0.3032425063
 40
0.568861809
 40
0.6871783494
 40
0.7969036948
 40
0.900180426
 40
1.0
 40
1.0
 40
1.0
 40
1.0
 10
17.0366752569
 20
10.6333461895
 30
0.0
 10
17.0383501351
 20
10.6333461895
 30
0.0
 10
17.0416181922
 20
10.6334927924
 30
0.0
 10
17.047681626
 20
10.6343674055
 30
0.0
 10
17.0532169198
 20
10.6361075356
 30
0.0
 10
17.0578010823
 20
10.6388390031
 30
0.0
 10
17.0605072933
 20
10.6411963328
 30
0.0
 10
17.0625582375
 20
10.6438988292
 30
0.0
 10
17.0634572178
 20
10.6459180142
 30
0.0
 10
17.0637732258
 20
10.646944986
 30
0.0
  0
SPLINE
  5
2A2
100
AcDbEntity
  8
LAYER_FEATURE
100
AcDbSpline
 62
7
  6
CONTINUOUS
 70
0
 71
3
 72
15
 73
11
 74
0
 42
0.0000001
 43
0.0000001
 44
0.0000000001
 40
0.0
 40
0.0
 40
0.0
 40
0.0
 40
0.1080122596
 40
0.2251567855
 40
0.3495210378
 40
0.4790126986
 40
0.6113446378
 40
0.744061847
 40
0.8745913768
 40
1.0
 40
1.0
 40
1.0
 40
1.0
 10
16.4758315705
 20
10.6540197778
 30
0.0
 10
16.4770322084
 20
10.6525114977
 30
0.0
 10
16.4798031972
 20
10.6495770313
 30
0.0
 10
16.4846594738
 20
10.6456381471
 30
0.0
 10
16.4902702025
 20
10.6420951201
 30
0.0
 10
16.4964628567
 20
10.6390417841
 30
0.0
 10
16.5030679639
 20
10.6365685312
 30
0.0
 10
16.5098990127
 20
10.6347389626
 30
0.0
 10
16.5167556622
 20
10.6336180884
 30
0.0
 10
16.5213263491
 20
10.6333461895
 30
0.0
 10
16.5235646471
 20
10.6333461895
 30
0.0
  0
SPLINE
  5
2A3
100
AcDbEntity
  8
LAYER_FEATURE
100
AcDbSpline
 62
7
  6
CONTINUOUS
 70
0
 71
3
 72
14
 73
10
 74
0
 42
0.0000001
 43
0.0000001
 44
0.0000000001
 40
0.0
 40
0.0
 40
0.0
 40
0.0
 40
0.1555951176
 40
0.3032425063
 40
0.568861809
 40
0.6871783494
 40
0.7969036948
 40
0.900180426
 40
1.0
 40
1.0
 40
1.0
 40
1.0
 10
16.0004816386
 20
10.6333461895
 30
0.0
 10
16.0021565169
 20
10.6333461895
 30
0.0
 10
16.0054245739
 20
10.6334927924
 30
0.0
 10
16.0114880078
 20
10.6343674055
 30
0.0
 10
16.0170233016
 20
10.6361075356
 30
0.0
 10
16.0216074641
 20
10.6388390031
 30
0.0
 10
16.024313675
 20
10.6411963328
 30
0.0
 10
16.0263646193
 20
10.6438988292
 30
0.0
 10
16.0272635995
 20
10.6459180142
 30
0.0
 10
16.0275796076
 20
10.646944986
 30
0.0
  0
SPLINE
  5
2A4
100
AcDbEntity
  8
LAYER_FEATURE
100
AcDbSpline
 62
7
  6
CONTINUOUS
 70
0
 71
3
 72
15
 73
11
 74
0
 42
0.0000001
 43
0.0000001
 44
0.0000000001
 40
0.0
 40
0.0
 40
0.0
 40
0.0
 40
0.1080122596
 40
0.2251567855
 40
0.3495210378
 40
0.4790126986
 40
0.6113446378
 40
0.744061847
 40
0.8745913768
 40
1.0
 40
1.0
 40
1.0
 40
1.0
 10
15.4396379522
 20
10.6540197778
 30
0.0
 10
15.4408385902
 20
10.6525114977
 30
0.0
 10
15.4436095789
 20
10.6495770313
 30
0.0
 10
15.4484658555
 20
10.6456381471
 30
0.0
 10
15.4540765842
 20
10.6420951201
 30
0.0
 10
15.4602692385
 20
10.6390417841
 30
0.0
 10
15.4668743456
 20
10.6365685312
 30
0.0
 10
15.4737053944
 20
10.6347389626
 30
0.0
 10
15.4805620439
 20
10.6336180884
 30
0.0
 10
15.4851327308
 20
10.6333461895
 30
0.0
 10
15.4873710289
 20
10.6333461895
 30
0.0
  0
SPLINE
  5
2A5
100
AcDbEntity
  8
LAYER_FEATURE
100
AcDbSpline
 62
7
  6
CONTINUOUS
 70
0
 71
3
 72
14
 73
10
 74
0
 42
0.0000001
 43
0.0000001
 44
0.0000000001
 40
0.0
 40
0.0
 40
0.0
 40
0.0
 40
0.1555951176
 40
0.3032425063
 40
0.568861809
 40
0.6871783494
 40
0.7969036948
 40
0.900180426
 40
1.0
 40
1.0
 40
1.0
 40
1.0
 10
14.9642880203
 20
10.6333461895
 30
0.0
 10
14.9659628986
 20
10.6333461895
 30
0.0
 10
14.9692309556
 20
10.6334927924
 30
0.0
 10
14.9752943895
 20
10.6343674055
 30
0.0
 10
14.9808296833
 20
10.6361075356
 30
0.0
 10
14.9854138458
 20
10.6388390031
 30
0.0
 10
14.9881200568
 20
10.6411963328
 30
0.0
 10
14.990171001
 20
10.6438988292
 30
0.0
 10
14.9910699813
 20
10.6459180142
 30
0.0
 10
14.9913859893
 20
10.646944986
 30
0.0
  0
SPLINE
  5
2A6
100
AcDbEntity
  8
LAYER_FEATURE
100
AcDbSpline
 62
7
  6
CONTINUOUS
 70
0
 71
3
 72
15
 73
11
 74
0
 42
0.0000001
 43
0.0000001
 44
0.0000000001
 40
0.0
 40
0.0
 40
0.0
 40
0.0
 40
0.1080122596
 40
0.2251567855
 40
0.3495210378
 40
0.4790126986
 40
0.6113446378
 40
0.744061847
 40
0.8745913768
 40
1.0
 40
1.0
 40
1.0
 40
1.0
 10
14.403444334
 20
10.6540197778
 30
0.0
 10
14.4046449719
 20
10.6525114977
 30
0.0
 10
14.4074159607
 20
10.6495770313
 30
0.0
 10
14.4122722373
 20
10.6456381471
 30
0.0
 10
14.417882966
 20
10.6420951201
 30
0.0
 10
14.4240756202
 20
10.6390417841
 30
0.0
 10
14.4306807274
 20
10.6365685312
 30
0.0
 10
14.4375117762
 20
10.6347389626
 30
0.0
 10
14.4443684257
 20
10.6336180884
 30
0.0
 10
14.4489391125
 20
10.6333461895
 30
0.0
 10
14.4511774106
 20
10.6333461895
 30
0.0
  0
SPLINE
  5
2A7
100
AcDbEntity
  8
LAYER_FEATURE
100
AcDbSpline
 62
7
  6
CONTINUOUS
 70
0
 71
3
 72
14
 73
10
 74
0
 42
0.0000001
 43
0.0000001
 44
0.0000000001
 40
0.0
 40
0.0
 40
0.0
 40
0.0
 40
0.1555951176
 40
0.3032425063
 40
0.568861809
 40
0.6871783494
 40
0.7969036948
 40
0.900180426
 40
1.0
 40
1.0
 40
1.0
 40
1.0
 10
13.9280944021
 20
10.6333461895
 30
0.0
 10
13.9297692804
 20
10.6333461895
 30
0.0
 10
13.9330373374
 20
10.6334927924
 30
0.0
 10
13.9391007712
 20
10.6343674055
 30
0.0
 10
13.9446360651
 20
10.6361075356
 30
0.0
 10
13.9492202275
 20
10.6388390031
 30
0.0
 10
13.9519264385
 20
10.6411963328
 30
0.0
 10
13.9539773828
 20
10.6438988292
 30
0.0
 10
13.954876363
 20
10.6459180142
 30
0.0
 10
13.9551923711
 20
10.646944986
 30
0.0
  0
SPLINE
  5
2A8
100
AcDbEntity
  8
LAYER_FEATURE
100
AcDbSpline
 62
7
  6
CONTINUOUS
 70
0
 71
3
 72
15
 73
11
 74
0
 42
0.0000001
 43
0.0000001
 44
0.0000000001
 40
0.0
 40
0.0
 40
0.0
 40
0.0
 40
0.1080122596
 40
0.2251567855
 40
0.3495210378
 40
0.4790126986
 40
0.6113446378
 40
0.744061847
 40
0.8745913768
 40
1.0
 40
1.0
 40
1.0
 40
1.0
 10
13.3672507157
 20
10.6540197778
 30
0.0
 10
13.3684513537
 20
10.6525114977
 30
0.0
 10
13.3712223424
 20
10.6495770313
 30
0.0
 10
13.376078619
 20
10.6456381471
 30
0.0
 10
13.3816893477
 20
10.6420951201
 30
0.0
 10
13.3878820019
 20
10.6390417841
 30
0.0
 10
13.3944871091
 20
10.6365685312
 30
0.0
 10
13.4013181579
 20
10.6347389626
 30
0.0
 10
13.4081748074
 20
10.6336180884
 30
0.0
 10
13.4127454943
 20
10.6333461895
 30
0.0
 10
13.4149837923
 20
10.6333461895
 30
0.0
  0
SPLINE
  5
2A9
100
AcDbEntity
  8
0
100
AcDbSpline
 62
7
  6
CONTINUOUS
 70
0
 71
3
 72
14
 73
10
 74
0
 42
0.0000001
 43
0.0000001
 44
0.0000000001
 40
0.0
 40
0.0
 40
0.0
 40
0.0
 40
0.1555951176
 40
0.3032425063
 40
0.568861809
 40
0.6871783494
 40
0.7969036948
 40
0.900180426
 40
1.0
 40
1.0
 40
1.0
 40
1.0
 10
12.8919007838
 20
10.6333461895
 30
0.0
 10
12.8935756621
 20
10.6333461895
 30
0.0
 10
12.8968437191
 20
10.6334927924
 30
0.0
 10
12.902907153
 20
10.6343674055
 30
0.0
 10
12.9084424468
 20
10.6361075356
 30
0.0
 10
12.9130266093
 20
10.6388390031
 30
0.0
 10
12.9157328203
 20
10.6411963328
 30
0.0
 10
12.9177837645
 20
10.6438988292
 30
0.0
 10
12.9186827448
 20
10.6459180142
 30
0.0
 10
12.9189987528
 20
10.646944986
 30
0.0
  0
SPLINE
  5
2AA
100
AcDbEntity
  8
0
100
AcDbSpline
 62
7
  6
CONTINUOUS
 70
0
 71
3
 72
15
 73
11
 74
0
 42
0.0000001
 43
0.0000001
 44
0.0000000001
 40
0.0
 40
0.0
 40
0.0
 40
0.0
 40
0.1080122596
 40
0.2251567855
 40
0.3495210378
 40
0.4790126986
 40
0.6113446378
 40
0.744061847
 40
0.8745913768
 40
1.0
 40
1.0
 40
1.0
 40
1.0
 10
12.3310570975
 20
10.6540197778
 30
0.0
 10
12.3322577354
 20
10.6525114977
 30
0.0
 10
12.3350287242
 20
10.6495770313
 30
0.0
 10
12.3398850008
 20
10.6456381471
 30
0.0
 10
12.3454957295
 20
10.6420951201
 30
0.0
 10
12.3516883837
 20
10.6390417841
 30
0.0
 10
12.3582934909
 20
10.6365685312
 30
0.0
 10
12.3651245396
 20
10.6347389626
 30
0.0
 10
12.3719811892
 20
10.6336180884
 30
0.0
 10
12.376551876
 20
10.6333461895
 30
0.0
 10
12.3787901741
 20
10.6333461895
 30
0.0
  0
SPLINE
  5
2AB
100
AcDbEntity
  8
0
100
AcDbSpline
 62
7
  6
CONTINUOUS
 70
0
 71
3
 72
13
 73
9
 74
0
 42
0.0000001
 43
0.0000001
 44
0.0000000001
 40
0.0
 40
0.0
 40
0.0
 40
0.0
 40
0.3028164381
 40
0.5687547987
 40
0.6871501143
 40
0.7969352722
 40
0.9002057799
 40
1.0
 40
1.0
 40
1.0
 40
1.0
 10
11.8835890302
 20
11.2549561578
 30
0.0
 10
11.8824160352
 20
11.2549561578
 30
0.0
 10
11.8802066781
 20
11.2547687019
 30
0.0
 10
11.8776339739
 20
11.2539628142
 30
0.0
 10
11.8759832865
 20
11.2529775826
 30
0.0
 10
11.8750082922
 20
11.2521298181
 30
0.0
 10
11.8742715995
 20
11.2511560359
 30
0.0
 10
11.873947795
 20
11.2504299274
 30
0.0
 10
11.8738334319
 20
11.2500606669
 30
0.0
  0
SPLINE
  5
2AC
100
AcDbEntity
  8
0
100
AcDbSpline
 62
7
  6
CONTINUOUS
 70
0
 71
3
 72
15
 73
11
 74
0
 42
0.0000001
 43
0.0000001
 44
0.0000000001
 40
0.0
 40
0.0
 40
0.0
 40
0.0
 40
0.1000805212
 40
0.21186059
 40
0.3338439566
 40
0.4637371734
 40
0.5987029226
 40
0.7354819219
 40
0.8705834431
 40
1.0
 40
1.0
 40
1.0
 40
1.0
 10
17.9763778286
 20
11.2456320083
 30
0.0
 10
17.9760617267
 20
11.2462761562
 30
0.0
 10
17.97522186
 20
11.2475576166
 30
0.0
 10
17.9735638402
 20
11.2492971516
 30
0.0
 10
17.9714909489
 20
11.2508932358
 30
0.0
 10
17.9690882018
 20
11.2522920592
 30
0.0
 10
17.9664403588
 20
11.2534395396
 30
0.0
 10
17.9636460064
 20
11.2542975162
 30
0.0
 10
17.9608119434
 20
11.2548259496
 30
0.0
 10
17.9589141391
 20
11.2549561578
 30
0.0
 10
17.9579862857
 20
11.2549561578
 30
0.0
  0
ENDSEC
  0
SECTION
  2
OBJECTS
  0
DICTIONARY
  5
C
100
AcDbDictionary
280
0
281
1
  3
ACAD_GROUP
350
D
  3
ACAD_MLINESTYLE
350
17
  3
ACAD_LAYOUT
350
1A
  3
ACAD_PLOTSETTINGS
350
19
  3
ACAD_PLOTSTYLENAME
350
E
  0
DICTIONARY
  5
D
102
{ACAD_REACTORS
330
C
102
}
100
AcDbDictionary
280
0
281
1
  0
ACDBDICTIONARYWDFLT
  5
E
102
{ACAD_REACTORS
330
C
102
}
100
AcDbDictionary
281
1
  3
Normal
350
F
100
AcDbDictionaryWithDefault
340
F
  0
DICTIONARY
  5
17
102
{ACAD_REACTORS
330
C
102
}
100
AcDbDictionary
280
0
281
1
  3
Standard
350
18
  0
DICTIONARY
  5
19
102
{ACAD_REACTORS
330
C
102
}
100
AcDbDictionary
281
1
  0
DICTIONARY
  5
1A
102
{ACAD_REACTORS
330
C
102
}
100
AcDbDictionary
281
1
  3
Model
350
2AD
  3
Layout1
350
2AE
  0
ACDBPLACEHOLDER
  5
F
102
{ACAD_REACTORS
330
E
102
}
  0
MLINESTYLE
  5
18
102
{ACAD_REACTORS
330
17
102
}
100
AcDbMlineStyle
  2
STANDARD
 70
0
  3

 62
256
 51
90.0
 52
90.0
 71
2
 49
0.5
 62
256
  6
BYLAYER
 49
-0.5
 62
256
  6
BYLAYER
  0
LAYOUT
  5
2AD
102
{ACAD_REACTORS
330
1A
102
}
100
AcDbPlotSettings
  1

  2
none_device
  4
ANSI_C_(22.00_x_17.00_Inches)
  6

 40
0.0
 41
0.0
 42
0.0
 43
0.0
 44
558.8
 45
431.8
 46
0.0
 47
0.0
 48
0.0
 49
0.0
140
0.0
141
0.0
142
1.0
143
1.0
 70
1024
 72
0
 73
0
 74
0
  7

 75
0
147
1.0
148
0.0
149
0.0
100
AcDbLayout
  1
Model
 70
0
 71
0
 10
0.0
 20
0.0
 11
22.0
 21
17.0
 12
0.0
 22
0.0
 32
0.0
 14
0.0
 24
0.0
 34
0.0
 15
0.0
 25
0.0
 35
0.0
146
0.0
 13
0.0
 23
0.0
 33
0.0
 16
1.0
 26
0.0
 36
0.0
 17
0.0
 27
1.0
 37
0.0
 76
0
330
21C
345
0
346
0
  0
LAYOUT
  5
2AE
102
{ACAD_REACTORS
330
1A
102
}
100
AcDbPlotSettings
  1

  2
none_device
  4
ANSI_C_(22.00_x_17.00_Inches)
  6

 40
0.0
 41
0.0
 42
0.0
 43
0.0
 44
558.8
 45
431.8
 46
0.0
 47
0.0
 48
0.0
 49
0.0
140
0.0
141
0.0
142
1.0
143
1.0
 70
0
 72
0
 73
0
 74
0
  7

 75
0
147
1.0
148
0.0
149
0.0
100
AcDbLayout
  1
Layout1
 70
0
 71
1
 10
0.0
 20
0.0
 11
22.0
 21
17.0
 12
0.0
 22
0.0
 32
0.0
 14
0.0
 24
0.0
 34
0.0
 15
0.0
 25
0.0
 35
0.0
146
0.0
 13
0.0
 23
0.0
 33
0.0
 16
1.0
 26
0.0
 36
0.0
 17
0.0
 27
1.0
 37
0.0
 76
0
330
21D
345
0
346
0
  0
ENDSEC
  0
EOF