999
DXF file: _cgs_temp_output.dxf
999
Pro/ENGINEER 2015110 by Parametric Technology Corporation
  0
SECTION
  2
HEADER
  9
$ACADVER
  1
AC1021
  9
$DWGCODEPAGE
  3
ANSI_1252
  9
$EXTMAX
 10
22.0
 20
17.0
 30
0.0
  9
$EXTMIN
 10
0.0
 20
0.0
 30
0.0
  9
$LIMMIN
 10
0.0
 20
0.0
  9
$LIMMAX
 10
22.0
 20
17.0
  9
$VIEWCTR
 10
11.0
 20
8.5
  9
$VIEWSIZE
 40
17.0
  9
$CLAYER
  8
0
  9
$LTSCALE
 40
1.21
  9
$CELTYPE
  6
BYLAYER
  9
$DIMSCALE
 40
1.0
  9
$DIMASZ
 40
0.1875
  9
$DIMEXO
 40
0.0625
  9
$DIMDLI
 40
0.836
  9
$DIMEXE
 40
0.125
  9
$DIMCEN
 40
0.198
  9
$DIMLFAC
 40
1.0
  9
$DIMBLK
  1
_CLOSED
  9
$DIMALT
 70
0
  9
$DIMALTF
 40
25.4
  9
$DIMTXT
 40
0.15625
  9
$DIMTOL
 70
0
  9
$DIMLIM
 70
0
  9
$DIMTFAC
 40
1.0
  9
$DIMGAP
 40
0.09
  9
$DIMDSEP
 70
46
  9
$AUNITS
 70
0
  9
$PDMODE
 70
3
  9
$PDSIZE
 40
0.3125
  9
$HANDSEED
  5
2AE
  9
$TILEMODE
 70
1
  9
$MEASUREMENT
 70
0
  9
$INSUNITS
 70
1
  0
ENDSEC
  0
SECTION
  2
CLASSES
  0
CLASS
  1
ACDBDICTIONARYWDFLT
  2
AcDbDictionaryWithDefault
  3
AutoCAD 2000
 90
0
 91
1
280
0
281
0
  0
CLASS
  1
ACDBPLACEHOLDER
  2
AcDbPlaceHolder
  3
AutoCAD 2000
 90
0
 91
1
280
0
281
0
  0
CLASS
  1
LAYOUT
  2
AcDbLayout
  3
AutoCAD 2000
 90
0
 91
0
280
0
281
0
  0
ENDSEC
  0
SECTION
  2
TABLES
  0
TABLE
  2
VPORT
  5
8
100
AcDbSymbolTable
 70
2
  0
VPORT
  5
1F4
100
AcDbSymbolTableRecord
100
AcDbViewportTableRecord
  2
*ACTIVE
 70
0
 10
0.0
 20
0.0
 11
1.0
 21
1.0
 12
11.0
 22
8.5
 13
0.0
 23
0.0
 14
1.0
 24
1.0
 15
0.0
 25
0.0
 16
0.0
 26
0.0
 36
1.0
 17
0.0
 27
0.0
 37
0.0
 40
17.0
 41
1.2941176471
 42
50.0
 43
0.0
 44
0.0
 50
0.0
 51
0.0
 71
0
 72
100
 73
1
 74
1
 75
0
 76
0
 77
0
 78
0
  0
ENDTAB
  0
TABLE
  2
LTYPE
  5
5
100
AcDbSymbolTable
 70
6
  0
LTYPE
  5
14
100
AcDbSymbolTableRecord
100
AcDbLinetypeTableRecord
  2
BYBLOCK
 70
0
  3

 72
65
 73
0
 40
0.0
  0
LTYPE
  5
15
100
AcDbSymbolTableRecord
100
AcDbLinetypeTableRecord
  2
BYLAYER
 70
0
  3

 72
65
 73
0
 40
0.0
  0
LTYPE
  5
16
100
AcDbSymbolTableRecord
100
AcDbLinetypeTableRecord
  2
CONTINUOUS
 70
64
  3
Solid line
 72
65
 73
0
 40
0.0
  0
LTYPE
  5
1F5
100
AcDbSymbolTableRecord
100
AcDbLinetypeTableRecord
  2
CENTER
 70
64
  3
____ _ ____ _ ____ _ ____ _ ____ _ ____ _ ____
 72
65
 73
4
 40
0.6
 49
0.375
 74
0
 49
-0.075
 74
0
 49
0.075
 74
0
 49
-0.075
 74
0
  0
LTYPE
  5
1F6
100
AcDbSymbolTableRecord
100
AcDbLinetypeTableRecord
  2
HIDDEN
 70
64
  3
- - - - - - - - - - - - - - - - - - - -
 72
65
 73
2
 40
0.2
 49
0.1
 74
0
 49
-0.1
 74
0
  0
LTYPE
  5
1F7
100
AcDbSymbolTableRecord
100
AcDbLinetypeTableRecord
  2
PHANTOM
 70
64
  3
_____ _ _ _____ _ _ _____ _ _ _____
 72
65
 73
6
 40
0.8
 49
0.45
 74
0
 49
-0.05
 74
0
 49
0.1
 74
0
 49
-0.05
 74
0
 49
0.1
 74
0
 49
-0.05
 74
0
  0
LTYPE
  5
1F8
100
AcDbSymbolTableRecord
100
AcDbLinetypeTableRecord
  2
DOT
 70
64
  3
. . . . . . . . . . . . . . . . . . . .
 72
65
 73
2
 40
0.2
 49
0.1
 74
0
 49
-0.1
 74
0
  0
LTYPE
  5
1F9
100
AcDbSymbolTableRecord
100
AcDbLinetypeTableRecord
  2
DASHED
 70
64
  3
- - - - - - - - - - - - - - - - - - - -
 72
65
 73
2
 40
0.2
 49
0.1
 74
0
 49
-0.1
 74
0
  0
ENDTAB
  0
TABLE
  2
LAYER
  5
2
100
AcDbSymbolTable
 70
36
  0
LAYER
  5
10
100
AcDbSymbolTableRecord
100
AcDbLayerTableRecord
  2
0
 70
0
 62
7
  6
CONTINUOUS
370
-3
390
F
  0
LAYER
  5
1FA
100
AcDbSymbolTableRecord
100
AcDbLayerTableRecord
  2
DEFAULT_1
 70
0
 62
7
  6
CENTER
370
-3
390
F
  0
LAYER
  5
1FB
100
AcDbSymbolTableRecord
100
AcDbLayerTableRecord
  2
DEFAULT_2
 70
0
 62
8
  6
HIDDEN
370
-3
390
F
  0
LAYER
  5
1FC
100
AcDbSymbolTableRecord
100
AcDbLayerTableRecord
  2
DEFAULT_3
 70
0
 62
7
  6
PHANTOM
370
-3
390
F
  0
LAYER
  5
1FD
100
AcDbSymbolTableRecord
100
AcDbLayerTableRecord
  2
01_ALL_DTM_PLN
 70
0
 62
7
  6
CONTINUOUS
370
-3
390
F
  0
LAYER
  5
1FE
100
AcDbSymbolTableRecord
100
AcDbLayerTableRecord
  2
01__ASM_ALL_DTM_PLN
 70
0
 62
7
  6
CONTINUOUS
370
-3
390
F
  0
LAYER
  5
1FF
100
AcDbSymbolTableRecord
100
AcDbLayerTableRecord
  2
01__ASM_DEF_DTM_PLN
 70
0
 62
7
  6
CONTINUOUS
370
-3
390
F
  0
LAYER
  5
200
100
AcDbSymbolTableRecord
100
AcDbLayerTableRecord
  2
01___PRT_ALL_DTM_PLN
 70
0
 62
7
  6
CONTINUOUS
370
-3
390
F
  0
LAYER
  5
201
100
AcDbSymbolTableRecord
100
AcDbLayerTableRecord
  2
01___PRT_DEF_DTM_PLN
 70
0
 62
7
  6
CONTINUOUS
370
-3
390
F
  0
LAYER
  5
202
100
AcDbSymbolTableRecord
100
AcDbLayerTableRecord
  2
02_ALL_AXES
 70
0
 62
7
  6
CONTINUOUS
370
-3
390
F
  0
LAYER
  5
203
100
AcDbSymbolTableRecord
100
AcDbLayerTableRecord
  2
02__ASM_ALL_AXES
 70
0
 62
7
  6
CONTINUOUS
370
-3
390
F
  0
LAYER
  5
204
100
AcDbSymbolTableRecord
100
AcDbLayerTableRecord
  2
02___PRT_ALL_AXES
 70
0
 62
7
  6
CONTINUOUS
370
-3
390
F
  0
LAYER
  5
205
100
AcDbSymbolTableRecord
100
AcDbLayerTableRecord
  2
03_ALL_CURVES
 70
0
 62
7
  6
CONTINUOUS
370
-3
390
F
  0
LAYER
  5
206
100
AcDbSymbolTableRecord
100
AcDbLayerTableRecord
  2
03__ASM_ALL_CURVES
 70
0
 62
7
  6
CONTINUOUS
370
-3
390
F
  0
LAYER
  5
207
100
AcDbSymbolTableRecord
100
AcDbLayerTableRecord
  2
03___PRT_ALL_CURVES
 70
0
 62
7
  6
CONTINUOUS
370
-3
390
F
  0
LAYER
  5
208
100
AcDbSymbolTableRecord
100
AcDbLayerTableRecord
  2
04_ALL_DTM_PNT
 70
0
 62
7
  6
CONTINUOUS
370
-3
390
F
  0
LAYER
  5
209
100
AcDbSymbolTableRecord
100
AcDbLayerTableRecord
  2
04__ASM_ALL_DTM_PNT
 70
0
 62
7
  6
CONTINUOUS
370
-3
390
F
  0
LAYER
  5
20A
100
AcDbSymbolTableRecord
100
AcDbLayerTableRecord
  2
04___PRT_ALL_DTM_PNT
 70
0
 62
7
  6
CONTINUOUS
370
-3
390
F
  0
LAYER
  5
20B
100
AcDbSymbolTableRecord
100
AcDbLayerTableRecord
  2
05_ALL_DTM_CSYS
 70
0
 62
7
  6
CONTINUOUS
370
-3
390
F
  0
LAYER
  5
20C
100
AcDbSymbolTableRecord
100
AcDbLayerTableRecord
  2
05__ASM_ALL_DTM_CSYS
 70
0
 62
7
  6
CONTINUOUS
370
-3
390
F
  0
LAYER
  5
20D
100
AcDbSymbolTableRecord
100
AcDbLayerTableRecord
  2
05__ASM_DEF_DTM_CSYS
 70
0
 62
7
  6
CONTINUOUS
370
-3
390
F
  0
LAYER
  5
20E
100
AcDbSymbolTableRecord
100
AcDbLayerTableRecord
  2
05___PRT_ALL_DTM_CSYS
 70
0
 62
7
  6
CONTINUOUS
370
-3
390
F
  0
LAYER
  5
20F
100
AcDbSymbolTableRecord
100
AcDbLayerTableRecord
  2
05___PRT_DEF_DTM_CSYS
 70
0
 62
7
  6
CONTINUOUS
370
-3
390
F
  0
LAYER
  5
210
100
AcDbSymbolTableRecord
100
AcDbLayerTableRecord
  2
06_ALL_SURFS
 70
0
 62
7
  6
CONTINUOUS
370
-3
390
F
  0
LAYER
  5
211
100
AcDbSymbolTableRecord
100
AcDbLayerTableRecord
  2
06__ASM_ALL_SURFS
 70
0
 62
7
  6
CONTINUOUS
370
-3
390
F
  0
LAYER
  5
212
100
AcDbSymbolTableRecord
100
AcDbLayerTableRecord
  2
06___PRT_ALL_SURFS
 70
0
 62
7
  6
CONTINUOUS
370
-3
390
F
  0
LAYER
  5
213
100
AcDbSymbolTableRecord
100
AcDbLayerTableRecord
  2
07__ASM_ALL_SKELETONS
 70
0
 62
7
  6
CONTINUOUS
370
-3
390
F
  0
ENDTAB
  0
TABLE
  2
STYLE
  5
3
100
AcDbSymbolTable
 70
1
  0
STYLE
  5
11
100
AcDbSymbolTableRecord
100
AcDbTextStyleTableRecord
  2
STANDARD
 70
0
 40
0.0
 41
0.8
 50
0.0
 71
0
 42
0.2
  3
txt
  4

  0
STYLE
  5
214
100
AcDbSymbolTableRecord
100
AcDbTextStyleTableRecord
  2
TEXTSTYLE_1
 70
0
 40
0.0
 41
0.8
 50
0.0
 71
0
 42
0.2
  3
gdt
  4

  0
ENDTAB
  0
TABLE
  2
VIEW
  5
6
100
AcDbSymbolTable
 70
0
  0
ENDTAB
  0
TABLE
  2
UCS
  5
7
100
AcDbSymbolTable
 70
0
  0
ENDTAB
  0
TABLE
  2
APPID
  5
9
100
AcDbSymbolTable
 70
1
  0
APPID
  5
215
100
AcDbSymbolTableRecord
100
AcDbRegAppTableRecord
  2
ACAD
 70
0
  0
ENDTAB
  0
TABLE
  2
BLOCK_RECORD
  5
1
100
AcDbSymbolTable
 70
0
  0
BLOCK_RECORD
  5
216
100
AcDbSymbolTableRecord
100
AcDbBlockTableRecord
  2
*Model_Space
  0
BLOCK_RECORD
  5
217
100
AcDbSymbolTableRecord
100
AcDbBlockTableRecord
  2
*Paper_Space
  0
ENDTAB
  0
TABLE
  2
DIMSTYLE
  5
A
100
AcDbSymbolTable
 70
1
100
AcDbDimStyleTable
 71
0
  0
DIMSTYLE
105
218
100
AcDbSymbolTableRecord
100
AcDbDimStyleTableRecord
  2
STANDARD
 70
0
  3

  4

 40
1.0
 41
0.1875
 42
0.0625
 43
0.38
 44
0.125
 45
0.0
 46
0.0
 47
0.0001
 48
0.0001
140
0.15625
141
0.09
142
0.0
143
25.4
144
1.0
145
0.0
146
1.0
147
0.09
 71
0.0
 72
0.0
 73
1
 74
1
 75
0
 76
0
 77
0
 78
4
170
0
171
2
172
0
173
0
174
0
175
0
176
0
177
0
178
0
270
2
271
4
272
4
273
2
274
2
275
0
280
0
281
0
282
0
283
1
284
4
285
0
286
0
287
3
288
0
340
11
278
46
  0
ENDTAB
  0
ENDSEC
  0
SECTION
  2
BLOCKS
  0
BLOCK
  5
20
100
AcDbEntity
  8
0
100
AcDbBlockBegin
  2
*Model_Space
 70
0
 10
0.0
 20
0.0
 30
0.0
  3
*Model_Space
  1

  0
ENDBLK
  5
21
100
AcDbEntity
  8
0
100
AcDbBlockEnd
  0
BLOCK
  5
1C
100
AcDbEntity
  8
0
100
AcDbBlockBegin
  2
*Paper_Space
 70
0
 10
0.0
 20
0.0
 30
0.0
  3
*Paper_Space
  1

  0
ENDBLK
  5
1D
100
AcDbEntity
  8
0
100
AcDbBlockEnd
  0
ENDSEC
  0
SECTION
  2
ENTITIES
  0
MTEXT
  5
219
100
AcDbEntity
  8
0
100
AcDbMText
 62
7
  6
CONTINUOUS
  7
STANDARD
 71
1
 72
1
 10
15.9560215477
 20
0.9479130325
 30
0.0
 11
1.0
 21
0.0
 31
0.0
 44
0.9
  1
SCALE: 1:1.000
 40
0.3
 41
3.36
  0
LINE
  5
21A
100
AcDbEntity
  8
0
100
AcDbLine
 62
7
  6
CONTINUOUS
 10
0.0
 20
0.0
 11
0.0
 21
17.0
  0
LINE
  5
21B
100
AcDbEntity
  8
0
100
AcDbLine
 62
7
  6
CONTINUOUS
 10
0.0
 20
0.0
 11
22.0
 21
0.0
  0
LINE
  5
21C
100
AcDbEntity
  8
0
100
AcDbLine
 62
7
  6
CONTINUOUS
 10
0.0
 20
17.0
 11
22.0
 21
17.0
  0
LINE
  5
21D
100
AcDbEntity
  8
0
100
AcDbLine
 62
7
  6
CONTINUOUS
 10
22.0
 20
0.0
 11
22.0
 21
17.0
  0
LINE
  5
21E
100
AcDbEntity
  8
0
100
AcDbLine
 62
7
  6
CONTINUOUS
 10
4.6303672762
 20
5.6001198968
 11
4.6303672762
 21
5.5301198968
  0
LINE
  5
21F
100
AcDbEntity
  8
0
100
AcDbLine
 62
7
  6
CONTINUOUS
 10
4.7312200788
 20
5.5129722143
 11
4.7507422928
 21
5.4658414204
  0
LINE
  5
220
100
AcDbEntity
  8
0
100
AcDbLine
 62
7
  6
CONTINUOUS
 10
5.0099922595
 20
5.4658414204
 11
5.0295144735
 21
5.5129722143
  0
LINE
  5
221
100
AcDbEntity
  8
0
100
AcDbLine
 62
7
  6
CONTINUOUS
 10
5.2312200788
 20
5.5129722143
 11
5.2507422928
 21
5.4658414204
  0
LINE
  5
222
100
AcDbEntity
  8
0
100
AcDbLine
 62
7
  6
CONTINUOUS
 10
5.5099922595
 20
5.4658414204
 11
5.5295144735
 21
5.5129722143
  0
LINE
  5
223
100
AcDbEntity
  8
0
100
AcDbLine
 62
7
  6
CONTINUOUS
 10
5.7312200788
 20
5.5129722143
 11
5.7507422928
 21
5.4658414204
  0
LINE
  5
224
100
AcDbEntity
  8
0
100
AcDbLine
 62
7
  6
CONTINUOUS
 10
6.0099922595
 20
5.4658414204
 11
6.0295144735
 21
5.5129722143
  0
LINE
  5
225
100
AcDbEntity
  8
0
100
AcDbLine
 62
7
  6
CONTINUOUS
 10
4.7892372734
 20
5.4401198968
 11
4.971497279
 21
5.4401198968
  0
LINE
  5
226
100
AcDbEntity
  8
0
100
AcDbLine
 62
7
  6
CONTINUOUS
 10
5.2892372734
 20
5.4401198968
 11
5.471497279
 21
5.4401198968
  0
LINE
  5
227
100
AcDbEntity
  8
0
100
AcDbLine
 62
7
  6
CONTINUOUS
 10
5.7892372734
 20
5.4401198968
 11
5.971497279
 21
5.4401198968
  0
LINE
  5
228
100
AcDbEntity
  8
0
100
AcDbLine
 62
7
  6
CONTINUOUS
 10
6.2892372734
 20
5.4401198968
 11
6.471497279
 21
5.4401198968
  0
LINE
  5
229
100
AcDbEntity
  8
0
100
AcDbLine
 62
7
  6
CONTINUOUS
 10
6.7892372734
 20
5.4401198968
 11
6.971497279
 21
5.4401198968
  0
LINE
  5
22A
100
AcDbEntity
  8
0
100
AcDbLine
 62
7
  6
CONTINUOUS
 10
7.2892372734
 20
5.4401198968
 11
7.471497279
 21
5.4401198968
  0
LINE
  5
22B
100
AcDbEntity
  8
0
100
AcDbLine
 62
7
  6
CONTINUOUS
 10
4.6303672762
 20
5.5301198968
 11
4.7055567584
 21
5.5301198968
  0
LINE
  5
22C
100
AcDbEntity
  8
0
100
AcDbLine
 62
7
  6
CONTINUOUS
 10
5.0551777939
 20
5.5301198968
 11
5.2055567584
 21
5.5301198968
  0
LINE
  5
22D
100
AcDbEntity
  8
0
100
AcDbLine
 62
7
  6
CONTINUOUS
 10
5.5551777939
 20
5.5301198968
 11
5.7055567584
 21
5.5301198968
  0
LINE
  5
22E
100
AcDbEntity
  8
0
100
AcDbLine
 62
7
  6
CONTINUOUS
 10
6.0551777939
 20
5.5301198968
 11
6.2055567584
 21
5.5301198968
  0
LINE
  5
22F
100
AcDbEntity
  8
0
100
AcDbLine
 62
7
  6
CONTINUOUS
 10
6.5551777939
 20
5.5301198968
 11
6.7055567584
 21
5.5301198968
  0
LINE
  5
230
100
AcDbEntity
  8
0
100
AcDbLine
 62
7
  6
CONTINUOUS
 10
7.0551777939
 20
5.5301198968
 11
7.2055567584
 21
5.5301198968
  0
LINE
  5
231
100
AcDbEntity
  8
0
100
AcDbLine
 62
7
  6
CONTINUOUS
 10
7.5551777939
 20
5.5301198968
 11
7.6303672762
 21
5.5301198968
  0
LINE
  5
232
100
AcDbEntity
  8
0
100
AcDbLine
 62
7
  6
CONTINUOUS
 10
7.6303672762
 20
5.6001198968
 11
4.6303672762
 21
5.6001198968
  0
LINE
  5
233
100
AcDbEntity
  8
0
100
AcDbLine
 62
7
  6
CONTINUOUS
 10
6.2312200788
 20
5.5129722143
 11
6.2507422928
 21
5.4658414204
  0
LINE
  5
234
100
AcDbEntity
  8
0
100
AcDbLine
 62
7
  6
CONTINUOUS
 10
6.5099922595
 20
5.4658414204
 11
6.5295144735
 21
5.5129722143
  0
LINE
  5
235
100
AcDbEntity
  8
0
100
AcDbLine
 62
7
  6
CONTINUOUS
 10
6.7312200788
 20
5.5129722143
 11
6.7507422928
 21
5.4658414204
  0
LINE
  5
236
100
AcDbEntity
  8
0
100
AcDbLine
 62
7
  6
CONTINUOUS
 10
7.0099922595
 20
5.4658414204
 11
7.0295144735
 21
5.5129722143
  0
LINE
  5
237
100
AcDbEntity
  8
0
100
AcDbLine
 62
7
  6
CONTINUOUS
 10
7.2312200788
 20
5.5129722143
 11
7.2507422928
 21
5.4658414204
  0
LINE
  5
238
100
AcDbEntity
  8
0
100
AcDbLine
 62
7
  6
CONTINUOUS
 10
7.5099922595
 20
5.4658414204
 11
7.5295144735
 21
5.5129722143
  0
LINE
  5
239
100
AcDbEntity
  8
0
100
AcDbLine
 62
7
  6
CONTINUOUS
 10
7.6303672762
 20
5.5301198968
 11
7.6303672762
 21
5.6001198968
  0
LINE
  5
23A
100
AcDbEntity
  8
0
100
AcDbLine
 62
7
  6
CONTINUOUS
 10
4.5708720839
 20
12.9750477814
 11
4.5708720839
 21
12.2250477814
  0
LINE
  5
23B
100
AcDbEntity
  8
0
100
AcDbLine
 62
7
  6
CONTINUOUS
 10
7.5708720839
 20
12.2250477814
 11
4.5708720839
 21
12.2250477814
  0
LINE
  5
23C
100
AcDbEntity
  8
0
100
AcDbLine
 62
7
  6
CONTINUOUS
 10
4.5708720839
 20
12.9750477814
 11
7.5708720839
 21
12.9750477814
  0
LINE
  5
23D
100
AcDbEntity
  8
0
100
AcDbLine
 62
7
  6
CONTINUOUS
 10
7.5708720839
 20
12.9750477814
 11
7.5708720839
 21
12.2250477814
  0
LINE
  5
23E
100
AcDbEntity
  8
0
100
AcDbLine
 62
7
  6
CONTINUOUS
 10
15.1853552569
 20
5.3806247044
 11
15.1853552569
 21
5.5406247044
  0
LINE
  5
23F
100
AcDbEntity
  8
0
100
AcDbLine
 62
7
  6
CONTINUOUS
 10
15.1853552569
 20
5.3806247044
 11
15.9353552569
 21
5.3806247044
  0
LINE
  5
240
100
AcDbEntity
  8
0
100
AcDbLine
 62
7
  6
CONTINUOUS
 10
15.9353552569
 20
5.4706247044
 11
15.1853552569
 21
5.4706247044
  0
LINE
  5
241
100
AcDbEntity
  8
0
100
AcDbLine
 62
7
  6
CONTINUOUS
 10
15.9353552569
 20
5.5406247044
 11
15.1853552569
 21
5.5406247044
  0
LINE
  5
242
100
AcDbEntity
  8
0
100
AcDbLine
 62
7
  6
CONTINUOUS
 10
15.9353552569
 20
5.3806247044
 11
15.9353552569
 21
5.5406247044
  0
LINE
  5
243
100
AcDbEntity
  8
0
100
AcDbLine
 62
7
  6
CONTINUOUS
 10
13.9880696409
 20
12.2667861993
 11
14.0094225715
 21
12.2232735015
  0
LINE
  5
244
100
AcDbEntity
  8
0
100
AcDbLine
 62
7
  6
CONTINUOUS
 10
14.1696193834
 20
12.8542813815
 11
13.9880696409
 21
12.2667861993
  0
LINE
  5
245
100
AcDbEntity
  8
0
100
AcDbLine
 62
7
  6
CONTINUOUS
 10
14.1075449152
 20
12.2126143311
 11
14.1399029304
 21
12.1833173598
  0
LINE
  5
246
100
AcDbEntity
  8
0
100
AcDbLine
 62
7
  6
CONTINUOUS
 10
14.3786879624
 20
12.1833173598
 11
14.3822922469
 21
12.2126143311
  0
LINE
  5
247
100
AcDbEntity
  8
0
100
AcDbLine
 62
7
  6
CONTINUOUS
 10
14.3822922469
 20
12.2126143311
 11
14.3826363606
 21
12.214206802
  0
LINE
  5
248
100
AcDbEntity
  8
0
100
AcDbLine
 62
7
  6
CONTINUOUS
 10
14.3781805941
 20
12.1809259375
 11
14.3786879624
 21
12.1833173598
  0
LINE
  5
249
100
AcDbEntity
  8
0
100
AcDbLine
 62
7
  6
CONTINUOUS
 10
14.3788958168
 20
12.183253128
 11
14.3906881518
 21
12.221413138
  0
LINE
  5
24A
100
AcDbEntity
  8
0
100
AcDbLine
 62
7
  6
CONTINUOUS
 10
14.5680754122
 20
12.2126143311
 11
14.6004334274
 21
12.1833173598
  0
LINE
  5
24B
100
AcDbEntity
  8
0
100
AcDbLine
 62
7
  6
CONTINUOUS
 10
14.8392184594
 20
12.1833173598
 11
14.8428227439
 21
12.2126143311
  0
LINE
  5
24C
100
AcDbEntity
  8
0
100
AcDbLine
 62
7
  6
CONTINUOUS
 10
14.8387110911
 20
12.1809259375
 11
14.8392184594
 21
12.1833173598
  0
LINE
  5
24D
100
AcDbEntity
  8
0
100
AcDbLine
 62
7
  6
CONTINUOUS
 10
14.8428227439
 20
12.2126143311
 11
14.8431668576
 21
12.214206802
  0
LINE
  5
24E
100
AcDbEntity
  8
0
100
AcDbLine
 62
7
  6
CONTINUOUS
 10
14.8394263138
 20
12.183253128
 11
14.8512186488
 21
12.221413138
  0
LINE
  5
24F
100
AcDbEntity
  8
0
100
AcDbLine
 62
7
  6
CONTINUOUS
 10
15.0286059092
 20
12.2126143311
 11
15.0609639244
 21
12.1833173598
  0
LINE
  5
250
100
AcDbEntity
  8
0
100
AcDbLine
 62
7
  6
CONTINUOUS
 10
14.1832052971
 20
12.1673286043
 11
14.351077879
 21
12.1673286043
  0
LINE
  5
251
100
AcDbEntity
  8
0
100
AcDbLine
 62
7
  6
CONTINUOUS
 10
14.6437357941
 20
12.1673286043
 11
14.811608376
 21
12.1673286043
  0
LINE
  5
252
100
AcDbEntity
  8
0
100
AcDbLine
 62
7
  6
CONTINUOUS
 10
15.1042662911
 20
12.1673286043
 11
15.272138873
 21
12.1673286043
  0
LINE
  5
253
100
AcDbEntity
  8
0
100
AcDbLine
 62
7
  6
CONTINUOUS
 10
15.5647967881
 20
12.1673286043
 11
15.73266937
 21
12.1673286043
  0
LINE
  5
254
100
AcDbEntity
  8
0
100
AcDbLine
 62
7
  6
CONTINUOUS
 10
16.0253272851
 20
12.1673286043
 11
16.193199867
 21
12.1673286043
  0
LINE
  5
255
100
AcDbEntity
  8
0
100
AcDbLine
 62
7
  6
CONTINUOUS
 10
16.4858577821
 20
12.1673286043
 11
16.653730364
 21
12.1673286043
  0
LINE
  5
256
100
AcDbEntity
  8
0
100
AcDbLine
 62
7
  6
CONTINUOUS
 10
14.0094225715
 20
12.2232735015
 11
14.0786766708
 21
12.2232735015
  0
LINE
  5
257
100
AcDbEntity
  8
0
100
AcDbLine
 62
7
  6
CONTINUOUS
 10
14.4006989692
 20
12.2232735015
 11
14.5392071678
 21
12.2232735015
  0
LINE
  5
258
100
AcDbEntity
  8
0
100
AcDbLine
 62
7
  6
CONTINUOUS
 10
14.8612294662
 20
12.2232735015
 11
14.9997376648
 21
12.2232735015
  0
LINE
  5
259
100
AcDbEntity
  8
0
100
AcDbLine
 62
7
  6
CONTINUOUS
 10
15.3217599632
 20
12.2232735015
 11
15.4602681618
 21
12.2232735015
  0
LINE
  5
25A
100
AcDbEntity
  8
0
100
AcDbLine
 62
7
  6
CONTINUOUS
 10
15.7822904602
 20
12.2232735015
 11
15.9207986588
 21
12.2232735015
  0
LINE
  5
25B
100
AcDbEntity
  8
0
100
AcDbLine
 62
7
  6
CONTINUOUS
 10
16.2428209572
 20
12.2232735015
 11
16.3813291558
 21
12.2232735015
  0
LINE
  5
25C
100
AcDbEntity
  8
0
100
AcDbLine
 62
7
  6
CONTINUOUS
 10
16.7033514542
 20
12.2232735015
 11
16.7726055535
 21
12.2232735015
  0
LINE
  5
25D
100
AcDbEntity
  8
0
100
AcDbLine
 62
7
  6
CONTINUOUS
 10
16.7512526229
 20
12.2667861993
 11
13.9880696409
 21
12.2667861993
  0
LINE
  5
25E
100
AcDbEntity
  8
0
100
AcDbLine
 62
7
  6
CONTINUOUS
 10
15.4891364062
 20
12.2126143311
 11
15.5214944214
 21
12.1833173598
  0
LINE
  5
25F
100
AcDbEntity
  8
0
100
AcDbLine
 62
7
  6
CONTINUOUS
 10
15.2997489564
 20
12.1833173598
 11
15.303353241
 21
12.2126143311
  0
LINE
  5
260
100
AcDbEntity
  8
0
100
AcDbLine
 62
7
  6
CONTINUOUS
 10
15.2992415881
 20
12.1809259375
 11
15.2997489564
 21
12.1833173598
  0
LINE
  5
261
100
AcDbEntity
  8
0
100
AcDbLine
 62
7
  6
CONTINUOUS
 10
15.303353241
 20
12.2126143311
 11
15.3036973546
 21
12.214206802
  0
LINE
  5
262
100
AcDbEntity
  8
0
100
AcDbLine
 62
7
  6
CONTINUOUS
 10
15.2999568108
 20
12.183253128
 11
15.3117491458
 21
12.221413138
  0
LINE
  5
263
100
AcDbEntity
  8
0
100
AcDbLine
 62
7
  6
CONTINUOUS
 10
15.9496669032
 20
12.2126143311
 11
15.9820249184
 21
12.1833173598
  0
LINE
  5
264
100
AcDbEntity
  8
0
100
AcDbLine
 62
7
  6
CONTINUOUS
 10
15.7602794534
 20
12.1833173598
 11
15.763883738
 21
12.2126143311
  0
LINE
  5
265
100
AcDbEntity
  8
0
100
AcDbLine
 62
7
  6
CONTINUOUS
 10
15.7597720851
 20
12.1809259375
 11
15.7602794534
 21
12.1833173598
  0
LINE
  5
266
100
AcDbEntity
  8
0
100
AcDbLine
 62
7
  6
CONTINUOUS
 10
15.763883738
 20
12.2126143311
 11
15.7642278516
 21
12.214206802
  0
LINE
  5
267
100
AcDbEntity
  8
0
100
AcDbLine
 62
7
  6
CONTINUOUS
 10
15.7604873078
 20
12.183253128
 11
15.7722796428
 21
12.221413138
  0
LINE
  5
268
100
AcDbEntity
  8
0
100
AcDbLine
 62
7
  6
CONTINUOUS
 10
14.1696193834
 20
12.8542813815
 11
16.9328023654
 21
12.8542813815
  0
LINE
  5
269
100
AcDbEntity
  8
0
100
AcDbLine
 62
7
  6
CONTINUOUS
 10
16.4101974002
 20
12.2126143311
 11
16.4425554155
 21
12.1833173598
  0
LINE
  5
26A
100
AcDbEntity
  8
0
100
AcDbLine
 62
7
  6
CONTINUOUS
 10
16.2208099504
 20
12.1833173598
 11
16.224414235
 21
12.2126143311
  0
LINE
  5
26B
100
AcDbEntity
  8
0
100
AcDbLine
 62
7
  6
CONTINUOUS
 10
16.2203025821
 20
12.1809259375
 11
16.2208099504
 21
12.1833173598
  0
LINE
  5
26C
100
AcDbEntity
  8
0
100
AcDbLine
 62
7
  6
CONTINUOUS
 10
16.224414235
 20
12.2126143311
 11
16.2247583486
 21
12.214206802
  0
LINE
  5
26D
100
AcDbEntity
  8
0
100
AcDbLine
 62
7
  6
CONTINUOUS
 10
16.2210178048
 20
12.183253128
 11
16.2328101398
 21
12.221413138
  0
LINE
  5
26E
100
AcDbEntity
  8
0
100
AcDbLine
 62
7
  6
CONTINUOUS
 10
16.7726055535
 20
12.2232735015
 11
16.7512526229
 21
12.2667861993
  0
LINE
  5
26F
100
AcDbEntity
  8
0
100
AcDbLine
 62
7
  6
CONTINUOUS
 10
16.6813404474
 20
12.1833173598
 11
16.684944732
 21
12.2126143311
  0
LINE
  5
270
100
AcDbEntity
  8
0
100
AcDbLine
 62
7
  6
CONTINUOUS
 10
16.6808330791
 20
12.1809259375
 11
16.6813404474
 21
12.1833173598
  0
LINE
  5
271
100
AcDbEntity
  8
0
100
AcDbLine
 62
7
  6
CONTINUOUS
 10
16.684944732
 20
12.2126143311
 11
16.6852888456
 21
12.214206802
  0
LINE
  5
272
100
AcDbEntity
  8
0
100
AcDbLine
 62
7
  6
CONTINUOUS
 10
16.6815483018
 20
12.183253128
 11
16.6933406368
 21
12.221413138
  0
LINE
  5
273
100
AcDbEntity
  8
0
100
AcDbLine
 62
7
  6
CONTINUOUS
 10
16.9328023654
 20
12.8542813815
 11
16.7512526229
 21
12.2667861993
  0
LINE
  5
274
100
AcDbEntity
  8
0
100
AcDbLine
 62
7
  6
CONTINUOUS
 10
16.9541552961
 20
12.8107686837
 11
16.7726055535
 21
12.2232735015
  0
LINE
  5
275
100
AcDbEntity
  8
0
100
AcDbLine
 62
7
  6
CONTINUOUS
 10
16.9541552961
 20
12.8107686837
 11
16.9328023654
 21
12.8542813815
  0
ARC
  5
276
100
AcDbEntity
  8
0
100
AcDbCircle
 62
7
  6
CONTINUOUS
 10
5.2892372734
 20
5.4817865634
 40
0.0416666667
100
AcDbArc
 50
202.5
 51
270.0
  0
ARC
  5
277
100
AcDbEntity
  8
0
100
AcDbCircle
 62
7
  6
CONTINUOUS
 10
5.471497279
 20
5.4817865634
 40
0.0416666667
100
AcDbArc
 50
270.0
 51
337.5
  0
ARC
  5
278
100
AcDbEntity
  8
0
100
AcDbCircle
 62
7
  6
CONTINUOUS
 10
5.7892372734
 20
5.4817865634
 40
0.0416666667
100
AcDbArc
 50
202.5
 51
270.0
  0
ARC
  5
279
100
AcDbEntity
  8
0
100
AcDbCircle
 62
7
  6
CONTINUOUS
 10
5.971497279
 20
5.4817865634
 40
0.0416666667
100
AcDbArc
 50
270.0
 51
337.5
  0
ARC
  5
27A
100
AcDbEntity
  8
0
100
AcDbCircle
 62
7
  6
CONTINUOUS
 10
6.2892372734
 20
5.4817865634
 40
0.0416666667
100
AcDbArc
 50
202.5
 51
270.0
  0
ARC
  5
27B
100
AcDbEntity
  8
0
100
AcDbCircle
 62
7
  6
CONTINUOUS
 10
6.471497279
 20
5.4817865634
 40
0.0416666667
100
AcDbArc
 50
270.0
 51
337.5
  0
ARC
  5
27C
100
AcDbEntity
  8
0
100
AcDbCircle
 62
7
  6
CONTINUOUS
 10
4.971497279
 20
5.4817865634
 40
0.0416666667
100
AcDbArc
 50
270.0
 51
337.5
  0
ARC
  5
27D
100
AcDbEntity
  8
0
100
AcDbCircle
 62
7
  6
CONTINUOUS
 10
4.7892372734
 20
5.4817865634
 40
0.0416666667
100
AcDbArc
 50
202.5
 51
270.0
  0
ARC
  5
27E
100
AcDbEntity
  8
0
100
AcDbCircle
 62
7
  6
CONTINUOUS
 10
7.471497279
 20
5.4817865634
 40
0.0416666667
100
AcDbArc
 50
270.0
 51
337.5
  0
ARC
  5
27F
100
AcDbEntity
  8
0
100
AcDbCircle
 62
7
  6
CONTINUOUS
 10
7.2892372734
 20
5.4817865634
 40
0.0416666667
100
AcDbArc
 50
202.5
 51
270.0
  0
ARC
  5
280
100
AcDbEntity
  8
0
100
AcDbCircle
 62
7
  6
CONTINUOUS
 10
6.971497279
 20
5.4817865634
 40
0.0416666667
100
AcDbArc
 50
270.0
 51
337.5
  0
ARC
  5
281
100
AcDbEntity
  8
0
100
AcDbCircle
 62
7
  6
CONTINUOUS
 10
6.7892372734
 20
5.4817865634
 40
0.0416666667
100
AcDbArc
 50
202.5
 51
270.0
  0
ARC
  5
282
100
AcDbEntity
  8
0
100
AcDbCircle
 62
7
  6
CONTINUOUS
 10
5.0551777939
 20
5.502342119
 40
0.0277777778
100
AcDbArc
 50
90.0
 51
157.5
  0
ARC
  5
283
100
AcDbEntity
  8
0
100
AcDbCircle
 62
7
  6
CONTINUOUS
 10
4.7055567584
 20
5.502342119
 40
0.0277777778
100
AcDbArc
 50
22.5
 51
90.0
  0
ARC
  5
284
100
AcDbEntity
  8
0
100
AcDbCircle
 62
7
  6
CONTINUOUS
 10
5.5551777939
 20
5.502342119
 40
0.0277777778
100
AcDbArc
 50
90.0
 51
157.5
  0
ARC
  5
285
100
AcDbEntity
  8
0
100
AcDbCircle
 62
7
  6
CONTINUOUS
 10
5.2055567584
 20
5.502342119
 40
0.0277777778
100
AcDbArc
 50
22.5
 51
90.0
  0
ARC
  5
286
100
AcDbEntity
  8
0
100
AcDbCircle
 62
7
  6
CONTINUOUS
 10
6.0551777939
 20
5.502342119
 40
0.0277777778
100
AcDbArc
 50
90.0
 51
157.5
  0
ARC
  5
287
100
AcDbEntity
  8
0
100
AcDbCircle
 62
7
  6
CONTINUOUS
 10
5.7055567584
 20
5.502342119
 40
0.0277777778
100
AcDbArc
 50
22.5
 51
90.0
  0
ARC
  5
288
100
AcDbEntity
  8
0
100
AcDbCircle
 62
7
  6
CONTINUOUS
 10
6.5551777939
 20
5.502342119
 40
0.0277777778
100
AcDbArc
 50
90.0
 51
157.5
  0
ARC
  5
289
100
AcDbEntity
  8
0
100
AcDbCircle
 62
7
  6
CONTINUOUS
 10
6.2055567584
 20
5.502342119
 40
0.0277777778
100
AcDbArc
 50
22.5
 51
90.0
  0
ARC
  5
28A
100
AcDbEntity
  8
0
100
AcDbCircle
 62
7
  6
CONTINUOUS
 10
7.0551777939
 20
5.502342119
 40
0.0277777778
100
AcDbArc
 50
90.0
 51
157.5
  0
ARC
  5
28B
100
AcDbEntity
  8
0
100
AcDbCircle
 62
7
  6
CONTINUOUS
 10
6.7055567584
 20
5.502342119
 40
0.0277777778
100
AcDbArc
 50
22.5
 51
90.0
  0
ARC
  5
28C
100
AcDbEntity
  8
0
100
AcDbCircle
 62
7
  6
CONTINUOUS
 10
7.5551777939
 20
5.502342119
 40
0.0277777778
100
AcDbArc
 50
90.0
 51
157.5
  0
ARC
  5
28D
100
AcDbEntity
  8
0
100
AcDbCircle
 62
7
  6
CONTINUOUS
 10
7.2055567584
 20
5.502342119
 40
0.0277777778
100
AcDbArc
 50
22.5
 51
90.0
  0
SPLINE
  5
28E
100
AcDbEntity
  8
0
100
AcDbSpline
 62
7
  6
CONTINUOUS
 70
0
 71
3
 72
9
 73
5
 74
0
 42
0.0000001
 43
0.0000001
 44
0.0000000001
 40
0.0
 40
0.0
 40
0.0
 40
0.0
 40
0.4953329781
 40
1.0
 40
1.0
 40
1.0
 40
1.0
 10
14.3826337574
 20
12.214207607
 30
0.0
 10
14.3827841197
 20
12.2146932031
 30
0.0
 10
14.3831704824
 20
12.2156497145
 30
0.0
 10
14.3837080164
 20
12.2165297518
 30
0.0
 10
14.3840113871
 20
12.2169495248
 30
0.0
  0
SPLINE
  5
28F
100
AcDbEntity
  8
0
100
AcDbSpline
 62
7
  6
CONTINUOUS
 70
0
 71
3
 72
14
 73
10
 74
0
 42
0.0000001
 43
0.0000001
 44
0.0000000001
 40
0.0
 40
0.0
 40
0.0
 40
0.0
 40
0.1008720533
 40
0.2072980185
 40
0.3205376424
 40
0.4413689834
 40
0.7063103675
 40
0.8500853356
 40
1.0
 40
1.0
 40
1.0
 40
1.0
 10
14.3840113871
 20
12.2169495248
 30
0.0
 10
14.3843750513
 20
12.2174527258
 30
0.0
 10
14.385220098
 20
12.2184187812
 30
0.0
 10
14.3867490569
 20
12.2196769902
 30
0.0
 10
14.3885482615
 20
12.2207646987
 30
0.0
 10
14.3913634801
 20
12.2220088835
 30
0.0
 10
14.3945509443
 20
12.2228059531
 30
0.0
 10
14.3979673374
 20
12.2232067306
 30
0.0
 10
14.3997762608
 20
12.2232735015
 30
0.0
 10
14.4006989692
 20
12.2232735015
 30
0.0
  0
SPLINE
  5
290
100
AcDbEntity
  8
0
100
AcDbSpline
 62
7
  6
CONTINUOUS
 70
0
 71
3
 72
9
 73
5
 74
0
 42
0.0000001
 43
0.0000001
 44
0.0000000001
 40
0.0
 40
0.0
 40
0.0
 40
0.0
 40
0.4953329781
 40
1.0
 40
1.0
 40
1.0
 40
1.0
 10
14.8431642544
 20
12.214207607
 30
0.0
 10
14.8433146167
 20
12.2146932031
 30
0.0
 10
14.8437009794
 20
12.2156497145
 30
0.0
 10
14.8442385134
 20
12.2165297518
 30
0.0
 10
14.8445418841
 20
12.2169495248
 30
0.0
  0
SPLINE
  5
291
100
AcDbEntity
  8
0
100
AcDbSpline
 62
7
  6
CONTINUOUS
 70
0
 71
3
 72
14
 73
10
 74
0
 42
0.0000001
 43
0.0000001
 44
0.0000000001
 40
0.0
 40
0.0
 40
0.0
 40
0.0
 40
0.1008720533
 40
0.2072980185
 40
0.3205376424
 40
0.4413689834
 40
0.7063103675
 40
0.8500853356
 40
1.0
 40
1.0
 40
1.0
 40
1.0
 10
14.8445418841
 20
12.2169495248
 30
0.0
 10
14.8449055483
 20
12.2174527258
 30
0.0
 10
14.845750595
 20
12.2184187812
 30
0.0
 10
14.8472795539
 20
12.2196769902
 30
0.0
 10
14.8490787585
 20
12.2207646987
 30
0.0
 10
14.8518939771
 20
12.2220088835
 30
0.0
 10
14.8550814413
 20
12.2228059531
 30
0.0
 10
14.8584978344
 20
12.2232067306
 30
0.0
 10
14.8603067578
 20
12.2232735015
 30
0.0
 10
14.8612294662
 20
12.2232735015
 30
0.0
  0
SPLINE
  5
292
100
AcDbEntity
  8
0
100
AcDbSpline
 62
7
  6
CONTINUOUS
 70
0
 71
3
 72
9
 73
5
 74
0
 42
0.0000001
 43
0.0000001
 44
0.0000000001
 40
0.0
 40
0.0
 40
0.0
 40
0.0
 40
0.4953329781
 40
1.0
 40
1.0
 40
1.0
 40
1.0
 10
15.3036947514
 20
12.214207607
 30
0.0
 10
15.3038451137
 20
12.2146932031
 30
0.0
 10
15.3042314764
 20
12.2156497145
 30
0.0
 10
15.3047690104
 20
12.2165297518
 30
0.0
 10
15.3050723811
 20
12.2169495248
 30
0.0
  0
SPLINE
  5
293
100
AcDbEntity
  8
0
100
AcDbSpline
 62
7
  6
CONTINUOUS
 70
0
 71
3
 72
14
 73
10
 74
0
 42
0.0000001
 43
0.0000001
 44
0.0000000001
 40
0.0
 40
0.0
 40
0.0
 40
0.0
 40
0.1008720533
 40
0.2072980185
 40
0.3205376424
 40
0.4413689834
 40
0.7063103675
 40
0.8500853356
 40
1.0
 40
1.0
 40
1.0
 40
1.0
 10
15.3050723811
 20
12.2169495248
 30
0.0
 10
15.3054360453
 20
12.2174527258
 30
0.0
 10
15.306281092
 20
12.2184187812
 30
0.0
 10
15.3078100509
 20
12.2196769902
 30
0.0
 10
15.3096092555
 20
12.2207646987
 30
0.0
 10
15.3124244741
 20
12.2220088835
 30
0.0
 10
15.3156119383
 20
12.2228059531
 30
0.0
 10
15.3190283314
 20
12.2232067306
 30
0.0
 10
15.3208372548
 20
12.2232735015
 30
0.0
 10
15.3217599632
 20
12.2232735015
 30
0.0
  0
SPLINE
  5
294
100
AcDbEntity
  8
0
100
AcDbSpline
 62
7
  6
CONTINUOUS
 70
0
 71
3
 72
9
 73
5
 74
0
 42
0.0000001
 43
0.0000001
 44
0.0000000001
 40
0.0
 40
0.0
 40
0.0
 40
0.0
 40
0.4953329781
 40
1.0
 40
1.0
 40
1.0
 40
1.0
 10
15.7642252484
 20
12.214207607
 30
0.0
 10
15.7643756107
 20
12.2146932031
 30
0.0
 10
15.7647619734
 20
12.2156497145
 30
0.0
 10
15.7652995074
 20
12.2165297518
 30
0.0
 10
15.7656028781
 20
12.2169495248
 30
0.0
  0
SPLINE
  5
295
100
AcDbEntity
  8
0
100
AcDbSpline
 62
7
  6
CONTINUOUS
 70
0
 71
3
 72
14
 73
10
 74
0
 42
0.0000001
 43
0.0000001
 44
0.0000000001
 40
0.0
 40
0.0
 40
0.0
 40
0.0
 40
0.1008720533
 40
0.2072980185
 40
0.3205376424
 40
0.4413689834
 40
0.7063103675
 40
0.8500853356
 40
1.0
 40
1.0
 40
1.0
 40
1.0
 10
15.7656028781
 20
12.2169495248
 30
0.0
 10
15.7659665423
 20
12.2174527258
 30
0.0
 10
15.766811589
 20
12.2184187812
 30
0.0
 10
15.7683405479
 20
12.2196769902
 30
0.0
 10
15.7701397525
 20
12.2207646987
 30
0.0
 10
15.7729549711
 20
12.2220088835
 30
0.0
 10
15.7761424353
 20
12.2228059531
 30
0.0
 10
15.7795588284
 20
12.2232067306
 30
0.0
 10
15.7813677518
 20
12.2232735015
 30
0.0
 10
15.7822904602
 20
12.2232735015
 30
0.0
  0
SPLINE
  5
296
100
AcDbEntity
  8
0
100
AcDbSpline
 62
7
  6
CONTINUOUS
 70
0
 71
3
 72
9
 73
5
 74
0
 42
0.0000001
 43
0.0000001
 44
0.0000000001
 40
0.0
 40
0.0
 40
0.0
 40
0.0
 40
0.4953329781
 40
1.0
 40
1.0
 40
1.0
 40
1.0
 10
16.2247557454
 20
12.214207607
 30
0.0
 10
16.2249061077
 20
12.2146932031
 30
0.0
 10
16.2252924704
 20
12.2156497145
 30
0.0
 10
16.2258300044
 20
12.2165297518
 30
0.0
 10
16.2261333751
 20
12.2169495248
 30
0.0
  0
SPLINE
  5
297
100
AcDbEntity
  8
0
100
AcDbSpline
 62
7
  6
CONTINUOUS
 70
0
 71
3
 72
14
 73
10
 74
0
 42
0.0000001
 43
0.0000001
 44
0.0000000001
 40
0.0
 40
0.0
 40
0.0
 40
0.0
 40
0.1008720533
 40
0.2072980185
 40
0.3205376424
 40
0.4413689834
 40
0.7063103675
 40
0.8500853356
 40
1.0
 40
1.0
 40
1.0
 40
1.0
 10
16.2261333751
 20
12.2169495248
 30
0.0
 10
16.2264970393
 20
12.2174527258
 30
0.0
 10
16.227342086
 20
12.2184187812
 30
0.0
 10
16.2288710449
 20
12.2196769902
 30
0.0
 10
16.2306702495
 20
12.2207646987
 30
0.0
 10
16.2334854681
 20
12.2220088835
 30
0.0
 10
16.2366729323
 20
12.2228059531
 30
0.0
 10
16.2400893254
 20
12.2232067306
 30
0.0
 10
16.2418982488
 20
12.2232735015
 30
0.0
 10
16.2428209572
 20
12.2232735015
 30
0.0
  0
SPLINE
  5
298
100
AcDbEntity
  8
0
100
AcDbSpline
 62
7
  6
CONTINUOUS
 70
0
 71
3
 72
9
 73
5
 74
0
 42
0.0000001
 43
0.0000001
 44
0.0000000001
 40
0.0
 40
0.0
 40
0.0
 40
0.0
 40
0.4953329781
 40
1.0
 40
1.0
 40
1.0
 40
1.0
 10
16.6852862424
 20
12.214207607
 30
0.0
 10
16.6854366047
 20
12.2146932031
 30
0.0
 10
16.6858229674
 20
12.2156497145
 30
0.0
 10
16.6863605014
 20
12.2165297518
 30
0.0
 10
16.6866638721
 20
12.2169495248
 30
0.0
  0
SPLINE
  5
299
100
AcDbEntity
  8
0
100
AcDbSpline
 62
7
  6
CONTINUOUS
 70
0
 71
3
 72
14
 73
10
 74
0
 42
0.0000001
 43
0.0000001
 44
0.0000000001
 40
0.0
 40
0.0
 40
0.0
 40
0.0
 40
0.1008720533
 40
0.2072980185
 40
0.3205376424
 40
0.4413689834
 40
0.7063103675
 40
0.8500853356
 40
1.0
 40
1.0
 40
1.0
 40
1.0
 10
16.6866638721
 20
12.2169495248
 30
0.0
 10
16.6870275363
 20
12.2174527258
 30
0.0
 10
16.687872583
 20
12.2184187812
 30
0.0
 10
16.6894015419
 20
12.2196769902
 30
0.0
 10
16.6912007465
 20
12.2207646987
 30
0.0
 10
16.6940159651
 20
12.2220088835
 30
0.0
 10
16.6972034293
 20
12.2228059531
 30
0.0
 10
16.7006198224
 20
12.2232067306
 30
0.0
 10
16.7024287458
 20
12.2232735015
 30
0.0
 10
16.7033514542
 20
12.2232735015
 30
0.0
  0
SPLINE
  5
29A
100
AcDbEntity
  8
0
100
AcDbSpline
 62
7
  6
CONTINUOUS
 70
0
 71
3
 72
15
 73
11
 74
0
 42
0.0000001
 43
0.0000001
 44
0.0000000001
 40
0.0
 40
0.0
 40
0.0
 40
0.0
 40
0.1557507179
 40
0.303214252
 40
0.4410980268
 40
0.5690412007
 40
0.6873378821
 40
0.7970482199
 40
0.900275441
 40
1.0
 40
1.0
 40
1.0
 40
1.0
 10
14.351077879
 20
12.1673286043
 30
0.0
 10
14.352755421
 20
12.1673286043
 30
0.0
 10
14.3560237146
 20
12.1674734523
 30
0.0
 10
14.3607342476
 20
12.1681537867
 30
0.0
 10
14.36505073
 20
12.1692852818
 30
0.0
 10
14.36889562
 20
12.1708490492
 30
0.0
 10
14.3722029679
 20
12.1728217061
 30
0.0
 10
14.3749109878
 20
12.1751782858
 30
0.0
 10
14.3769614342
 20
12.1778820009
 30
0.0
 10
14.3778590515
 20
12.1799010833
 30
0.0
 10
14.3781763507
 20
12.180927249
 30
0.0
  0
SPLINE
  5
29B
100
AcDbEntity
  8
0
100
AcDbSpline
 62
7
  6
CONTINUOUS
 70
0
 71
3
 72
15
 73
11
 74
0
 42
0.0000001
 43
0.0000001
 44
0.0000000001
 40
0.0
 40
0.0
 40
0.0
 40
0.0
 40
0.1148729702
 40
0.2360780615
 40
0.3619573972
 40
0.4908828234
 40
0.6210130308
 40
0.7504589505
 40
0.8774378064
 40
1.0
 40
1.0
 40
1.0
 40
1.0
 10
14.1399029304
 20
12.1833173598
 30
0.0
 10
14.1412398939
 20
12.1821068722
 30
0.0
 10
14.1441364929
 20
12.1797805494
 30
0.0
 10
14.1489104898
 20
12.176682752
 30
0.0
 10
14.1541465196
 20
12.173938517
 30
0.0
 10
14.1597301932
 20
12.1716070527
 30
0.0
 10
14.1655430587
 20
12.1697355988
 30
0.0
 10
14.1714630771
 20
12.1683655951
 30
0.0
 10
14.177361208
 20
12.167527434
 30
0.0
 10
14.1812810354
 20
12.1673286043
 30
0.0
 10
14.1832052971
 20
12.1673286043
 30
0.0
  0
SPLINE
  5
29C
100
AcDbEntity
  8
0
100
AcDbSpline
 62
7
  6
CONTINUOUS
 70
0
 71
3
 72
15
 73
11
 74
0
 42
0.0000001
 43
0.0000001
 44
0.0000000001
 40
0.0
 40
0.0
 40
0.0
 40
0.0
 40
0.1557507179
 40
0.303214252
 40
0.4410980268
 40
0.5690412007
 40
0.6873378821
 40
0.7970482199
 40
0.900275441
 40
1.0
 40
1.0
 40
1.0
 40
1.0
 10
16.653730364
 20
12.1673286043
 30
0.0
 10
16.655407906
 20
12.1673286043
 30
0.0
 10
16.6586761996
 20
12.1674734523
 30
0.0
 10
16.6633867326
 20
12.1681537867
 30
0.0
 10
16.667703215
 20
12.1692852818
 30
0.0
 10
16.6715481051
 20
12.1708490492
 30
0.0
 10
16.6748554529
 20
12.1728217061
 30
0.0
 10
16.6775634728
 20
12.1751782858
 30
0.0
 10
16.6796139193
 20
12.1778820009
 30
0.0
 10
16.6805115365
 20
12.1799010833
 30
0.0
 10
16.6808288357
 20
12.180927249
 30
0.0
  0
SPLINE
  5
29D
100
AcDbEntity
  8
0
100
AcDbSpline
 62
7
  6
CONTINUOUS
 70
0
 71
3
 72
15
 73
11
 74
0
 42
0.0000001
 43
0.0000001
 44
0.0000000001
 40
0.0
 40
0.0
 40
0.0
 40
0.0
 40
0.1148729702
 40
0.2360780615
 40
0.3619573972
 40
0.4908828234
 40
0.6210130308
 40
0.7504589505
 40
0.8774378064
 40
1.0
 40
1.0
 40
1.0
 40
1.0
 10
16.4425554155
 20
12.1833173598
 30
0.0
 10
16.4438923789
 20
12.1821068722
 30
0.0
 10
16.4467889779
 20
12.1797805494
 30
0.0
 10
16.4515629748
 20
12.176682752
 30
0.0
 10
16.4567990046
 20
12.173938517
 30
0.0
 10
16.4623826783
 20
12.1716070527
 30
0.0
 10
16.4681955437
 20
12.1697355988
 30
0.0
 10
16.4741155621
 20
12.1683655951
 30
0.0
 10
16.480013693
 20
12.167527434
 30
0.0
 10
16.4839335204
 20
12.1673286043
 30
0.0
 10
16.4858577821
 20
12.1673286043
 30
0.0
  0
SPLINE
  5
29E
100
AcDbEntity
  8
0
100
AcDbSpline
 62
7
  6
CONTINUOUS
 70
0
 71
3
 72
15
 73
11
 74
0
 42
0.0000001
 43
0.0000001
 44
0.0000000001
 40
0.0
 40
0.0
 40
0.0
 40
0.0
 40
0.1557507179
 40
0.303214252
 40
0.4410980268
 40
0.5690412007
 40
0.6873378821
 40
0.7970482199
 40
0.900275441
 40
1.0
 40
1.0
 40
1.0
 40
1.0
 10
16.193199867
 20
12.1673286043
 30
0.0
 10
16.194877409
 20
12.1673286043
 30
0.0
 10
16.1981457026
 20
12.1674734523
 30
0.0
 10
16.2028562356
 20
12.1681537867
 30
0.0
 10
16.207172718
 20
12.1692852818
 30
0.0
 10
16.2110176081
 20
12.1708490492
 30
0.0
 10
16.2143249559
 20
12.1728217061
 30
0.0
 10
16.2170329758
 20
12.1751782858
 30
0.0
 10
16.2190834223
 20
12.1778820009
 30
0.0
 10
16.2199810395
 20
12.1799010833
 30
0.0
 10
16.2202983387
 20
12.180927249
 30
0.0
  0
SPLINE
  5
29F
100
AcDbEntity
  8
0
100
AcDbSpline
 62
7
  6
CONTINUOUS
 70
0
 71
3
 72
15
 73
11
 74
0
 42
0.0000001
 43
0.0000001
 44
0.0000000001
 40
0.0
 40
0.0
 40
0.0
 40
0.0
 40
0.1148729702
 40
0.2360780615
 40
0.3619573972
 40
0.4908828234
 40
0.6210130308
 40
0.7504589505
 40
0.8774378064
 40
1.0
 40
1.0
 40
1.0
 40
1.0
 10
15.9820249184
 20
12.1833173598
 30
0.0
 10
15.9833618819
 20
12.1821068722
 30
0.0
 10
15.9862584809
 20
12.1797805494
 30
0.0
 10
15.9910324778
 20
12.176682752
 30
0.0
 10
15.9962685076
 20
12.173938517
 30
0.0
 10
16.0018521813
 20
12.1716070527
 30
0.0
 10
16.0076650467
 20
12.1697355988
 30
0.0
 10
16.0135850651
 20
12.1683655951
 30
0.0
 10
16.019483196
 20
12.167527434
 30
0.0
 10
16.0234030234
 20
12.1673286043
 30
0.0
 10
16.0253272851
 20
12.1673286043
 30
0.0
  0
SPLINE
  5
2A0
100
AcDbEntity
  8
0
100
AcDbSpline
 62
7
  6
CONTINUOUS
 70
0
 71
3
 72
15
 73
11
 74
0
 42
0.0000001
 43
0.0000001
 44
0.0000000001
 40
0.0
 40
0.0
 40
0.0
 40
0.0
 40
0.1557507179
 40
0.303214252
 40
0.4410980268
 40
0.5690412007
 40
0.6873378821
 40
0.7970482199
 40
0.900275441
 40
1.0
 40
1.0
 40
1.0
 40
1.0
 10
15.73266937
 20
12.1673286043
 30
0.0
 10
15.734346912
 20
12.1673286043
 30
0.0
 10
15.7376152056
 20
12.1674734523
 30
0.0
 10
15.7423257386
 20
12.1681537867
 30
0.0
 10
15.746642221
 20
12.1692852818
 30
0.0
 10
15.7504871111
 20
12.1708490492
 30
0.0
 10
15.7537944589
 20
12.1728217061
 30
0.0
 10
15.7565024788
 20
12.1751782858
 30
0.0
 10
15.7585529253
 20
12.1778820009
 30
0.0
 10
15.7594505425
 20
12.1799010833
 30
0.0
 10
15.7597678417
 20
12.180927249
 30
0.0
  0
SPLINE
  5
2A1
100
AcDbEntity
  8
0
100
AcDbSpline
 62
7
  6
CONTINUOUS
 70
0
 71
3
 72
15
 73
11
 74
0
 42
0.0000001
 43
0.0000001
 44
0.0000000001
 40
0.0
 40
0.0
 40
0.0
 40
0.0
 40
0.1148729702
 40
0.2360780615
 40
0.3619573972
 40
0.4908828234
 40
0.6210130308
 40
0.7504589505
 40
0.8774378064
 40
1.0
 40
1.0
 40
1.0
 40
1.0
 10
15.5214944214
 20
12.1833173598
 30
0.0
 10
15.5228313849
 20
12.1821068722
 30
0.0
 10
15.5257279839
 20
12.1797805494
 30
0.0
 10
15.5305019808
 20
12.176682752
 30
0.0
 10
15.5357380106
 20
12.173938517
 30
0.0
 10
15.5413216843
 20
12.1716070527
 30
0.0
 10
15.5471345497
 20
12.1697355988
 30
0.0
 10
15.5530545681
 20
12.1683655951
 30
0.0
 10
15.558952699
 20
12.167527434
 30
0.0
 10
15.5628725264
 20
12.1673286043
 30
0.0
 10
15.5647967881
 20
12.1673286043
 30
0.0
  0
SPLINE
  5
2A2
100
AcDbEntity
  8
0
100
AcDbSpline
 62
7
  6
CONTINUOUS
 70
0
 71
3
 72
15
 73
11
 74
0
 42
0.0000001
 43
0.0000001
 44
0.0000000001
 40
0.0
 40
0.0
 40
0.0
 40
0.0
 40
0.1557507179
 40
0.303214252
 40
0.4410980268
 40
0.5690412007
 40
0.6873378821
 40
0.7970482199
 40
0.900275441
 40
1.0
 40
1.0
 40
1.0
 40
1.0
 10
15.272138873
 20
12.1673286043
 30
0.0
 10
15.273816415
 20
12.1673286043
 30
0.0
 10
15.2770847086
 20
12.1674734523
 30
0.0
 10
15.2817952416
 20
12.1681537867
 30
0.0
 10
15.286111724
 20
12.1692852818
 30
0.0
 10
15.289956614
 20
12.1708490492
 30
0.0
 10
15.2932639619
 20
12.1728217061
 30
0.0
 10
15.2959719818
 20
12.1751782858
 30
0.0
 10
15.2980224282
 20
12.1778820009
 30
0.0
 10
15.2989200455
 20
12.1799010833
 30
0.0
 10
15.2992373447
 20
12.180927249
 30
0.0
  0
SPLINE
  5
2A3
100
AcDbEntity
  8
0
100
AcDbSpline
 62
7
  6
CONTINUOUS
 70
0
 71
3
 72
15
 73
11
 74
0
 42
0.0000001
 43
0.0000001
 44
0.0000000001
 40
0.0
 40
0.0
 40
0.0
 40
0.0
 40
0.1148729702
 40
0.2360780615
 40
0.3619573972
 40
0.4908828234
 40
0.6210130308
 40
0.7504589505
 40
0.8774378064
 40
1.0
 40
1.0
 40
1.0
 40
1.0
 10
15.0609639244
 20
12.1833173598
 30
0.0
 10
15.0623008879
 20
12.1821068722
 30
0.0
 10
15.0651974869
 20
12.1797805494
 30
0.0
 10
15.0699714838
 20
12.176682752
 30
0.0
 10
15.0752075136
 20
12.173938517
 30
0.0
 10
15.0807911872
 20
12.1716070527
 30
0.0
 10
15.0866040527
 20
12.1697355988
 30
0.0
 10
15.0925240711
 20
12.1683655951
 30
0.0
 10
15.098422202
 20
12.167527434
 30
0.0
 10
15.1023420294
 20
12.1673286043
 30
0.0
 10
15.1042662911
 20
12.1673286043
 30
0.0
  0
SPLINE
  5
2A4
100
AcDbEntity
  8
0
100
AcDbSpline
 62
7
  6
CONTINUOUS
 70
0
 71
3
 72
15
 73
11
 74
0
 42
0.0000001
 43
0.0000001
 44
0.0000000001
 40
0.0
 40
0.0
 40
0.0
 40
0.0
 40
0.1557507179
 40
0.303214252
 40
0.4410980268
 40
0.5690412007
 40
0.6873378821
 40
0.7970482199
 40
0.900275441
 40
1.0
 40
1.0
 40
1.0
 40
1.0
 10
14.811608376
 20
12.1673286043
 30
0.0
 10
14.813285918
 20
12.1673286043
 30
0.0
 10
14.8165542116
 20
12.1674734523
 30
0.0
 10
14.8212647446
 20
12.1681537867
 30
0.0
 10
14.825581227
 20
12.1692852818
 30
0.0
 10
14.829426117
 20
12.1708490492
 30
0.0
 10
14.8327334649
 20
12.1728217061
 30
0.0
 10
14.8354414848
 20
12.1751782858
 30
0.0
 10
14.8374919312
 20
12.1778820009
 30
0.0
 10
14.8383895485
 20
12.1799010833
 30
0.0
 10
14.8387068477
 20
12.180927249
 30
0.0
  0
SPLINE
  5
2A5
100
AcDbEntity
  8
0
100
AcDbSpline
 62
7
  6
CONTINUOUS
 70
0
 71
3
 72
15
 73
11
 74
0
 42
0.0000001
 43
0.0000001
 44
0.0000000001
 40
0.0
 40
0.0
 40
0.0
 40
0.0
 40
0.1148729702
 40
0.2360780615
 40
0.3619573972
 40
0.4908828234
 40
0.6210130308
 40
0.7504589505
 40
0.8774378064
 40
1.0
 40
1.0
 40
1.0
 40
1.0
 10
14.6004334274
 20
12.1833173598
 30
0.0
 10
14.6017703909
 20
12.1821068722
 30
0.0
 10
14.6046669899
 20
12.1797805494
 30
0.0
 10
14.6094409868
 20
12.176682752
 30
0.0
 10
14.6146770166
 20
12.173938517
 30
0.0
 10
14.6202606902
 20
12.1716070527
 30
0.0
 10
14.6260735557
 20
12.1697355988
 30
0.0
 10
14.6319935741
 20
12.1683655951
 30
0.0
 10
14.637891705
 20
12.167527434
 30
0.0
 10
14.6418115324
 20
12.1673286043
 30
0.0
 10
14.6437357941
 20
12.1673286043
 30
0.0
  0
SPLINE
  5
2A6
100
AcDbEntity
  8
0
100
AcDbSpline
 62
7
  6
CONTINUOUS
 70
0
 71
3
 72
15
 73
11
 74
0
 42
0.0000001
 43
0.0000001
 44
0.0000000001
 40
0.0
 40
0.0
 40
0.0
 40
0.0
 40
0.1224854497
 40
0.24952484
 40
0.3790232372
 40
0.5091197724
 40
0.6380079251
 40
0.7639370009
 40
0.8851964883
 40
1.0
 40
1.0
 40
1.0
 40
1.0
 10
14.0786766708
 20
12.2232735015
 30
0.0
 10
14.0799587046
 20
12.2232735015
 30
0.0
 10
14.0825716839
 20
12.2231402433
 30
0.0
 10
14.0865043058
 20
12.2225826152
 30
0.0
 10
14.0904516129
 20
12.2216683305
 30
0.0
 10
14.09432696
 20
12.2204216817
 30
0.0
 10
14.0980488147
 20
12.218866568
 30
0.0
 10
14.1015404918
 20
12.2170374527
 30
0.0
 10
14.1047227529
 20
12.214970997
 30
0.0
 10
14.106654148
 20
12.2134208325
 30
0.0
 10
14.1075449152
 20
12.2126143311
 30
0.0
  0
SPLINE
  5
2A7
100
AcDbEntity
  8
0
100
AcDbSpline
 62
7
  6
CONTINUOUS
 70
0
 71
3
 72
15
 73
11
 74
0
 42
0.0000001
 43
0.0000001
 44
0.0000000001
 40
0.0
 40
0.0
 40
0.0
 40
0.0
 40
0.1224854497
 40
0.24952484
 40
0.3790232372
 40
0.5091197724
 40
0.6380079251
 40
0.7639370009
 40
0.8851964883
 40
1.0
 40
1.0
 40
1.0
 40
1.0
 10
14.5392071678
 20
12.2232735015
 30
0.0
 10
14.5404892016
 20
12.2232735015
 30
0.0
 10
14.5431021809
 20
12.2231402433
 30
0.0
 10
14.5470348028
 20
12.2225826152
 30
0.0
 10
14.5509821099
 20
12.2216683305
 30
0.0
 10
14.554857457
 20
12.2204216817
 30
0.0
 10
14.5585793117
 20
12.218866568
 30
0.0
 10
14.5620709888
 20
12.2170374527
 30
0.0
 10
14.5652532499
 20
12.214970997
 30
0.0
 10
14.567184645
 20
12.2134208325
 30
0.0
 10
14.5680754122
 20
12.2126143311
 30
0.0
  0
SPLINE
  5
2A8
100
AcDbEntity
  8
0
100
AcDbSpline
 62
7
  6
CONTINUOUS
 70
0
 71
3
 72
15
 73
11
 74
0
 42
0.0000001
 43
0.0000001
 44
0.0000000001
 40
0.0
 40
0.0
 40
0.0
 40
0.0
 40
0.1224854497
 40
0.24952484
 40
0.3790232372
 40
0.5091197724
 40
0.6380079251
 40
0.7639370009
 40
0.8851964883
 40
1.0
 40
1.0
 40
1.0
 40
1.0
 10
14.9997376648
 20
12.2232735015
 30
0.0
 10
15.0010196986
 20
12.2232735015
 30
0.0
 10
15.0036326779
 20
12.2231402433
 30
0.0
 10
15.0075652998
 20
12.2225826152
 30
0.0
 10
15.0115126069
 20
12.2216683305
 30
0.0
 10
15.015387954
 20
12.2204216817
 30
0.0
 10
15.0191098087
 20
12.218866568
 30
0.0
 10
15.0226014858
 20
12.2170374527
 30
0.0
 10
15.0257837469
 20
12.214970997
 30
0.0
 10
15.027715142
 20
12.2134208325
 30
0.0
 10
15.0286059092
 20
12.2126143311
 30
0.0
  0
SPLINE
  5
2A9
100
AcDbEntity
  8
0
100
AcDbSpline
 62
7
  6
CONTINUOUS
 70
0
 71
3
 72
15
 73
11
 74
0
 42
0.0000001
 43
0.0000001
 44
0.0000000001
 40
0.0
 40
0.0
 40
0.0
 40
0.0
 40
0.1224854497
 40
0.24952484
 40
0.3790232372
 40
0.5091197724
 40
0.6380079251
 40
0.7639370009
 40
0.8851964883
 40
1.0
 40
1.0
 40
1.0
 40
1.0
 10
15.4602681618
 20
12.2232735015
 30
0.0
 10
15.4615501957
 20
12.2232735015
 30
0.0
 10
15.4641631749
 20
12.2231402433
 30
0.0
 10
15.4680957968
 20
12.2225826152
 30
0.0
 10
15.4720431039
 20
12.2216683305
 30
0.0
 10
15.475918451
 20
12.2204216817
 30
0.0
 10
15.4796403057
 20
12.218866568
 30
0.0
 10
15.4831319828
 20
12.2170374527
 30
0.0
 10
15.4863142439
 20
12.214970997
 30
0.0
 10
15.488245639
 20
12.2134208325
 30
0.0
 10
15.4891364062
 20
12.2126143311
 30
0.0
  0
SPLINE
  5
2AA
100
AcDbEntity
  8
0
100
AcDbSpline
 62
7
  6
CONTINUOUS
 70
0
 71
3
 72
15
 73
11
 74
0
 42
0.0000001
 43
0.0000001
 44
0.0000000001
 40
0.0
 40
0.0
 40
0.0
 40
0.0
 40
0.1224854497
 40
0.24952484
 40
0.3790232372
 40
0.5091197724
 40
0.6380079251
 40
0.7639370009
 40
0.8851964883
 40
1.0
 40
1.0
 40
1.0
 40
1.0
 10
15.9207986588
 20
12.2232735015
 30
0.0
 10
15.9220806927
 20
12.2232735015
 30
0.0
 10
15.9246936719
 20
12.2231402433
 30
0.0
 10
15.9286262938
 20
12.2225826152
 30
0.0
 10
15.9325736009
 20
12.2216683305
 30
0.0
 10
15.936448948
 20
12.2204216817
 30
0.0
 10
15.9401708027
 20
12.218866568
 30
0.0
 10
15.9436624798
 20
12.2170374527
 30
0.0
 10
15.9468447409
 20
12.214970997
 30
0.0
 10
15.948776136
 20
12.2134208325
 30
0.0
 10
15.9496669032
 20
12.2126143311
 30
0.0
  0
SPLINE
  5
2AB
100
AcDbEntity
  8
0
100
AcDbSpline
 62
7
  6
CONTINUOUS
 70
0
 71
3
 72
15
 73
11
 74
0
 42
0.0000001
 43
0.0000001
 44
0.0000000001
 40
0.0
 40
0.0
 40
0.0
 40
0.0
 40
0.1224854497
 40
0.24952484
 40
0.3790232372
 40
0.5091197724
 40
0.6380079251
 40
0.7639370009
 40
0.8851964883
 40
1.0
 40
1.0
 40
1.0
 40
1.0
 10
16.3813291558
 20
12.2232735015
 30
0.0
 10
16.3826111897
 20
12.2232735015
 30
0.0
 10
16.3852241689
 20
12.2231402433
 30
0.0
 10
16.3891567908
 20
12.2225826152
 30
0.0
 10
16.3931040979
 20
12.2216683305
 30
0.0
 10
16.396979445
 20
12.2204216817
 30
0.0
 10
16.4007012997
 20
12.218866568
 30
0.0
 10
16.4041929768
 20
12.2170374527
 30
0.0
 10
16.4073752379
 20
12.214970997
 30
0.0
 10
16.409306633
 20
12.2134208325
 30
0.0
 10
16.4101974002
 20
12.2126143311
 30
0.0
  0
ENDSEC
  0
SECTION
  2
OBJECTS
  0
DICTIONARY
  5
C
100
AcDbDictionary
280
0
281
1
  3
ACAD_GROUP
350
D
  3
ACAD_MLINESTYLE
350
17
  3
ACAD_LAYOUT
350
1A
  3
ACAD_PLOTSETTINGS
350
19
  3
ACAD_PLOTSTYLENAME
350
E
  0
DICTIONARY
  5
D
102
{ACAD_REACTORS
330
C
102
}
100
AcDbDictionary
280
0
281
1
  0
ACDBDICTIONARYWDFLT
  5
E
102
{ACAD_REACTORS
330
C
102
}
100
AcDbDictionary
281
1
  3
Normal
350
F
100
AcDbDictionaryWithDefault
340
F
  0
DICTIONARY
  5
17
102
{ACAD_REACTORS
330
C
102
}
100
AcDbDictionary
280
0
281
1
  3
Standard
350
18
  0
DICTIONARY
  5
19
102
{ACAD_REACTORS
330
C
102
}
100
AcDbDictionary
281
1
  0
DICTIONARY
  5
1A
102
{ACAD_REACTORS
330
C
102
}
100
AcDbDictionary
281
1
  3
Model
350
2AC
  3
Layout1
350
2AD
  0
ACDBPLACEHOLDER
  5
F
102
{ACAD_REACTORS
330
E
102
}
  0
MLINESTYLE
  5
18
102
{ACAD_REACTORS
330
17
102
}
100
AcDbMlineStyle
  2
STANDARD
 70
0
  3

 62
256
 51
90.0
 52
90.0
 71
2
 49
0.5
 62
256
  6
BYLAYER
 49
-0.5
 62
256
  6
BYLAYER
  0
LAYOUT
  5
2AC
102
{ACAD_REACTORS
330
1A
102
}
100
AcDbPlotSettings
  1

  2
none_device
  4
ANSI_C_(22.00_x_17.00_Inches)
  6

 40
0.0
 41
0.0
 42
0.0
 43
0.0
 44
558.8
 45
431.8
 46
0.0
 47
0.0
 48
0.0
 49
0.0
140
0.0
141
0.0
142
1.0
143
1.0
 70
1024
 72
0
 73
0
 74
0
  7

 75
0
147
1.0
148
0.0
149
0.0
100
AcDbLayout
  1
Model
 70
0
 71
0
 10
0.0
 20
0.0
 11
22.0
 21
17.0
 12
0.0
 22
0.0
 32
0.0
 14
0.0
 24
0.0
 34
0.0
 15
0.0
 25
0.0
 35
0.0
146
0.0
 13
0.0
 23
0.0
 33
0.0
 16
1.0
 26
0.0
 36
0.0
 17
0.0
 27
1.0
 37
0.0
 76
0
330
216
345
0
346
0
  0
LAYOUT
  5
2AD
102
{ACAD_REACTORS
330
1A
102
}
100
AcDbPlotSettings
  1

  2
none_device
  4
ANSI_C_(22.00_x_17.00_Inches)
  6

 40
0.0
 41
0.0
 42
0.0
 43
0.0
 44
558.8
 45
431.8
 46
0.0
 47
0.0
 48
0.0
 49
0.0
140
0.0
141
0.0
142
1.0
143
1.0
 70
0
 72
0
 73
0
 74
0
  7

 75
0
147
1.0
148
0.0
149
0.0
100
AcDbLayout
  1
Layout1
 70
0
 71
1
 10
0.0
 20
0.0
 11
22.0
 21
17.0
 12
0.0
 22
0.0
 32
0.0
 14
0.0
 24
0.0
 34
0.0
 15
0.0
 25
0.0
 35
0.0
146
0.0
 13
0.0
 23
0.0
 33
0.0
 16
1.0
 26
0.0
 36
0.0
 17
0.0
 27
1.0
 37
0.0
 76
0
330
217
345
0
346
0
  0
ENDSEC
  0
EOF