0
SECTION
  2
HEADER
  9
$ACADVER
  1
AC1027
  9
$ACADMAINTVER
 70
     8
  9
$DWGCODEPAGE
  3
ANSI_1252
  9
$REQUIREDVERSIONS
160
                 0
  9
$COMMENTS
  1
File was created by Cadenas
  9
$CUSTOMPROPERTYTAG
  1
NN
  9
$CUSTOMPROPERTY
  1
BB1_001_101
  9
$CUSTOMPROPERTYTAG
  1
NT
  9
$CUSTOMPROPERTY
  1
Deep groove ball bearings, single row
  9
$CUSTOMPROPERTYTAG
  1
NB
  9
$CUSTOMPROPERTY
  1
6015 M
  9
$CUSTOMPROPERTYTAG
  1
NBSYN
  9
$CUSTOMPROPERTY
  1
$DESIGNATION.
  9
$CUSTOMPROPERTYTAG
  1
LINA
  9
$CUSTOMPROPERTY
  1
6015 M
  9
$CUSTOMPROPERTYTAG
  1
DESIGNATION
  9
$CUSTOMPROPERTY
  1
6015 M
  9
$CUSTOMPROPERTYTAG
  1
DD
  9
$CUSTOMPROPERTY
  1
75.000
  9
$CUSTOMPROPERTYTAG
  1
D
  9
$CUSTOMPROPERTY
  1
115.000
  9
$CUSTOMPROPERTYTAG
  1
B
  9
$CUSTOMPROPERTY
  1
20.000
  9
$CUSTOMPROPERTYTAG
  1
LOAD1
  9
$CUSTOMPROPERTY
  1
41.600
  9
$CUSTOMPROPERTYTAG
  1
LOAD2
  9
$CUSTOMPROPERTY
  1
33.500
  9
$CUSTOMPROPERTYTAG
  1
LOAD3
  9
$CUSTOMPROPERTY
  1
1.430
  9
$CUSTOMPROPERTYTAG
  1
SPEED1
  9
$CUSTOMPROPERTY
  1
12000
  9
$CUSTOMPROPERTYTAG
  1
SPEED2
  9
$CUSTOMPROPERTY
  1
10000
  9
$CUSTOMPROPERTYTAG
  1
COMPANY
  9
$CUSTOMPROPERTY
  1
SKF
  9
$INSBASE
 10
0.0
 20
0.0
 30
0.0
  9
$EXTMIN
 10
1.000000000000000E+20
 20
1.000000000000000E+20
 30
1.000000000000000E+20
  9
$EXTMAX
 10
-1.000000000000000E+20
 20
-1.000000000000000E+20
 30
-1.000000000000000E+20
  9
$LIMMIN
 10
0.0
 20
0.0
  9
$LIMMAX
 10
420.0
 20
297.0
  9
$ORTHOMODE
 70
     0
  9
$REGENMODE
 70
     1
  9
$FILLMODE
 70
     1
  9
$QTEXTMODE
 70
     0
  9
$MIRRTEXT
 70
     1
  9
$LTSCALE
 40
1.0
  9
$ATTMODE
 70
     1
  9
$TEXTSIZE
 40
2.5
  9
$TRACEWID
 40
1.0
  9
$TEXTSTYLE
  7
Standard
  9
$CLAYER
  8
0
  9
$CELTYPE
  6
ByLayer
  9
$CECOLOR
 62
   256
  9
$CELTSCALE
 40
1.0
  9
$DISPSILH
 70
     0
  9
$DIMSCALE
 40
1.0
  9
$DIMASZ
 40
2.5
  9
$DIMEXO
 40
0.625
  9
$DIMDLI
 40
3.75
  9
$DIMRND
 40
0.0
  9
$DIMDLE
 40
0.0
  9
$DIMEXE
 40
1.25
  9
$DIMTP
 40
0.0
  9
$DIMTM
 40
0.0
  9
$DIMTXT
 40
2.5
  9
$DIMCEN
 40
2.5
  9
$DIMTSZ
 40
0.0
  9
$DIMTOL
 70
     0
  9
$DIMLIM
 70
     0
  9
$DIMTIH
 70
     0
  9
$DIMTOH
 70
     0
  9
$DIMSE1
 70
     0
  9
$DIMSE2
 70
     0
  9
$DIMTAD
 70
     1
  9
$DIMZIN
 70
     8
  9
$DIMBLK
  1

  9
$DIMASO
 70
     1
  9
$DIMSHO
 70
     1
  9
$DIMPOST
  1

  9
$DIMAPOST
  1

  9
$DIMALT
 70
     0
  9
$DIMALTD
 70
     3
  9
$DIMALTF
 40
0.03937007874016
  9
$DIMLFAC
 40
1.0
  9
$DIMTOFL
 70
     1
  9
$DIMTVP
 40
0.0
  9
$DIMTIX
 70
     0
  9
$DIMSOXD
 70
     0
  9
$DIMSAH
 70
     0
  9
$DIMBLK1
  1

  9
$DIMBLK2
  1

  9
$DIMSTYLE
  2
ISO-25
  9
$DIMCLRD
 70
     0
  9
$DIMCLRE
 70
     0
  9
$DIMCLRT
 70
     0
  9
$DIMTFAC
 40
1.0
  9
$DIMGAP
 40
0.625
  9
$DIMJUST
 70
     0
  9
$DIMSD1
 70
     0
  9
$DIMSD2
 70
     0
  9
$DIMTOLJ
 70
     0
  9
$DIMTZIN
 70
     8
  9
$DIMALTZ
 70
     0
  9
$DIMALTTZ
 70
     0
  9
$DIMUPT
 70
     0
  9
$DIMDEC
 70
     2
  9
$DIMTDEC
 70
     2
  9
$DIMALTU
 70
     2
  9
$DIMALTTD
 70
     3
  9
$DIMTXSTY
  7
Standard
  9
$DIMAUNIT
 70
     0
  9
$DIMADEC
 70
     0
  9
$DIMALTRND
 40
0.0
  9
$DIMAZIN
 70
     0
  9
$DIMDSEP
 70
    44
  9
$DIMATFIT
 70
     3
  9
$DIMFRAC
 70
     0
  9
$DIMLDRBLK
  1

  9
$DIMLUNIT
 70
     2
  9
$DIMLWD
 70
    -2
  9
$DIMLWE
 70
    -2
  9
$DIMTMOVE
 70
     0
  9
$DIMFXL
 40
1.0
  9
$DIMFXLON
 70
     0
  9
$DIMJOGANG
 40
0.7853981633974483
  9
$DIMTFILL
 70
     0
  9
$DIMTFILLCLR
 70
     0
  9
$DIMARCSYM
 70
     0
  9
$DIMLTYPE
  6

  9
$DIMLTEX1
  6

  9
$DIMLTEX2
  6

  9
$DIMTXTDIRECTION
 70
     0
  9
$LUNITS
 70
     2
  9
$LUPREC
 70
     4
  9
$SKETCHINC
 40
1.0
  9
$FILLETRAD
 40
10.0
  9
$AUNITS
 70
     0
  9
$AUPREC
 70
     0
  9
$MENU
  1
.
  9
$ELEVATION
 40
0.0
  9
$PELEVATION
 40
0.0
  9
$THICKNESS
 40
0.0
  9
$LIMCHECK
 70
     0
  9
$CHAMFERA
 40
0.0
  9
$CHAMFERB
 40
0.0
  9
$CHAMFERC
 40
0.0
  9
$CHAMFERD
 40
0.0
  9
$SKPOLY
 70
     0
  9
$TDCREATE
 40
2457943.954766585
  9
$TDUCREATE
 40
2457943.871433252
  9
$TDUPDATE
 40
2457943.954777431
  9
$TDUUPDATE
 40
2457943.871444097
  9
$TDINDWG
 40
0.0000000116
  9
$TDUSRTIMER
 40
0.0000000116
  9
$USRTIMER
 70
     1
  9
$ANGBASE
 50
0.0
  9
$ANGDIR
 70
     0
  9
$PDMODE
 70
     0
  9
$PDSIZE
 40
0.0
  9
$PLINEWID
 40
0.0
  9
$SPLFRAME
 70
     0
  9
$SPLINETYPE
 70
     6
  9
$SPLINESEGS
 70
     8
  9
$HANDSEED
  5
1DC
  9
$SURFTAB1
 70
     6
  9
$SURFTAB2
 70
     6
  9
$SURFTYPE
 70
     6
  9
$SURFU
 70
     6
  9
$SURFV
 70
     6
  9
$UCSBASE
  2

  9
$UCSNAME
  2

  9
$UCSORG
 10
0.0
 20
0.0
 30
0.0
  9
$UCSXDIR
 10
1.0
 20
0.0
 30
0.0
  9
$UCSYDIR
 10
0.0
 20
1.0
 30
0.0
  9
$UCSORTHOREF
  2

  9
$UCSORTHOVIEW
 70
     0
  9
$UCSORGTOP
 10
0.0
 20
0.0
 30
0.0
  9
$UCSORGBOTTOM
 10
0.0
 20
0.0
 30
0.0
  9
$UCSORGLEFT
 10
0.0
 20
0.0
 30
0.0
  9
$UCSORGRIGHT
 10
0.0
 20
0.0
 30
0.0
  9
$UCSORGFRONT
 10
0.0
 20
0.0
 30
0.0
  9
$UCSORGBACK
 10
0.0
 20
0.0
 30
0.0
  9
$PUCSBASE
  2

  9
$PUCSNAME
  2

  9
$PUCSORG
 10
0.0
 20
0.0
 30
0.0
  9
$PUCSXDIR
 10
1.0
 20
0.0
 30
0.0
  9
$PUCSYDIR
 10
0.0
 20
1.0
 30
0.0
  9
$PUCSORTHOREF
  2

  9
$PUCSORTHOVIEW
 70
     0
  9
$PUCSORGTOP
 10
0.0
 20
0.0
 30
0.0
  9
$PUCSORGBOTTOM
 10
0.0
 20
0.0
 30
0.0
  9
$PUCSORGLEFT
 10
0.0
 20
0.0
 30
0.0
  9
$PUCSORGRIGHT
 10
0.0
 20
0.0
 30
0.0
  9
$PUCSORGFRONT
 10
0.0
 20
0.0
 30
0.0
  9
$PUCSORGBACK
 10
0.0
 20
0.0
 30
0.0
  9
$USERI1
 70
     0
  9
$USERI2
 70
     0
  9
$USERI3
 70
     0
  9
$USERI4
 70
     0
  9
$USERI5
 70
     0
  9
$USERR1
 40
0.0
  9
$USERR2
 40
0.0
  9
$USERR3
 40
0.0
  9
$USERR4
 40
0.0
  9
$USERR5
 40
0.0
  9
$WORLDVIEW
 70
     1
  9
$SHADEDGE
 70
     3
  9
$SHADEDIF
 70
    70
  9
$TILEMODE
 70
     1
  9
$MAXACTVP
 70
    64
  9
$PINSBASE
 10
0.0
 20
0.0
 30
0.0
  9
$PLIMCHECK
 70
     0
  9
$PEXTMIN
 10
1.000000000000000E+20
 20
1.000000000000000E+20
 30
1.000000000000000E+20
  9
$PEXTMAX
 10
-1.000000000000000E+20
 20
-1.000000000000000E+20
 30
-1.000000000000000E+20
  9
$PLIMMIN
 10
0.0
 20
0.0
  9
$PLIMMAX
 10
420.0
 20
297.0
  9
$UNITMODE
 70
     0
  9
$VISRETAIN
 70
     1
  9
$PLINEGEN
 70
     0
  9
$PSLTSCALE
 70
     1
  9
$TREEDEPTH
 70
  3020
  9
$CMLSTYLE
  2
Standard
  9
$CMLJUST
 70
     0
  9
$CMLSCALE
 40
20.0
  9
$PROXYGRAPHICS
 70
     1
  9
$MEASUREMENT
 70
     1
  9
$CELWEIGHT
370
    -1
  9
$ENDCAPS
280
     0
  9
$JOINSTYLE
280
     0
  9
$LWDISPLAY
290
     0
  9
$INSUNITS
 70
     4
  9
$HYPERLINKBASE
  1

  9
$STYLESHEET
  1

  9
$XEDIT
290
     1
  9
$CEPSNTYPE
380
     0
  9
$PSTYLEMODE
290
     1
  9
$FINGERPRINTGUID
  2
{C8CDEA0C-CDC0-45EA-B3F1-6D56807ACB7C}
  9
$VERSIONGUID
  2
{FAEB1C32-E019-11D5-929B-00C0DF256EC4}
  9
$EXTNAMES
290
     1
  9
$PSVPSCALE
 40
0.0
  9
$OLESTARTUP
290
     0
  9
$SORTENTS
280
   127
  9
$INDEXCTL
280
     0
  9
$HIDETEXT
280
     1
  9
$XCLIPFRAME
280
     2
  9
$HALOGAP
280
     0
  9
$OBSCOLOR
 70
   257
  9
$OBSLTYPE
280
     0
  9
$INTERSECTIONDISPLAY
280
     0
  9
$INTERSECTIONCOLOR
 70
   257
  9
$DIMASSOC
280
     2
  9
$PROJECTNAME
  1

  9
$CAMERADISPLAY
290
     0
  9
$LENSLENGTH
 40
50.0
  9
$CAMERAHEIGHT
 40
0.0
  9
$STEPSPERSEC
 40
2.0
  9
$STEPSIZE
 40
6.0
  9
$3DDWFPREC
 40
2.0
  9
$PSOLWIDTH
 40
5.0
  9
$PSOLHEIGHT
 40
80.0
  9
$LOFTANG1
 40
1.570796326794897
  9
$LOFTANG2
 40
1.570796326794897
  9
$LOFTMAG1
 40
0.0
  9
$LOFTMAG2
 40
0.0
  9
$LOFTPARAM
 70
     7
  9
$LOFTNORMALS
280
     1
  9
$LATITUDE
 40
37.795
  9
$LONGITUDE
 40
-122.394
  9
$NORTHDIRECTION
 40
0.0
  9
$TIMEZONE
 70
 -8000
  9
$LIGHTGLYPHDISPLAY
280
     1
  9
$TILEMODELIGHTSYNCH
280
     1
  9
$CMATERIAL
347
44
  9
$SOLIDHIST
280
     0
  9
$SHOWHIST
280
     1
  9
$DWFFRAME
280
     2
  9
$DGNFRAME
280
     2
  9
$REALWORLDSCALE
290
     1
  9
$INTERFERECOLOR
 62
   256
  9
$CSHADOW
280
     0
  9
$SHADOWPLANELOCATION
 40
0.0
  0
ENDSEC
  0
SECTION
  2
CLASSES
  0
CLASS
  1
ACDBDICTIONARYWDFLT
  2
AcDbDictionaryWithDefault
  3
ObjectDBX Classes
 90
        0
 91
        4
280
     0
281
     0
  0
CLASS
  1
VISUALSTYLE
  2
AcDbVisualStyle
  3
ObjectDBX Classes
 90
     4095
 91
        4
280
     0
281
     0
  0
CLASS
  1
MATERIAL
  2
AcDbMaterial
  3
ObjectDBX Classes
 90
     1153
 91
        4
280
     0
281
     0
  0
CLASS
  1
SCALE
  2
AcDbScale
  3
ObjectDBX Classes
 90
     1153
 91
        4
280
     0
281
     0
  0
CLASS
  1
TABLESTYLE
  2
AcDbTableStyle
  3
ObjectDBX Classes
 90
     4095
 91
        4
280
     0
281
     0
  0
CLASS
  1
MLEADERSTYLE
  2
AcDbMLeaderStyle
  3
ACDB_MLEADERSTYLE_CLASS
 90
     4095
 91
        4
280
     0
281
     0
  0
CLASS
  1
SUN
  2
AcDbSun
  3
SCENEOE
 90
     1153
 91
        4
280
     0
281
     0
  0
CLASS
  1
DICTIONARYVAR
  2
AcDbDictionaryVar
  3
ObjectDBX Classes
 90
        0
 91
        4
280
     0
281
     0
  0
CLASS
  1
CELLSTYLEMAP
  2
AcDbCellStyleMap
  3
ObjectDBX Classes
 90
     1152
 91
        4
280
     0
281
     0
  0
ENDSEC
  0
SECTION
  2
TABLES
  0
TABLE
  2
VPORT
  5
8
330
0
100
AcDbSymbolTable
 70
     1
  0
VPORT
  5
29
330
8
100
AcDbSymbolTableRecord
100
AcDbViewportTableRecord
  2
*Active
 70
     0
 10
0.0
 20
0.0
 11
1.0
 21
1.0
 12
14.79761904761921
 22
0.2500000000000284
 13
0.0
 23
0.0
 14
10.0
 24
10.0
 15
10.0
 25
10.0
 16
0.0
 26
0.0
 36
1.0
 17
0.0
 27
0.0
 37
0.0
 40
117.8100000000001
 41
0.2562358276644017
 42
50.0
 43
0.0
 44
0.0
 50
0.0
 51
0.0
 71
     0
 72
   100
 73
     1
 74
     3
 75
     0
 76
     0
 77
     0
 78
     0
281
     0
 65
     1
110
0.0
120
0.0
130
0.0
111
1.0
121
0.0
131
0.0
112
0.0
122
1.0
132
0.0
 79
     0
146
0.0
348
2F
 60
     3
 61
     5
292
     1
282
     1
141
0.0
142
0.0
 63
   250
361
6D
  0
ENDTAB
  0
TABLE
  2
LTYPE
  5
5
330
0
100
AcDbSymbolTable
 70
     1
  0
LTYPE
  5
14
330
5
100
AcDbSymbolTableRecord
100
AcDbLinetypeTableRecord
  2
ByBlock
 70
     0
  3

 72
    65
 73
     0
 40
0.0
  0
LTYPE
  5
15
330
5
100
AcDbSymbolTableRecord
100
AcDbLinetypeTableRecord
  2
ByLayer
 70
     0
  3

 72
    65
 73
     0
 40
0.0
  0
LTYPE
  5
16
330
5
100
AcDbSymbolTableRecord
100
AcDbLinetypeTableRecord
  2
Continuous
 70
     0
  3
Solid line
 72
    65
 73
     0
 40
0.0
  0
ENDTAB
  0
TABLE
  2
LAYER
  5
2
330
0
100
AcDbSymbolTable
 70
     3
  0
LAYER
  5
10
330
2
100
AcDbSymbolTableRecord
100
AcDbLayerTableRecord
  2
0
 70
     0
 62
     7
  6
Continuous
370
    -3
390
F
347
46
348
0
  0
LAYER
  5
6E
330
2
100
AcDbSymbolTableRecord
100
AcDbLayerTableRecord
  2
AM_6
 70
     0
 62
    -2
  6
Continuous
370
    35
390
F
347
46
348
0
  0
LAYER
  5
82
330
2
100
AcDbSymbolTableRecord
100
AcDbLayerTableRecord
  2
AM_0
 70
     0
 62
     2
  6
Continuous
370
    35
390
F
347
46
348
0
  0
ENDTAB
  0
TABLE
  2
STYLE
  5
3
330
0
100
AcDbSymbolTable
 70
     1
  0
STYLE
  5
11
330
3
100
AcDbSymbolTableRecord
100
AcDbTextStyleTableRecord
  2
Standard
 70
     0
 40
0.0
 41
1.0
 50
0.0
 71
     0
 42
2.5
  3
txt
  4

  0
ENDTAB
  0
TABLE
  2
VIEW
  5
6
330
0
100
AcDbSymbolTable
 70
     0
  0
ENDTAB
  0
TABLE
  2
UCS
  5
7
330
0
100
AcDbSymbolTable
 70
     0
  0
ENDTAB
  0
TABLE
  2
APPID
  5
9
330
0
100
AcDbSymbolTable
 70
     1
  0
APPID
  5
12
330
9
100
AcDbSymbolTableRecord
100
AcDbRegAppTableRecord
  2
ACAD
 70
     0
  0
ENDTAB
  0
TABLE
  2
DIMSTYLE
  5
A
330
0
100
AcDbSymbolTable
 70
     1
100
AcDbDimStyleTable
  0
DIMSTYLE
105
27
330
A
100
AcDbSymbolTableRecord
100
AcDbDimStyleTableRecord
  2
ISO-25
 70
     0
 41
2.5
 42
0.625
 43
3.75
 44
1.25
 73
     0
 74
     0
 77
     1
 78
     8
140
2.5
141
2.5
143
0.03937007874016
147
0.625
171
     3
172
     1
178
     0
271
     2
272
     2
274
     3
278
    44
283
     0
284
     8
340
11
  0
ENDTAB
  0
TABLE
  2
BLOCK_RECORD
  5
1
330
0
100
AcDbSymbolTable
 70
    18
  0
BLOCK_RECORD
  5
1F
330
1
100
AcDbSymbolTableRecord
100
AcDbBlockTableRecord
  2
*Model_Space
340
22
 70
     0
280
     1
281
     0
  0
BLOCK_RECORD
  5
1B
330
1
100
AcDbSymbolTableRecord
100
AcDbBlockTableRecord
  2
*Paper_Space
340
1E
 70
     0
280
     1
281
     0
  0
BLOCK_RECORD
  5
23
330
1
100
AcDbSymbolTableRecord
100
AcDbBlockTableRecord
  2
*Paper_Space0
340
26
 70
     0
280
     1
281
     0
  0
BLOCK_RECORD
  5
7E
330
1
100
AcDbSymbolTableRecord
100
AcDbBlockTableRecord
  2
1_PART_6015_M_PART1_in_ASM_6015_M
340
0
102
{BLKREFS
331
7F
102
}
 70
     0
280
     1
281
     0
  0
BLOCK_RECORD
  5
93
330
1
100
AcDbSymbolTableRecord
100
AcDbBlockTableRecord
  2
2_PART_6015_M_PART2_in_ASM_6015_M
340
0
102
{BLKREFS
331
94
102
}
 70
     0
280
     1
281
     0
  0
BLOCK_RECORD
  5
A7
330
1
100
AcDbSymbolTableRecord
100
AcDbBlockTableRecord
  2
3_PART_6015_M_PART3_in_ASM_6015_M
340
0
102
{BLKREFS
331
A8
102
}
 70
     0
280
     1
281
     0
  0
BLOCK_RECORD
  5
BB
330
1
100
AcDbSymbolTableRecord
100
AcDbBlockTableRecord
  2
4_PART_6015_M_PART3_in_ASM_6015_M
340
0
102
{BLKREFS
331
BC
102
}
 70
     0
280
     1
281
     0
  0
BLOCK_RECORD
  5
CF
330
1
100
AcDbSymbolTableRecord
100
AcDbBlockTableRecord
  2
5_PART_6015_M_PART3_in_ASM_6015_M
340
0
102
{BLKREFS
331
D0
102
}
 70
     0
280
     1
281
     0
  0
BLOCK_RECORD
  5
E3
330
1
100
AcDbSymbolTableRecord
100
AcDbBlockTableRecord
  2
6_PART_6015_M_PART3_in_ASM_6015_M
340
0
102
{BLKREFS
331
E4
102
}
 70
     0
280
     1
281
     0
  0
BLOCK_RECORD
  5
F7
330
1
100
AcDbSymbolTableRecord
100
AcDbBlockTableRecord
  2
7_PART_6015_M_PART3_in_ASM_6015_M
340
0
102
{BLKREFS
331
F8
102
}
 70
     0
280
     1
281
     0
  0
BLOCK_RECORD
  5
10B
330
1
100
AcDbSymbolTableRecord
100
AcDbBlockTableRecord
  2
8_PART_6015_M_PART3_in_ASM_6015_M
340
0
102
{BLKREFS
331
10C
102
}
 70
     0
280
     1
281
     0
  0
BLOCK_RECORD
  5
11F
330
1
100
AcDbSymbolTableRecord
100
AcDbBlockTableRecord
  2
9_PART_6015_M_PART3_in_ASM_6015_M
340
0
102
{BLKREFS
331
120
102
}
 70
     0
280
     1
281
     0
  0
BLOCK_RECORD
  5
133
330
1
100
AcDbSymbolTableRecord
100
AcDbBlockTableRecord
  2
10_PART_6015_M_PART3_in_ASM_6015_M
340
0
102
{BLKREFS
331
134
102
}
 70
     0
280
     1
281
     0
  0
BLOCK_RECORD
  5
147
330
1
100
AcDbSymbolTableRecord
100
AcDbBlockTableRecord
  2
11_PART_6015_M_PART3_in_ASM_6015_M
340
0
102
{BLKREFS
331
148
102
}
 70
     0
280
     1
281
     0
  0
BLOCK_RECORD
  5
15B
330
1
100
AcDbSymbolTableRecord
100
AcDbBlockTableRecord
  2
12_PART_6015_M_PART3_in_ASM_6015_M
340
0
102
{BLKREFS
331
15C
102
}
 70
     0
280
     1
281
     0
  0
BLOCK_RECORD
  5
16F
330
1
100
AcDbSymbolTableRecord
100
AcDbBlockTableRecord
  2
13_PART_6015_M_PART3_in_ASM_6015_M
340
0
102
{BLKREFS
331
170
102
}
 70
     0
280
     1
281
     0
  0
BLOCK_RECORD
  5
183
330
1
100
AcDbSymbolTableRecord
100
AcDbBlockTableRecord
  2
14_PART_6015_M_PART3_in_ASM_6015_M
340
0
102
{BLKREFS
331
184
102
}
 70
     0
280
     1
281
     0
  0
BLOCK_RECORD
  5
197
330
1
100
AcDbSymbolTableRecord
100
AcDbBlockTableRecord
  2
15_PART_6015_M_PART3_in_ASM_6015_M
340
0
102
{BLKREFS
331
198
102
}
 70
     0
280
     1
281
     0
  0
BLOCK_RECORD
  5
1AB
330
1
100
AcDbSymbolTableRecord
100
AcDbBlockTableRecord
  2
16_PART_6015_M_PART3_in_ASM_6015_M
340
0
102
{BLKREFS
331
1AC
102
}
 70
     0
280
     1
281
     0
  0
BLOCK_RECORD
  5
1BF
330
1
100
AcDbSymbolTableRecord
100
AcDbBlockTableRecord
  2
17_PART_6015_M_PART3_in_ASM_6015_M
340
0
102
{BLKREFS
331
1C0
102
}
 70
     0
280
     1
281
     0
  0
ENDTAB
  0
ENDSEC
  0
SECTION
  2
BLOCKS
  0
BLOCK
  5
20
330
1F
100
AcDbEntity
  8
0
100
AcDbBlockBegin
  2
*Model_Space
 70
     0
 10
0.0
 20
0.0
 30
0.0
  3
*Model_Space
  1

  0
ENDBLK
  5
21
330
1F
100
AcDbEntity
  8
0
100
AcDbBlockEnd
  0
BLOCK
  5
1C
330
1B
100
AcDbEntity
 67
     1
  8
0
100
AcDbBlockBegin
  2
*Paper_Space
 70
     0
 10
0.0
 20
0.0
 30
0.0
  3
*Paper_Space
  1

  0
ENDBLK
  5
1D
330
1B
100
AcDbEntity
 67
     1
  8
0
100
AcDbBlockEnd
  0
BLOCK
  5
24
330
23
100
AcDbEntity
  8
0
100
AcDbBlockBegin
  2
*Paper_Space0
 70
     0
 10
0.0
 20
0.0
 30
0.0
  3
*Paper_Space0
  1

  0
ENDBLK
  5
25
330
23
100
AcDbEntity
  8
0
100
AcDbBlockEnd
  0
BLOCK
  5
80
330
7E
100
AcDbEntity
  8
0
100
AcDbBlockBegin
  2
1_PART_6015_M_PART1_in_ASM_6015_M
 70
     2
 10
0.0
 20
0.0
 30
0.0
  3
1_PART_6015_M_PART1_in_ASM_6015_M
  1

  0
3DSOLID
  5
83
330
7E
100
AcDbEntity
  8
AM_0
100
AcDbModelerGeometry
290
     0
  2
{00000000-0000-0000-0000-000000000000}
100
AcDb3dSolid
350
0
  0
ATTDEF
  5
84
330
7E
100
AcDbEntity
  8
AM_6
100
AcDbText
 10
25.00000000000008
 20
43.92500000000002
 30
0.0
 40
0.5
  1

100
AcDbAttributeDefinition
  3

  2
NN
 70
     8
280
     0
  0
ATTDEF
  5
85
330
7E
100
AcDbEntity
  8
AM_6
100
AcDbText
 10
25.00000000000008
 20
43.42500000000002
 30
0.0
 40
0.5
  1
Deep groove ball bearings, single row
100
AcDbAttributeDefinition
  3

  2
NT
 70
     8
280
     0
  0
ATTDEF
  5
86
330
7E
100
AcDbEntity
  8
AM_6
100
AcDbText
 10
25.00000000000008
 20
42.92500000000002
 30
0.0
 40
0.5
  1
6015 M_PART1
100
AcDbAttributeDefinition
  3

  2
NB
 70
     8
280
     0
  0
ATTDEF
  5
87
330
7E
100
AcDbEntity
  8
AM_6
100
AcDbText
 10
25.00000000000008
 20
42.42500000000002
 30
0.0
 40
0.5
  1
$DESIGNATION._PART1
100
AcDbAttributeDefinition
  3

  2
NBSYN
 70
     8
280
     0
  0
ATTDEF
  5
88
330
7E
100
AcDbEntity
  8
AM_6
100
AcDbText
 10
25.00000000000008
 20
41.92500000000002
 30
0.0
 40
0.5
  1
6015 M_PART1
100
AcDbAttributeDefinition
  3

  2
LINA
 70
     8
280
     0
  0
ATTDEF
  5
89
330
7E
100
AcDbEntity
  8
AM_6
100
AcDbText
 10
25.00000000000008
 20
41.42500000000002
 30
0.0
 40
0.5
  1
6015 M
100
AcDbAttributeDefinition
  3

  2
DESIGNATION
 70
     8
280
     0
  0
ATTDEF
  5
8A
330
7E
100
AcDbEntity
  8
AM_6
100
AcDbText
 10
25.00000000000008
 20
40.92500000000002
 30
0.0
 40
0.5
  1
75.000
100
AcDbAttributeDefinition
  3

  2
DD
 70
     8
280
     0
  0
ATTDEF
  5
8B
330
7E
100
AcDbEntity
  8
AM_6
100
AcDbText
 10
25.00000000000008
 20
40.42500000000002
 30
0.0
 40
0.5
  1
115.000
100
AcDbAttributeDefinition
  3

  2
D
 70
     8
280
     0
  0
ATTDEF
  5
8C
330
7E
100
AcDbEntity
  8
AM_6
100
AcDbText
 10
25.00000000000008
 20
39.92500000000002
 30
0.0
 40
0.5
  1
20.000
100
AcDbAttributeDefinition
  3

  2
B
 70
     8
280
     0
  0
ATTDEF
  5
8D
330
7E
100
AcDbEntity
  8
AM_6
100
AcDbText
 10
25.00000000000008
 20
39.42500000000002
 30
0.0
 40
0.5
  1
41.600
100
AcDbAttributeDefinition
  3

  2
LOAD1
 70
     8
280
     0
  0
ATTDEF
  5
8E
330
7E
100
AcDbEntity
  8
AM_6
100
AcDbText
 10
25.00000000000008
 20
38.92500000000002
 30
0.0
 40
0.5
  1
33.500
100
AcDbAttributeDefinition
  3

  2
LOAD2
 70
     8
280
     0
  0
ATTDEF
  5
8F
330
7E
100
AcDbEntity
  8
AM_6
100
AcDbText
 10
25.00000000000008
 20
38.42500000000002
 30
0.0
 40
0.5
  1
1.430
100
AcDbAttributeDefinition
  3

  2
LOAD3
 70
     8
280
     0
  0
ATTDEF
  5
90
330
7E
100
AcDbEntity
  8
AM_6
100
AcDbText
 10
25.00000000000008
 20
37.92500000000002
 30
0.0
 40
0.5
  1
12000
100
AcDbAttributeDefinition
  3

  2
SPEED1
 70
     8
280
     0
  0
ATTDEF
  5
91
330
7E
100
AcDbEntity
  8
AM_6
100
AcDbText
 10
25.00000000000008
 20
37.42500000000002
 30
0.0
 40
0.5
  1
10000
100
AcDbAttributeDefinition
  3

  2
SPEED2
 70
     8
280
     0
  0
ATTDEF
  5
92
330
7E
100
AcDbEntity
  8
AM_6
100
AcDbText
 10
25.00000000000008
 20
36.92500000000002
 30
0.0
 40
0.5
  1
SKF
100
AcDbAttributeDefinition
  3

  2
COMPANY
 70
     8
280
     0
  0
ENDBLK
  5
81
330
7E
100
AcDbEntity
  8
0
100
AcDbBlockEnd
  0
BLOCK
  5
95
330
93
100
AcDbEntity
  8
0
100
AcDbBlockBegin
  2
2_PART_6015_M_PART2_in_ASM_6015_M
 70
     2
 10
0.0
 20
0.0
 30
0.0
  3
2_PART_6015_M_PART2_in_ASM_6015_M
  1

  0
3DSOLID
  5
97
330
93
100
AcDbEntity
  8
AM_0
100
AcDbModelerGeometry
290
     0
  2
{00000000-0000-0000-0000-000000000000}
100
AcDb3dSolid
350
0
  0
ATTDEF
  5
98
330
93
100
AcDbEntity
  8
AM_6
100
AcDbText
 10
25.00000000000032
 20
57.50000000000005
 30
0.0
 40
0.5
  1

100
AcDbAttributeDefinition
  3

  2
NN
 70
     8
280
     0
  0
ATTDEF
  5
99
330
93
100
AcDbEntity
  8
AM_6
100
AcDbText
 10
25.00000000000032
 20
57.00000000000005
 30
0.0
 40
0.5
  1
Deep groove ball bearings, single row
100
AcDbAttributeDefinition
  3

  2
NT
 70
     8
280
     0
  0
ATTDEF
  5
9A
330
93
100
AcDbEntity
  8
AM_6
100
AcDbText
 10
25.00000000000032
 20
56.50000000000005
 30
0.0
 40
0.5
  1
6015 M_PART2
100
AcDbAttributeDefinition
  3

  2
NB
 70
     8
280
     0
  0
ATTDEF
  5
9B
330
93
100
AcDbEntity
  8
AM_6
100
AcDbText
 10
25.00000000000032
 20
56.00000000000005
 30
0.0
 40
0.5
  1
$DESIGNATION._PART2
100
AcDbAttributeDefinition
  3

  2
NBSYN
 70
     8
280
     0
  0
ATTDEF
  5
9C
330
93
100
AcDbEntity
  8
AM_6
100
AcDbText
 10
25.00000000000032
 20
55.50000000000005
 30
0.0
 40
0.5
  1
6015 M_PART2
100
AcDbAttributeDefinition
  3

  2
LINA
 70
     8
280
     0
  0
ATTDEF
  5
9D
330
93
100
AcDbEntity
  8
AM_6
100
AcDbText
 10
25.00000000000032
 20
55.00000000000005
 30
0.0
 40
0.5
  1
6015 M
100
AcDbAttributeDefinition
  3

  2
DESIGNATION
 70
     8
280
     0
  0
ATTDEF
  5
9E
330
93
100
AcDbEntity
  8
AM_6
100
AcDbText
 10
25.00000000000032
 20
54.50000000000005
 30
0.0
 40
0.5
  1
75.000
100
AcDbAttributeDefinition
  3

  2
DD
 70
     8
280
     0
  0
ATTDEF
  5
9F
330
93
100
AcDbEntity
  8
AM_6
100
AcDbText
 10
25.00000000000032
 20
54.00000000000005
 30
0.0
 40
0.5
  1
115.000
100
AcDbAttributeDefinition
  3

  2
D
 70
     8
280
     0
  0
ATTDEF
  5
A0
330
93
100
AcDbEntity
  8
AM_6
100
AcDbText
 10
25.00000000000032
 20
53.50000000000005
 30
0.0
 40
0.5
  1
20.000
100
AcDbAttributeDefinition
  3

  2
B
 70
     8
280
     0
  0
ATTDEF
  5
A1
330
93
100
AcDbEntity
  8
AM_6
100
AcDbText
 10
25.00000000000032
 20
53.00000000000005
 30
0.0
 40
0.5
  1
41.600
100
AcDbAttributeDefinition
  3

  2
LOAD1
 70
     8
280
     0
  0
ATTDEF
  5
A2
330
93
100
AcDbEntity
  8
AM_6
100
AcDbText
 10
25.00000000000032
 20
52.50000000000005
 30
0.0
 40
0.5
  1
33.500
100
AcDbAttributeDefinition
  3

  2
LOAD2
 70
     8
280
     0
  0
ATTDEF
  5
A3
330
93
100
AcDbEntity
  8
AM_6
100
AcDbText
 10
25.00000000000032
 20
52.00000000000005
 30
0.0
 40
0.5
  1
1.430
100
AcDbAttributeDefinition
  3

  2
LOAD3
 70
     8
280
     0
  0
ATTDEF
  5
A4
330
93
100
AcDbEntity
  8
AM_6
100
AcDbText
 10
25.00000000000032
 20
51.50000000000005
 30
0.0
 40
0.5
  1
12000
100
AcDbAttributeDefinition
  3

  2
SPEED1
 70
     8
280
     0
  0
ATTDEF
  5
A5
330
93
100
AcDbEntity
  8
AM_6
100
AcDbText
 10
25.00000000000032
 20
51.00000000000005
 30
0.0
 40
0.5
  1
10000
100
AcDbAttributeDefinition
  3

  2
SPEED2
 70
     8
280
     0
  0
ATTDEF
  5
A6
330
93
100
AcDbEntity
  8
AM_6
100
AcDbText
 10
25.00000000000032
 20
50.50000000000005
 30
0.0
 40
0.5
  1
SKF
100
AcDbAttributeDefinition
  3

  2
COMPANY
 70
     8
280
     0
  0
ENDBLK
  5
96
330
93
100
AcDbEntity
  8
0
100
AcDbBlockEnd
  0
BLOCK
  5
A9
330
A7
100
AcDbEntity
  8
0
100
AcDbBlockBegin
  2
3_PART_6015_M_PART3_in_ASM_6015_M
 70
     2
 10
0.0
 20
0.0
 30
0.0
  3
3_PART_6015_M_PART3_in_ASM_6015_M
  1

  0
3DSOLID
  5
AB
330
A7
100
AcDbEntity
  8
AM_0
100
AcDbModelerGeometry
290
     0
  2
{00000000-0000-0000-0000-000000000000}
100
AcDb3dSolid
350
0
  0
ATTDEF
  5
AC
330
A7
100
AcDbEntity
  8
AM_6
100
AcDbText
 10
20.95300000000009
 20
53.45300000000009
 30
0.0
 40
0.5
  1

100
AcDbAttributeDefinition
  3

  2
NN
 70
     8
280
     0
  0
ATTDEF
  5
AD
330
A7
100
AcDbEntity
  8
AM_6
100
AcDbText
 10
20.95300000000009
 20
52.95300000000009
 30
0.0
 40
0.5
  1
Deep groove ball bearings, single row
100
AcDbAttributeDefinition
  3

  2
NT
 70
     8
280
     0
  0
ATTDEF
  5
AE
330
A7
100
AcDbEntity
  8
AM_6
100
AcDbText
 10
20.95300000000009
 20
52.45300000000009
 30
0.0
 40
0.5
  1
6015 M_PART3
100
AcDbAttributeDefinition
  3

  2
NB
 70
     8
280
     0
  0
ATTDEF
  5
AF
330
A7
100
AcDbEntity
  8
AM_6
100
AcDbText
 10
20.95300000000009
 20
51.95300000000009
 30
0.0
 40
0.5
  1
$DESIGNATION._PART3
100
AcDbAttributeDefinition
  3

  2
NBSYN
 70
     8
280
     0
  0
ATTDEF
  5
B0
330
A7
100
AcDbEntity
  8
AM_6
100
AcDbText
 10
20.95300000000009
 20
51.45300000000009
 30
0.0
 40
0.5
  1
6015 M_PART3
100
AcDbAttributeDefinition
  3

  2
LINA
 70
     8
280
     0
  0
ATTDEF
  5
B1
330
A7
100
AcDbEntity
  8
AM_6
100
AcDbText
 10
20.95300000000009
 20
50.95300000000009
 30
0.0
 40
0.5
  1
6015 M
100
AcDbAttributeDefinition
  3

  2
DESIGNATION
 70
     8
280
     0
  0
ATTDEF
  5
B2
330
A7
100
AcDbEntity
  8
AM_6
100
AcDbText
 10
20.95300000000009
 20
50.45300000000009
 30
0.0
 40
0.5
  1
75.000
100
AcDbAttributeDefinition
  3

  2
DD
 70
     8
280
     0
  0
ATTDEF
  5
B3
330
A7
100
AcDbEntity
  8
AM_6
100
AcDbText
 10
20.95300000000009
 20
49.95300000000009
 30
0.0
 40
0.5
  1
115.000
100
AcDbAttributeDefinition
  3

  2
D
 70
     8
280
     0
  0
ATTDEF
  5
B4
330
A7
100
AcDbEntity
  8
AM_6
100
AcDbText
 10
20.95300000000009
 20
49.45300000000009
 30
0.0
 40
0.5
  1
20.000
100
AcDbAttributeDefinition
  3

  2
B
 70
     8
280
     0
  0
ATTDEF
  5
B5
330
A7
100
AcDbEntity
  8
AM_6
100
AcDbText
 10
20.95300000000009
 20
48.95300000000009
 30
0.0
 40
0.5
  1
41.600
100
AcDbAttributeDefinition
  3

  2
LOAD1
 70
     8
280
     0
  0
ATTDEF
  5
B6
330
A7
100
AcDbEntity
  8
AM_6
100
AcDbText
 10
20.95300000000009
 20
48.45300000000009
 30
0.0
 40
0.5
  1
33.500
100
AcDbAttributeDefinition
  3

  2
LOAD2
 70
     8
280
     0
  0
ATTDEF
  5
B7
330
A7
100
AcDbEntity
  8
AM_6
100
AcDbText
 10
20.95300000000009
 20
47.95300000000009
 30
0.0
 40
0.5
  1
1.430
100
AcDbAttributeDefinition
  3

  2
LOAD3
 70
     8
280
     0
  0
ATTDEF
  5
B8
330
A7
100
AcDbEntity
  8
AM_6
100
AcDbText
 10
20.95300000000009
 20
47.45300000000009
 30
0.0
 40
0.5
  1
12000
100
AcDbAttributeDefinition
  3

  2
SPEED1
 70
     8
280
     0
  0
ATTDEF
  5
B9
330
A7
100
AcDbEntity
  8
AM_6
100
AcDbText
 10
20.95300000000009
 20
46.95300000000009
 30
0.0
 40
0.5
  1
10000
100
AcDbAttributeDefinition
  3

  2
SPEED2
 70
     8
280
     0
  0
ATTDEF
  5
BA
330
A7
100
AcDbEntity
  8
AM_6
100
AcDbText
 10
20.95300000000009
 20
46.45300000000009
 30
0.0
 40
0.5
  1
SKF
100
AcDbAttributeDefinition
  3

  2
COMPANY
 70
     8
280
     0
  0
ENDBLK
  5
AA
330
A7
100
AcDbEntity
  8
0
100
AcDbBlockEnd
  0
BLOCK
  5
BD
330
BB
100
AcDbEntity
  8
0
100
AcDbBlockBegin
  2
4_PART_6015_M_PART3_in_ASM_6015_M
 70
     2
 10
0.0
 20
0.0
 30
0.0
  3
4_PART_6015_M_PART3_in_ASM_6015_M
  1

  0
3DSOLID
  5
BF
330
BB
100
AcDbEntity
  8
AM_0
100
AcDbModelerGeometry
290
     0
  2
{00000000-0000-0000-0000-000000000000}
100
AcDb3dSolid
350
0
  0
ATTDEF
  5
C0
330
BB
100
AcDbEntity
  8
AM_6
100
AcDbText
 10
20.95300000000009
 20
53.45300000000009
 30
0.0
 40
0.5
  1

100
AcDbAttributeDefinition
  3

  2
NN
 70
     8
280
     0
  0
ATTDEF
  5
C1
330
BB
100
AcDbEntity
  8
AM_6
100
AcDbText
 10
20.95300000000009
 20
52.95300000000009
 30
0.0
 40
0.5
  1
Deep groove ball bearings, single row
100
AcDbAttributeDefinition
  3

  2
NT
 70
     8
280
     0
  0
ATTDEF
  5
C2
330
BB
100
AcDbEntity
  8
AM_6
100
AcDbText
 10
20.95300000000009
 20
52.45300000000009
 30
0.0
 40
0.5
  1
6015 M_PART3
100
AcDbAttributeDefinition
  3

  2
NB
 70
     8
280
     0
  0
ATTDEF
  5
C3
330
BB
100
AcDbEntity
  8
AM_6
100
AcDbText
 10
20.95300000000009
 20
51.95300000000009
 30
0.0
 40
0.5
  1
$DESIGNATION._PART3
100
AcDbAttributeDefinition
  3

  2
NBSYN
 70
     8
280
     0
  0
ATTDEF
  5
C4
330
BB
100
AcDbEntity
  8
AM_6
100
AcDbText
 10
20.95300000000009
 20
51.45300000000009
 30
0.0
 40
0.5
  1
6015 M_PART3
100
AcDbAttributeDefinition
  3

  2
LINA
 70
     8
280
     0
  0
ATTDEF
  5
C5
330
BB
100
AcDbEntity
  8
AM_6
100
AcDbText
 10
20.95300000000009
 20
50.95300000000009
 30
0.0
 40
0.5
  1
6015 M
100
AcDbAttributeDefinition
  3

  2
DESIGNATION
 70
     8
280
     0
  0
ATTDEF
  5
C6
330
BB
100
AcDbEntity
  8
AM_6
100
AcDbText
 10
20.95300000000009
 20
50.45300000000009
 30
0.0
 40
0.5
  1
75.000
100
AcDbAttributeDefinition
  3

  2
DD
 70
     8
280
     0
  0
ATTDEF
  5
C7
330
BB
100
AcDbEntity
  8
AM_6
100
AcDbText
 10
20.95300000000009
 20
49.95300000000009
 30
0.0
 40
0.5
  1
115.000
100
AcDbAttributeDefinition
  3

  2
D
 70
     8
280
     0
  0
ATTDEF
  5
C8
330
BB
100
AcDbEntity
  8
AM_6
100
AcDbText
 10
20.95300000000009
 20
49.45300000000009
 30
0.0
 40
0.5
  1
20.000
100
AcDbAttributeDefinition
  3

  2
B
 70
     8
280
     0
  0
ATTDEF
  5
C9
330
BB
100
AcDbEntity
  8
AM_6
100
AcDbText
 10
20.95300000000009
 20
48.95300000000009
 30
0.0
 40
0.5
  1
41.600
100
AcDbAttributeDefinition
  3

  2
LOAD1
 70
     8
280
     0
  0
ATTDEF
  5
CA
330
BB
100
AcDbEntity
  8
AM_6
100
AcDbText
 10
20.95300000000009
 20
48.45300000000009
 30
0.0
 40
0.5
  1
33.500
100
AcDbAttributeDefinition
  3

  2
LOAD2
 70
     8
280
     0
  0
ATTDEF
  5
CB
330
BB
100
AcDbEntity
  8
AM_6
100
AcDbText
 10
20.95300000000009
 20
47.95300000000009
 30
0.0
 40
0.5
  1
1.430
100
AcDbAttributeDefinition
  3

  2
LOAD3
 70
     8
280
     0
  0
ATTDEF
  5
CC
330
BB
100
AcDbEntity
  8
AM_6
100
AcDbText
 10
20.95300000000009
 20
47.45300000000009
 30
0.0
 40
0.5
  1
12000
100
AcDbAttributeDefinition
  3

  2
SPEED1
 70
     8
280
     0
  0
ATTDEF
  5
CD
330
BB
100
AcDbEntity
  8
AM_6
100
AcDbText
 10
20.95300000000009
 20
46.95300000000009
 30
0.0
 40
0.5
  1
10000
100
AcDbAttributeDefinition
  3

  2
SPEED2
 70
     8
280
     0
  0
ATTDEF
  5
CE
330
BB
100
AcDbEntity
  8
AM_6
100
AcDbText
 10
20.95300000000009
 20
46.45300000000009
 30
0.0
 40
0.5
  1
SKF
100
AcDbAttributeDefinition
  3

  2
COMPANY
 70
     8
280
     0
  0
ENDBLK
  5
BE
330
BB
100
AcDbEntity
  8
0
100
AcDbBlockEnd
  0
BLOCK
  5
D1
330
CF
100
AcDbEntity
  8
0
100
AcDbBlockBegin
  2
5_PART_6015_M_PART3_in_ASM_6015_M
 70
     2
 10
0.0
 20
0.0
 30
0.0
  3
5_PART_6015_M_PART3_in_ASM_6015_M
  1

  0
3DSOLID
  5
D3
330
CF
100
AcDbEntity
  8
AM_0
100
AcDbModelerGeometry
290
     0
  2
{00000000-0000-0000-0000-000000000000}
100
AcDb3dSolid
350
0
  0
ATTDEF
  5
D4
330
CF
100
AcDbEntity
  8
AM_6
100
AcDbText
 10
20.95300000000009
 20
53.45300000000009
 30
0.0
 40
0.5
  1

100
AcDbAttributeDefinition
  3

  2
NN
 70
     8
280
     0
  0
ATTDEF
  5
D5
330
CF
100
AcDbEntity
  8
AM_6
100
AcDbText
 10
20.95300000000009
 20
52.95300000000009
 30
0.0
 40
0.5
  1
Deep groove ball bearings, single row
100
AcDbAttributeDefinition
  3

  2
NT
 70
     8
280
     0
  0
ATTDEF
  5
D6
330
CF
100
AcDbEntity
  8
AM_6
100
AcDbText
 10
20.95300000000009
 20
52.45300000000009
 30
0.0
 40
0.5
  1
6015 M_PART3
100
AcDbAttributeDefinition
  3

  2
NB
 70
     8
280
     0
  0
ATTDEF
  5
D7
330
CF
100
AcDbEntity
  8
AM_6
100
AcDbText
 10
20.95300000000009
 20
51.95300000000009
 30
0.0
 40
0.5
  1
$DESIGNATION._PART3
100
AcDbAttributeDefinition
  3

  2
NBSYN
 70
     8
280
     0
  0
ATTDEF
  5
D8
330
CF
100
AcDbEntity
  8
AM_6
100
AcDbText
 10
20.95300000000009
 20
51.45300000000009
 30
0.0
 40
0.5
  1
6015 M_PART3
100
AcDbAttributeDefinition
  3

  2
LINA
 70
     8
280
     0
  0
ATTDEF
  5
D9
330
CF
100
AcDbEntity
  8
AM_6
100
AcDbText
 10
20.95300000000009
 20
50.95300000000009
 30
0.0
 40
0.5
  1
6015 M
100
AcDbAttributeDefinition
  3

  2
DESIGNATION
 70
     8
280
     0
  0
ATTDEF
  5
DA
330
CF
100
AcDbEntity
  8
AM_6
100
AcDbText
 10
20.95300000000009
 20
50.45300000000009
 30
0.0
 40
0.5
  1
75.000
100
AcDbAttributeDefinition
  3

  2
DD
 70
     8
280
     0
  0
ATTDEF
  5
DB
330
CF
100
AcDbEntity
  8
AM_6
100
AcDbText
 10
20.95300000000009
 20
49.95300000000009
 30
0.0
 40
0.5
  1
115.000
100
AcDbAttributeDefinition
  3

  2
D
 70
     8
280
     0
  0
ATTDEF
  5
DC
330
CF
100
AcDbEntity
  8
AM_6
100
AcDbText
 10
20.95300000000009
 20
49.45300000000009
 30
0.0
 40
0.5
  1
20.000
100
AcDbAttributeDefinition
  3

  2
B
 70
     8
280
     0
  0
ATTDEF
  5
DD
330
CF
100
AcDbEntity
  8
AM_6
100
AcDbText
 10
20.95300000000009
 20
48.95300000000009
 30
0.0
 40
0.5
  1
41.600
100
AcDbAttributeDefinition
  3

  2
LOAD1
 70
     8
280
     0
  0
ATTDEF
  5
DE
330
CF
100
AcDbEntity
  8
AM_6
100
AcDbText
 10
20.95300000000009
 20
48.45300000000009
 30
0.0
 40
0.5
  1
33.500
100
AcDbAttributeDefinition
  3

  2
LOAD2
 70
     8
280
     0
  0
ATTDEF
  5
DF
330
CF
100
AcDbEntity
  8
AM_6
100
AcDbText
 10
20.95300000000009
 20
47.95300000000009
 30
0.0
 40
0.5
  1
1.430
100
AcDbAttributeDefinition
  3

  2
LOAD3
 70
     8
280
     0
  0
ATTDEF
  5
E0
330
CF
100
AcDbEntity
  8
AM_6
100
AcDbText
 10
20.95300000000009
 20
47.45300000000009
 30
0.0
 40
0.5
  1
12000
100
AcDbAttributeDefinition
  3

  2
SPEED1
 70
     8
280
     0
  0
ATTDEF
  5
E1
330
CF
100
AcDbEntity
  8
AM_6
100
AcDbText
 10
20.95300000000009
 20
46.95300000000009
 30
0.0
 40
0.5
  1
10000
100
AcDbAttributeDefinition
  3

  2
SPEED2
 70
     8
280
     0
  0
ATTDEF
  5
E2
330
CF
100
AcDbEntity
  8
AM_6
100
AcDbText
 10
20.95300000000009
 20
46.45300000000009
 30
0.0
 40
0.5
  1
SKF
100
AcDbAttributeDefinition
  3

  2
COMPANY
 70
     8
280
     0
  0
ENDBLK
  5
D2
330
CF
100
AcDbEntity
  8
0
100
AcDbBlockEnd
  0
BLOCK
  5
E5
330
E3
100
AcDbEntity
  8
0
100
AcDbBlockBegin
  2
6_PART_6015_M_PART3_in_ASM_6015_M
 70
     2
 10
0.0
 20
0.0
 30
0.0
  3
6_PART_6015_M_PART3_in_ASM_6015_M
  1

  0
3DSOLID
  5
E7
330
E3
100
AcDbEntity
  8
AM_0
100
AcDbModelerGeometry
290
     0
  2
{00000000-0000-0000-0000-000000000000}
100
AcDb3dSolid
350
0
  0
ATTDEF
  5
E8
330
E3
100
AcDbEntity
  8
AM_6
100
AcDbText
 10
20.95300000000009
 20
53.45300000000009
 30
0.0
 40
0.5
  1

100
AcDbAttributeDefinition
  3

  2
NN
 70
     8
280
     0
  0
ATTDEF
  5
E9
330
E3
100
AcDbEntity
  8
AM_6
100
AcDbText
 10
20.95300000000009
 20
52.95300000000009
 30
0.0
 40
0.5
  1
Deep groove ball bearings, single row
100
AcDbAttributeDefinition
  3

  2
NT
 70
     8
280
     0
  0
ATTDEF
  5
EA
330
E3
100
AcDbEntity
  8
AM_6
100
AcDbText
 10
20.95300000000009
 20
52.45300000000009
 30
0.0
 40
0.5
  1
6015 M_PART3
100
AcDbAttributeDefinition
  3

  2
NB
 70
     8
280
     0
  0
ATTDEF
  5
EB
330
E3
100
AcDbEntity
  8
AM_6
100
AcDbText
 10
20.95300000000009
 20
51.95300000000009
 30
0.0
 40
0.5
  1
$DESIGNATION._PART3
100
AcDbAttributeDefinition
  3

  2
NBSYN
 70
     8
280
     0
  0
ATTDEF
  5
EC
330
E3
100
AcDbEntity
  8
AM_6
100
AcDbText
 10
20.95300000000009
 20
51.45300000000009
 30
0.0
 40
0.5
  1
6015 M_PART3
100
AcDbAttributeDefinition
  3

  2
LINA
 70
     8
280
     0
  0
ATTDEF
  5
ED
330
E3
100
AcDbEntity
  8
AM_6
100
AcDbText
 10
20.95300000000009
 20
50.95300000000009
 30
0.0
 40
0.5
  1
6015 M
100
AcDbAttributeDefinition
  3

  2
DESIGNATION
 70
     8
280
     0
  0
ATTDEF
  5
EE
330
E3
100
AcDbEntity
  8
AM_6
100
AcDbText
 10
20.95300000000009
 20
50.45300000000009
 30
0.0
 40
0.5
  1
75.000
100
AcDbAttributeDefinition
  3

  2
DD
 70
     8
280
     0
  0
ATTDEF
  5
EF
330
E3
100
AcDbEntity
  8
AM_6
100
AcDbText
 10
20.95300000000009
 20
49.95300000000009
 30
0.0
 40
0.5
  1
115.000
100
AcDbAttributeDefinition
  3

  2
D
 70
     8
280
     0
  0
ATTDEF
  5
F0
330
E3
100
AcDbEntity
  8
AM_6
100
AcDbText
 10
20.95300000000009
 20
49.45300000000009
 30
0.0
 40
0.5
  1
20.000
100
AcDbAttributeDefinition
  3

  2
B
 70
     8
280
     0
  0
ATTDEF
  5
F1
330
E3
100
AcDbEntity
  8
AM_6
100
AcDbText
 10
20.95300000000009
 20
48.95300000000009
 30
0.0
 40
0.5
  1
41.600
100
AcDbAttributeDefinition
  3

  2
LOAD1
 70
     8
280
     0
  0
ATTDEF
  5
F2
330
E3
100
AcDbEntity
  8
AM_6
100
AcDbText
 10
20.95300000000009
 20
48.45300000000009
 30
0.0
 40
0.5
  1
33.500
100
AcDbAttributeDefinition
  3

  2
LOAD2
 70
     8
280
     0
  0
ATTDEF
  5
F3
330
E3
100
AcDbEntity
  8
AM_6
100
AcDbText
 10
20.95300000000009
 20
47.95300000000009
 30
0.0
 40
0.5
  1
1.430
100
AcDbAttributeDefinition
  3

  2
LOAD3
 70
     8
280
     0
  0
ATTDEF
  5
F4
330
E3
100
AcDbEntity
  8
AM_6
100
AcDbText
 10
20.95300000000009
 20
47.45300000000009
 30
0.0
 40
0.5
  1
12000
100
AcDbAttributeDefinition
  3

  2
SPEED1
 70
     8
280
     0
  0
ATTDEF
  5
F5
330
E3
100
AcDbEntity
  8
AM_6
100
AcDbText
 10
20.95300000000009
 20
46.95300000000009
 30
0.0
 40
0.5
  1
10000
100
AcDbAttributeDefinition
  3

  2
SPEED2
 70
     8
280
     0
  0
ATTDEF
  5
F6
330
E3
100
AcDbEntity
  8
AM_6
100
AcDbText
 10
20.95300000000009
 20
46.45300000000009
 30
0.0
 40
0.5
  1
SKF
100
AcDbAttributeDefinition
  3

  2
COMPANY
 70
     8
280
     0
  0
ENDBLK
  5
E6
330
E3
100
AcDbEntity
  8
0
100
AcDbBlockEnd
  0
BLOCK
  5
F9
330
F7
100
AcDbEntity
  8
0
100
AcDbBlockBegin
  2
7_PART_6015_M_PART3_in_ASM_6015_M
 70
     2
 10
0.0
 20
0.0
 30
0.0
  3
7_PART_6015_M_PART3_in_ASM_6015_M
  1

  0
3DSOLID
  5
FB
330
F7
100
AcDbEntity
  8
AM_0
100
AcDbModelerGeometry
290
     0
  2
{00000000-0000-0000-0000-000000000000}
100
AcDb3dSolid
350
0
  0
ATTDEF
  5
FC
330
F7
100
AcDbEntity
  8
AM_6
100
AcDbText
 10
20.95300000000009
 20
53.45300000000009
 30
0.0
 40
0.5
  1

100
AcDbAttributeDefinition
  3

  2
NN
 70
     8
280
     0
  0
ATTDEF
  5
FD
330
F7
100
AcDbEntity
  8
AM_6
100
AcDbText
 10
20.95300000000009
 20
52.95300000000009
 30
0.0
 40
0.5
  1
Deep groove ball bearings, single row
100
AcDbAttributeDefinition
  3

  2
NT
 70
     8
280
     0
  0
ATTDEF
  5
FE
330
F7
100
AcDbEntity
  8
AM_6
100
AcDbText
 10
20.95300000000009
 20
52.45300000000009
 30
0.0
 40
0.5
  1
6015 M_PART3
100
AcDbAttributeDefinition
  3

  2
NB
 70
     8
280
     0
  0
ATTDEF
  5
FF
330
F7
100
AcDbEntity
  8
AM_6
100
AcDbText
 10
20.95300000000009
 20
51.95300000000009
 30
0.0
 40
0.5
  1
$DESIGNATION._PART3
100
AcDbAttributeDefinition
  3

  2
NBSYN
 70
     8
280
     0
  0
ATTDEF
  5
100
330
F7
100
AcDbEntity
  8
AM_6
100
AcDbText
 10
20.95300000000009
 20
51.45300000000009
 30
0.0
 40
0.5
  1
6015 M_PART3
100
AcDbAttributeDefinition
  3

  2
LINA
 70
     8
280
     0
  0
ATTDEF
  5
101
330
F7
100
AcDbEntity
  8
AM_6
100
AcDbText
 10
20.95300000000009
 20
50.95300000000009
 30
0.0
 40
0.5
  1
6015 M
100
AcDbAttributeDefinition
  3

  2
DESIGNATION
 70
     8
280
     0
  0
ATTDEF
  5
102
330
F7
100
AcDbEntity
  8
AM_6
100
AcDbText
 10
20.95300000000009
 20
50.45300000000009
 30
0.0
 40
0.5
  1
75.000
100
AcDbAttributeDefinition
  3

  2
DD
 70
     8
280
     0
  0
ATTDEF
  5
103
330
F7
100
AcDbEntity
  8
AM_6
100
AcDbText
 10
20.95300000000009
 20
49.95300000000009
 30
0.0
 40
0.5
  1
115.000
100
AcDbAttributeDefinition
  3

  2
D
 70
     8
280
     0
  0
ATTDEF
  5
104
330
F7
100
AcDbEntity
  8
AM_6
100
AcDbText
 10
20.95300000000009
 20
49.45300000000009
 30
0.0
 40
0.5
  1
20.000
100
AcDbAttributeDefinition
  3

  2
B
 70
     8
280
     0
  0
ATTDEF
  5
105
330
F7
100
AcDbEntity
  8
AM_6
100
AcDbText
 10
20.95300000000009
 20
48.95300000000009
 30
0.0
 40
0.5
  1
41.600
100
AcDbAttributeDefinition
  3

  2
LOAD1
 70
     8
280
     0
  0
ATTDEF
  5
106
330
F7
100
AcDbEntity
  8
AM_6
100
AcDbText
 10
20.95300000000009
 20
48.45300000000009
 30
0.0
 40
0.5
  1
33.500
100
AcDbAttributeDefinition
  3

  2
LOAD2
 70
     8
280
     0
  0
ATTDEF
  5
107
330
F7
100
AcDbEntity
  8
AM_6
100
AcDbText
 10
20.95300000000009
 20
47.95300000000009
 30
0.0
 40
0.5
  1
1.430
100
AcDbAttributeDefinition
  3

  2
LOAD3
 70
     8
280
     0
  0
ATTDEF
  5
108
330
F7
100
AcDbEntity
  8
AM_6
100
AcDbText
 10
20.95300000000009
 20
47.45300000000009
 30
0.0
 40
0.5
  1
12000
100
AcDbAttributeDefinition
  3

  2
SPEED1
 70
     8
280
     0
  0
ATTDEF
  5
109
330
F7
100
AcDbEntity
  8
AM_6
100
AcDbText
 10
20.95300000000009
 20
46.95300000000009
 30
0.0
 40
0.5
  1
10000
100
AcDbAttributeDefinition
  3

  2
SPEED2
 70
     8
280
     0
  0
ATTDEF
  5
10A
330
F7
100
AcDbEntity
  8
AM_6
100
AcDbText
 10
20.95300000000009
 20
46.45300000000009
 30
0.0
 40
0.5
  1
SKF
100
AcDbAttributeDefinition
  3

  2
COMPANY
 70
     8
280
     0
  0
ENDBLK
  5
FA
330
F7
100
AcDbEntity
  8
0
100
AcDbBlockEnd
  0
BLOCK
  5
10D
330
10B
100
AcDbEntity
  8
0
100
AcDbBlockBegin
  2
8_PART_6015_M_PART3_in_ASM_6015_M
 70
     2
 10
0.0
 20
0.0
 30
0.0
  3
8_PART_6015_M_PART3_in_ASM_6015_M
  1

  0
3DSOLID
  5
10F
330
10B
100
AcDbEntity
  8
AM_0
100
AcDbModelerGeometry
290
     0
  2
{00000000-0000-0000-0000-000000000000}
100
AcDb3dSolid
350
0
  0
ATTDEF
  5
110
330
10B
100
AcDbEntity
  8
AM_6
100
AcDbText
 10
20.95300000000009
 20
53.45300000000009
 30
0.0
 40
0.5
  1

100
AcDbAttributeDefinition
  3

  2
NN
 70
     8
280
     0
  0
ATTDEF
  5
111
330
10B
100
AcDbEntity
  8
AM_6
100
AcDbText
 10
20.95300000000009
 20
52.95300000000009
 30
0.0
 40
0.5
  1
Deep groove ball bearings, single row
100
AcDbAttributeDefinition
  3

  2
NT
 70
     8
280
     0
  0
ATTDEF
  5
112
330
10B
100
AcDbEntity
  8
AM_6
100
AcDbText
 10
20.95300000000009
 20
52.45300000000009
 30
0.0
 40
0.5
  1
6015 M_PART3
100
AcDbAttributeDefinition
  3

  2
NB
 70
     8
280
     0
  0
ATTDEF
  5
113
330
10B
100
AcDbEntity
  8
AM_6
100
AcDbText
 10
20.95300000000009
 20
51.95300000000009
 30
0.0
 40
0.5
  1
$DESIGNATION._PART3
100
AcDbAttributeDefinition
  3

  2
NBSYN
 70
     8
280
     0
  0
ATTDEF
  5
114
330
10B
100
AcDbEntity
  8
AM_6
100
AcDbText
 10
20.95300000000009
 20
51.45300000000009
 30
0.0
 40
0.5
  1
6015 M_PART3
100
AcDbAttributeDefinition
  3

  2
LINA
 70
     8
280
     0
  0
ATTDEF
  5
115
330
10B
100
AcDbEntity
  8
AM_6
100
AcDbText
 10
20.95300000000009
 20
50.95300000000009
 30
0.0
 40
0.5
  1
6015 M
100
AcDbAttributeDefinition
  3

  2
DESIGNATION
 70
     8
280
     0
  0
ATTDEF
  5
116
330
10B
100
AcDbEntity
  8
AM_6
100
AcDbText
 10
20.95300000000009
 20
50.45300000000009
 30
0.0
 40
0.5
  1
75.000
100
AcDbAttributeDefinition
  3

  2
DD
 70
     8
280
     0
  0
ATTDEF
  5
117
330
10B
100
AcDbEntity
  8
AM_6
100
AcDbText
 10
20.95300000000009
 20
49.95300000000009
 30
0.0
 40
0.5
  1
115.000
100
AcDbAttributeDefinition
  3

  2
D
 70
     8
280
     0
  0
ATTDEF
  5
118
330
10B
100
AcDbEntity
  8
AM_6
100
AcDbText
 10
20.95300000000009
 20
49.45300000000009
 30
0.0
 40
0.5
  1
20.000
100
AcDbAttributeDefinition
  3

  2
B
 70
     8
280
     0
  0
ATTDEF
  5
119
330
10B
100
AcDbEntity
  8
AM_6
100
AcDbText
 10
20.95300000000009
 20
48.95300000000009
 30
0.0
 40
0.5
  1
41.600
100
AcDbAttributeDefinition
  3

  2
LOAD1
 70
     8
280
     0
  0
ATTDEF
  5
11A
330
10B
100
AcDbEntity
  8
AM_6
100
AcDbText
 10
20.95300000000009
 20
48.45300000000009
 30
0.0
 40
0.5
  1
33.500
100
AcDbAttributeDefinition
  3

  2
LOAD2
 70
     8
280
     0
  0
ATTDEF
  5
11B
330
10B
100
AcDbEntity
  8
AM_6
100
AcDbText
 10
20.95300000000009
 20
47.95300000000009
 30
0.0
 40
0.5
  1
1.430
100
AcDbAttributeDefinition
  3

  2
LOAD3
 70
     8
280
     0
  0
ATTDEF
  5
11C
330
10B
100
AcDbEntity
  8
AM_6
100
AcDbText
 10
20.95300000000009
 20
47.45300000000009
 30
0.0
 40
0.5
  1
12000
100
AcDbAttributeDefinition
  3

  2
SPEED1
 70
     8
280
     0
  0
ATTDEF
  5
11D
330
10B
100
AcDbEntity
  8
AM_6
100
AcDbText
 10
20.95300000000009
 20
46.95300000000009
 30
0.0
 40
0.5
  1
10000
100
AcDbAttributeDefinition
  3

  2
SPEED2
 70
     8
280
     0
  0
ATTDEF
  5
11E
330
10B
100
AcDbEntity
  8
AM_6
100
AcDbText
 10
20.95300000000009
 20
46.45300000000009
 30
0.0
 40
0.5
  1
SKF
100
AcDbAttributeDefinition
  3

  2
COMPANY
 70
     8
280
     0
  0
ENDBLK
  5
10E
330
10B
100
AcDbEntity
  8
0
100
AcDbBlockEnd
  0
BLOCK
  5
121
330
11F
100
AcDbEntity
  8
0
100
AcDbBlockBegin
  2
9_PART_6015_M_PART3_in_ASM_6015_M
 70
     2
 10
0.0
 20
0.0
 30
0.0
  3
9_PART_6015_M_PART3_in_ASM_6015_M
  1

  0
3DSOLID
  5
123
330
11F
100
AcDbEntity
  8
AM_0
100
AcDbModelerGeometry
290
     0
  2
{00000000-0000-0000-0000-000000000000}
100
AcDb3dSolid
350
0
  0
ATTDEF
  5
124
330
11F
100
AcDbEntity
  8
AM_6
100
AcDbText
 10
20.95300000000009
 20
53.45300000000009
 30
0.0
 40
0.5
  1

100
AcDbAttributeDefinition
  3

  2
NN
 70
     8
280
     0
  0
ATTDEF
  5
125
330
11F
100
AcDbEntity
  8
AM_6
100
AcDbText
 10
20.95300000000009
 20
52.95300000000009
 30
0.0
 40
0.5
  1
Deep groove ball bearings, single row
100
AcDbAttributeDefinition
  3

  2
NT
 70
     8
280
     0
  0
ATTDEF
  5
126
330
11F
100
AcDbEntity
  8
AM_6
100
AcDbText
 10
20.95300000000009
 20
52.45300000000009
 30
0.0
 40
0.5
  1
6015 M_PART3
100
AcDbAttributeDefinition
  3

  2
NB
 70
     8
280
     0
  0
ATTDEF
  5
127
330
11F
100
AcDbEntity
  8
AM_6
100
AcDbText
 10
20.95300000000009
 20
51.95300000000009
 30
0.0
 40
0.5
  1
$DESIGNATION._PART3
100
AcDbAttributeDefinition
  3

  2
NBSYN
 70
     8
280
     0
  0
ATTDEF
  5
128
330
11F
100
AcDbEntity
  8
AM_6
100
AcDbText
 10
20.95300000000009
 20
51.45300000000009
 30
0.0
 40
0.5
  1
6015 M_PART3
100
AcDbAttributeDefinition
  3

  2
LINA
 70
     8
280
     0
  0
ATTDEF
  5
129
330
11F
100
AcDbEntity
  8
AM_6
100
AcDbText
 10
20.95300000000009
 20
50.95300000000009
 30
0.0
 40
0.5
  1
6015 M
100
AcDbAttributeDefinition
  3

  2
DESIGNATION
 70
     8
280
     0
  0
ATTDEF
  5
12A
330
11F
100
AcDbEntity
  8
AM_6
100
AcDbText
 10
20.95300000000009
 20
50.45300000000009
 30
0.0
 40
0.5
  1
75.000
100
AcDbAttributeDefinition
  3

  2
DD
 70
     8
280
     0
  0
ATTDEF
  5
12B
330
11F
100
AcDbEntity
  8
AM_6
100
AcDbText
 10
20.95300000000009
 20
49.95300000000009
 30
0.0
 40
0.5
  1
115.000
100
AcDbAttributeDefinition
  3

  2
D
 70
     8
280
     0
  0
ATTDEF
  5
12C
330
11F
100
AcDbEntity
  8
AM_6
100
AcDbText
 10
20.95300000000009
 20
49.45300000000009
 30
0.0
 40
0.5
  1
20.000
100
AcDbAttributeDefinition
  3

  2
B
 70
     8
280
     0
  0
ATTDEF
  5
12D
330
11F
100
AcDbEntity
  8
AM_6
100
AcDbText
 10
20.95300000000009
 20
48.95300000000009
 30
0.0
 40
0.5
  1
41.600
100
AcDbAttributeDefinition
  3

  2
LOAD1
 70
     8
280
     0
  0
ATTDEF
  5
12E
330
11F
100
AcDbEntity
  8
AM_6
100
AcDbText
 10
20.95300000000009
 20
48.45300000000009
 30
0.0
 40
0.5
  1
33.500
100
AcDbAttributeDefinition
  3

  2
LOAD2
 70
     8
280
     0
  0
ATTDEF
  5
12F
330
11F
100
AcDbEntity
  8
AM_6
100
AcDbText
 10
20.95300000000009
 20
47.95300000000009
 30
0.0
 40
0.5
  1
1.430
100
AcDbAttributeDefinition
  3

  2
LOAD3
 70
     8
280
     0
  0
ATTDEF
  5
130
330
11F
100
AcDbEntity
  8
AM_6
100
AcDbText
 10
20.95300000000009
 20
47.45300000000009
 30
0.0
 40
0.5
  1
12000
100
AcDbAttributeDefinition
  3

  2
SPEED1
 70
     8
280
     0
  0
ATTDEF
  5
131
330
11F
100
AcDbEntity
  8
AM_6
100
AcDbText
 10
20.95300000000009
 20
46.95300000000009
 30
0.0
 40
0.5
  1
10000
100
AcDbAttributeDefinition
  3

  2
SPEED2
 70
     8
280
     0
  0
ATTDEF
  5
132
330
11F
100
AcDbEntity
  8
AM_6
100
AcDbText
 10
20.95300000000009
 20
46.45300000000009
 30
0.0
 40
0.5
  1
SKF
100
AcDbAttributeDefinition
  3

  2
COMPANY
 70
     8
280
     0
  0
ENDBLK
  5
122
330
11F
100
AcDbEntity
  8
0
100
AcDbBlockEnd
  0
BLOCK
  5
135
330
133
100
AcDbEntity
  8
0
100
AcDbBlockBegin
  2
10_PART_6015_M_PART3_in_ASM_6015_M
 70
     2
 10
0.0
 20
0.0
 30
0.0
  3
10_PART_6015_M_PART3_in_ASM_6015_M
  1

  0
3DSOLID
  5
137
330
133
100
AcDbEntity
  8
AM_0
100
AcDbModelerGeometry
290
     0
  2
{00000000-0000-0000-0000-000000000000}
100
AcDb3dSolid
350
0
  0
ATTDEF
  5
138
330
133
100
AcDbEntity
  8
AM_6
100
AcDbText
 10
20.95300000000009
 20
53.45300000000009
 30
0.0
 40
0.5
  1

100
AcDbAttributeDefinition
  3

  2
NN
 70
     8
280
     0
  0
ATTDEF
  5
139
330
133
100
AcDbEntity
  8
AM_6
100
AcDbText
 10
20.95300000000009
 20
52.95300000000009
 30
0.0
 40
0.5
  1
Deep groove ball bearings, single row
100
AcDbAttributeDefinition
  3

  2
NT
 70
     8
280
     0
  0
ATTDEF
  5
13A
330
133
100
AcDbEntity
  8
AM_6
100
AcDbText
 10
20.95300000000009
 20
52.45300000000009
 30
0.0
 40
0.5
  1
6015 M_PART3
100
AcDbAttributeDefinition
  3

  2
NB
 70
     8
280
     0
  0
ATTDEF
  5
13B
330
133
100
AcDbEntity
  8
AM_6
100
AcDbText
 10
20.95300000000009
 20
51.95300000000009
 30
0.0
 40
0.5
  1
$DESIGNATION._PART3
100
AcDbAttributeDefinition
  3

  2
NBSYN
 70
     8
280
     0
  0
ATTDEF
  5
13C
330
133
100
AcDbEntity
  8
AM_6
100
AcDbText
 10
20.95300000000009
 20
51.45300000000009
 30
0.0
 40
0.5
  1
6015 M_PART3
100
AcDbAttributeDefinition
  3

  2
LINA
 70
     8
280
     0
  0
ATTDEF
  5
13D
330
133
100
AcDbEntity
  8
AM_6
100
AcDbText
 10
20.95300000000009
 20
50.95300000000009
 30
0.0
 40
0.5
  1
6015 M
100
AcDbAttributeDefinition
  3

  2
DESIGNATION
 70
     8
280
     0
  0
ATTDEF
  5
13E
330
133
100
AcDbEntity
  8
AM_6
100
AcDbText
 10
20.95300000000009
 20
50.45300000000009
 30
0.0
 40
0.5
  1
75.000
100
AcDbAttributeDefinition
  3

  2
DD
 70
     8
280
     0
  0
ATTDEF
  5
13F
330
133
100
AcDbEntity
  8
AM_6
100
AcDbText
 10
20.95300000000009
 20
49.95300000000009
 30
0.0
 40
0.5
  1
115.000
100
AcDbAttributeDefinition
  3

  2
D
 70
     8
280
     0
  0
ATTDEF
  5
140
330
133
100
AcDbEntity
  8
AM_6
100
AcDbText
 10
20.95300000000009
 20
49.45300000000009
 30
0.0
 40
0.5
  1
20.000
100
AcDbAttributeDefinition
  3

  2
B
 70
     8
280
     0
  0
ATTDEF
  5
141
330
133
100
AcDbEntity
  8
AM_6
100
AcDbText
 10
20.95300000000009
 20
48.95300000000009
 30
0.0
 40
0.5
  1
41.600
100
AcDbAttributeDefinition
  3

  2
LOAD1
 70
     8
280
     0
  0
ATTDEF
  5
142
330
133
100
AcDbEntity
  8
AM_6
100
AcDbText
 10
20.95300000000009
 20
48.45300000000009
 30
0.0
 40
0.5
  1
33.500
100
AcDbAttributeDefinition
  3

  2
LOAD2
 70
     8
280
     0
  0
ATTDEF
  5
143
330
133
100
AcDbEntity
  8
AM_6
100
AcDbText
 10
20.95300000000009
 20
47.95300000000009
 30
0.0
 40
0.5
  1
1.430
100
AcDbAttributeDefinition
  3

  2
LOAD3
 70
     8
280
     0
  0
ATTDEF
  5
144
330
133
100
AcDbEntity
  8
AM_6
100
AcDbText
 10
20.95300000000009
 20
47.45300000000009
 30
0.0
 40
0.5
  1
12000
100
AcDbAttributeDefinition
  3

  2
SPEED1
 70
     8
280
     0
  0
ATTDEF
  5
145
330
133
100
AcDbEntity
  8
AM_6
100
AcDbText
 10
20.95300000000009
 20
46.95300000000009
 30
0.0
 40
0.5
  1
10000
100
AcDbAttributeDefinition
  3

  2
SPEED2
 70
     8
280
     0
  0
ATTDEF
  5
146
330
133
100
AcDbEntity
  8
AM_6
100
AcDbText
 10
20.95300000000009
 20
46.45300000000009
 30
0.0
 40
0.5
  1
SKF
100
AcDbAttributeDefinition
  3

  2
COMPANY
 70
     8
280
     0
  0
ENDBLK
  5
136
330
133
100
AcDbEntity
  8
0
100
AcDbBlockEnd
  0
BLOCK
  5
149
330
147
100
AcDbEntity
  8
0
100
AcDbBlockBegin
  2
11_PART_6015_M_PART3_in_ASM_6015_M
 70
     2
 10
0.0
 20
0.0
 30
0.0
  3
11_PART_6015_M_PART3_in_ASM_6015_M
  1

  0
3DSOLID
  5
14B
330
147
100
AcDbEntity
  8
AM_0
100
AcDbModelerGeometry
290
     0
  2
{00000000-0000-0000-0000-000000000000}
100
AcDb3dSolid
350
0
  0
ATTDEF
  5
14C
330
147
100
AcDbEntity
  8
AM_6
100
AcDbText
 10
20.95300000000009
 20
53.45300000000009
 30
0.0
 40
0.5
  1

100
AcDbAttributeDefinition
  3

  2
NN
 70
     8
280
     0
  0
ATTDEF
  5
14D
330
147
100
AcDbEntity
  8
AM_6
100
AcDbText
 10
20.95300000000009
 20
52.95300000000009
 30
0.0
 40
0.5
  1
Deep groove ball bearings, single row
100
AcDbAttributeDefinition
  3

  2
NT
 70
     8
280
     0
  0
ATTDEF
  5
14E
330
147
100
AcDbEntity
  8
AM_6
100
AcDbText
 10
20.95300000000009
 20
52.45300000000009
 30
0.0
 40
0.5
  1
6015 M_PART3
100
AcDbAttributeDefinition
  3

  2
NB
 70
     8
280
     0
  0
ATTDEF
  5
14F
330
147
100
AcDbEntity
  8
AM_6
100
AcDbText
 10
20.95300000000009
 20
51.95300000000009
 30
0.0
 40
0.5
  1
$DESIGNATION._PART3
100
AcDbAttributeDefinition
  3

  2
NBSYN
 70
     8
280
     0
  0
ATTDEF
  5
150
330
147
100
AcDbEntity
  8
AM_6
100
AcDbText
 10
20.95300000000009
 20
51.45300000000009
 30
0.0
 40
0.5
  1
6015 M_PART3
100
AcDbAttributeDefinition
  3

  2
LINA
 70
     8
280
     0
  0
ATTDEF
  5
151
330
147
100
AcDbEntity
  8
AM_6
100
AcDbText
 10
20.95300000000009
 20
50.95300000000009
 30
0.0
 40
0.5
  1
6015 M
100
AcDbAttributeDefinition
  3

  2
DESIGNATION
 70
     8
280
     0
  0
ATTDEF
  5
152
330
147
100
AcDbEntity
  8
AM_6
100
AcDbText
 10
20.95300000000009
 20
50.45300000000009
 30
0.0
 40
0.5
  1
75.000
100
AcDbAttributeDefinition
  3

  2
DD
 70
     8
280
     0
  0
ATTDEF
  5
153
330
147
100
AcDbEntity
  8
AM_6
100
AcDbText
 10
20.95300000000009
 20
49.95300000000009
 30
0.0
 40
0.5
  1
115.000
100
AcDbAttributeDefinition
  3

  2
D
 70
     8
280
     0
  0
ATTDEF
  5
154
330
147
100
AcDbEntity
  8
AM_6
100
AcDbText
 10
20.95300000000009
 20
49.45300000000009
 30
0.0
 40
0.5
  1
20.000
100
AcDbAttributeDefinition
  3

  2
B
 70
     8
280
     0
  0
ATTDEF
  5
155
330
147
100
AcDbEntity
  8
AM_6
100
AcDbText
 10
20.95300000000009
 20
48.95300000000009
 30
0.0
 40
0.5
  1
41.600
100
AcDbAttributeDefinition
  3

  2
LOAD1
 70
     8
280
     0
  0
ATTDEF
  5
156
330
147
100
AcDbEntity
  8
AM_6
100
AcDbText
 10
20.95300000000009
 20
48.45300000000009
 30
0.0
 40
0.5
  1
33.500
100
AcDbAttributeDefinition
  3

  2
LOAD2
 70
     8
280
     0
  0
ATTDEF
  5
157
330
147
100
AcDbEntity
  8
AM_6
100
AcDbText
 10
20.95300000000009
 20
47.95300000000009
 30
0.0
 40
0.5
  1
1.430
100
AcDbAttributeDefinition
  3

  2
LOAD3
 70
     8
280
     0
  0
ATTDEF
  5
158
330
147
100
AcDbEntity
  8
AM_6
100
AcDbText
 10
20.95300000000009
 20
47.45300000000009
 30
0.0
 40
0.5
  1
12000
100
AcDbAttributeDefinition
  3

  2
SPEED1
 70
     8
280
     0
  0
ATTDEF
  5
159
330
147
100
AcDbEntity
  8
AM_6
100
AcDbText
 10
20.95300000000009
 20
46.95300000000009
 30
0.0
 40
0.5
  1
10000
100
AcDbAttributeDefinition
  3

  2
SPEED2
 70
     8
280
     0
  0
ATTDEF
  5
15A
330
147
100
AcDbEntity
  8
AM_6
100
AcDbText
 10
20.95300000000009
 20
46.45300000000009
 30
0.0
 40
0.5
  1
SKF
100
AcDbAttributeDefinition
  3

  2
COMPANY
 70
     8
280
     0
  0
ENDBLK
  5
14A
330
147
100
AcDbEntity
  8
0
100
AcDbBlockEnd
  0
BLOCK
  5
15D
330
15B
100
AcDbEntity
  8
0
100
AcDbBlockBegin
  2
12_PART_6015_M_PART3_in_ASM_6015_M
 70
     2
 10
0.0
 20
0.0
 30
0.0
  3
12_PART_6015_M_PART3_in_ASM_6015_M
  1

  0
3DSOLID
  5
15F
330
15B
100
AcDbEntity
  8
AM_0
100
AcDbModelerGeometry
290
     0
  2
{00000000-0000-0000-0000-000000000000}
100
AcDb3dSolid
350
0
  0
ATTDEF
  5
160
330
15B
100
AcDbEntity
  8
AM_6
100
AcDbText
 10
20.95300000000009
 20
53.45300000000009
 30
0.0
 40
0.5
  1

100
AcDbAttributeDefinition
  3

  2
NN
 70
     8
280
     0
  0
ATTDEF
  5
161
330
15B
100
AcDbEntity
  8
AM_6
100
AcDbText
 10
20.95300000000009
 20
52.95300000000009
 30
0.0
 40
0.5
  1
Deep groove ball bearings, single row
100
AcDbAttributeDefinition
  3

  2
NT
 70
     8
280
     0
  0
ATTDEF
  5
162
330
15B
100
AcDbEntity
  8
AM_6
100
AcDbText
 10
20.95300000000009
 20
52.45300000000009
 30
0.0
 40
0.5
  1
6015 M_PART3
100
AcDbAttributeDefinition
  3

  2
NB
 70
     8
280
     0
  0
ATTDEF
  5
163
330
15B
100
AcDbEntity
  8
AM_6
100
AcDbText
 10
20.95300000000009
 20
51.95300000000009
 30
0.0
 40
0.5
  1
$DESIGNATION._PART3
100
AcDbAttributeDefinition
  3

  2
NBSYN
 70
     8
280
     0
  0
ATTDEF
  5
164
330
15B
100
AcDbEntity
  8
AM_6
100
AcDbText
 10
20.95300000000009
 20
51.45300000000009
 30
0.0
 40
0.5
  1
6015 M_PART3
100
AcDbAttributeDefinition
  3

  2
LINA
 70
     8
280
     0
  0
ATTDEF
  5
165
330
15B
100
AcDbEntity
  8
AM_6
100
AcDbText
 10
20.95300000000009
 20
50.95300000000009
 30
0.0
 40
0.5
  1
6015 M
100
AcDbAttributeDefinition
  3

  2
DESIGNATION
 70
     8
280
     0
  0
ATTDEF
  5
166
330
15B
100
AcDbEntity
  8
AM_6
100
AcDbText
 10
20.95300000000009
 20
50.45300000000009
 30
0.0
 40
0.5
  1
75.000
100
AcDbAttributeDefinition
  3

  2
DD
 70
     8
280
     0
  0
ATTDEF
  5
167
330
15B
100
AcDbEntity
  8
AM_6
100
AcDbText
 10
20.95300000000009
 20
49.95300000000009
 30
0.0
 40
0.5
  1
115.000
100
AcDbAttributeDefinition
  3

  2
D
 70
     8
280
     0
  0
ATTDEF
  5
168
330
15B
100
AcDbEntity
  8
AM_6
100
AcDbText
 10
20.95300000000009
 20
49.45300000000009
 30
0.0
 40
0.5
  1
20.000
100
AcDbAttributeDefinition
  3

  2
B
 70
     8
280
     0
  0
ATTDEF
  5
169
330
15B
100
AcDbEntity
  8
AM_6
100
AcDbText
 10
20.95300000000009
 20
48.95300000000009
 30
0.0
 40
0.5
  1
41.600
100
AcDbAttributeDefinition
  3

  2
LOAD1
 70
     8
280
     0
  0
ATTDEF
  5
16A
330
15B
100
AcDbEntity
  8
AM_6
100
AcDbText
 10
20.95300000000009
 20
48.45300000000009
 30
0.0
 40
0.5
  1
33.500
100
AcDbAttributeDefinition
  3

  2
LOAD2
 70
     8
280
     0
  0
ATTDEF
  5
16B
330
15B
100
AcDbEntity
  8
AM_6
100
AcDbText
 10
20.95300000000009
 20
47.95300000000009
 30
0.0
 40
0.5
  1
1.430
100
AcDbAttributeDefinition
  3

  2
LOAD3
 70
     8
280
     0
  0
ATTDEF
  5
16C
330
15B
100
AcDbEntity
  8
AM_6
100
AcDbText
 10
20.95300000000009
 20
47.45300000000009
 30
0.0
 40
0.5
  1
12000
100
AcDbAttributeDefinition
  3

  2
SPEED1
 70
     8
280
     0
  0
ATTDEF
  5
16D
330
15B
100
AcDbEntity
  8
AM_6
100
AcDbText
 10
20.95300000000009
 20
46.95300000000009
 30
0.0
 40
0.5
  1
10000
100
AcDbAttributeDefinition
  3

  2
SPEED2
 70
     8
280
     0
  0
ATTDEF
  5
16E
330
15B
100
AcDbEntity
  8
AM_6
100
AcDbText
 10
20.95300000000009
 20
46.45300000000009
 30
0.0
 40
0.5
  1
SKF
100
AcDbAttributeDefinition
  3

  2
COMPANY
 70
     8
280
     0
  0
ENDBLK
  5
15E
330
15B
100
AcDbEntity
  8
0
100
AcDbBlockEnd
  0
BLOCK
  5
171
330
16F
100
AcDbEntity
  8
0
100
AcDbBlockBegin
  2
13_PART_6015_M_PART3_in_ASM_6015_M
 70
     2
 10
0.0
 20
0.0
 30
0.0
  3
13_PART_6015_M_PART3_in_ASM_6015_M
  1

  0
3DSOLID
  5
173
330
16F
100
AcDbEntity
  8
AM_0
100
AcDbModelerGeometry
290
     0
  2
{00000000-0000-0000-0000-000000000000}
100
AcDb3dSolid
350
0
  0
ATTDEF
  5
174
330
16F
100
AcDbEntity
  8
AM_6
100
AcDbText
 10
20.95300000000009
 20
53.45300000000009
 30
0.0
 40
0.5
  1

100
AcDbAttributeDefinition
  3

  2
NN
 70
     8
280
     0
  0
ATTDEF
  5
175
330
16F
100
AcDbEntity
  8
AM_6
100
AcDbText
 10
20.95300000000009
 20
52.95300000000009
 30
0.0
 40
0.5
  1
Deep groove ball bearings, single row
100
AcDbAttributeDefinition
  3

  2
NT
 70
     8
280
     0
  0
ATTDEF
  5
176
330
16F
100
AcDbEntity
  8
AM_6
100
AcDbText
 10
20.95300000000009
 20
52.45300000000009
 30
0.0
 40
0.5
  1
6015 M_PART3
100
AcDbAttributeDefinition
  3

  2
NB
 70
     8
280
     0
  0
ATTDEF
  5
177
330
16F
100
AcDbEntity
  8
AM_6
100
AcDbText
 10
20.95300000000009
 20
51.95300000000009
 30
0.0
 40
0.5
  1
$DESIGNATION._PART3
100
AcDbAttributeDefinition
  3

  2
NBSYN
 70
     8
280
     0
  0
ATTDEF
  5
178
330
16F
100
AcDbEntity
  8
AM_6
100
AcDbText
 10
20.95300000000009
 20
51.45300000000009
 30
0.0
 40
0.5
  1
6015 M_PART3
100
AcDbAttributeDefinition
  3

  2
LINA
 70
     8
280
     0
  0
ATTDEF
  5
179
330
16F
100
AcDbEntity
  8
AM_6
100
AcDbText
 10
20.95300000000009
 20
50.95300000000009
 30
0.0
 40
0.5
  1
6015 M
100
AcDbAttributeDefinition
  3

  2
DESIGNATION
 70
     8
280
     0
  0
ATTDEF
  5
17A
330
16F
100
AcDbEntity
  8
AM_6
100
AcDbText
 10
20.95300000000009
 20
50.45300000000009
 30
0.0
 40
0.5
  1
75.000
100
AcDbAttributeDefinition
  3

  2
DD
 70
     8
280
     0
  0
ATTDEF
  5
17B
330
16F
100
AcDbEntity
  8
AM_6
100
AcDbText
 10
20.95300000000009
 20
49.95300000000009
 30
0.0
 40
0.5
  1
115.000
100
AcDbAttributeDefinition
  3

  2
D
 70
     8
280
     0
  0
ATTDEF
  5
17C
330
16F
100
AcDbEntity
  8
AM_6
100
AcDbText
 10
20.95300000000009
 20
49.45300000000009
 30
0.0
 40
0.5
  1
20.000
100
AcDbAttributeDefinition
  3

  2
B
 70
     8
280
     0
  0
ATTDEF
  5
17D
330
16F
100
AcDbEntity
  8
AM_6
100
AcDbText
 10
20.95300000000009
 20
48.95300000000009
 30
0.0
 40
0.5
  1
41.600
100
AcDbAttributeDefinition
  3

  2
LOAD1
 70
     8
280
     0
  0
ATTDEF
  5
17E
330
16F
100
AcDbEntity
  8
AM_6
100
AcDbText
 10
20.95300000000009
 20
48.45300000000009
 30
0.0
 40
0.5
  1
33.500
100
AcDbAttributeDefinition
  3

  2
LOAD2
 70
     8
280
     0
  0
ATTDEF
  5
17F
330
16F
100
AcDbEntity
  8
AM_6
100
AcDbText
 10
20.95300000000009
 20
47.95300000000009
 30
0.0
 40
0.5
  1
1.430
100
AcDbAttributeDefinition
  3

  2
LOAD3
 70
     8
280
     0
  0
ATTDEF
  5
180
330
16F
100
AcDbEntity
  8
AM_6
100
AcDbText
 10
20.95300000000009
 20
47.45300000000009
 30
0.0
 40
0.5
  1
12000
100
AcDbAttributeDefinition
  3

  2
SPEED1
 70
     8
280
     0
  0
ATTDEF
  5
181
330
16F
100
AcDbEntity
  8
AM_6
100
AcDbText
 10
20.95300000000009
 20
46.95300000000009
 30
0.0
 40
0.5
  1
10000
100
AcDbAttributeDefinition
  3

  2
SPEED2
 70
     8
280
     0
  0
ATTDEF
  5
182
330
16F
100
AcDbEntity
  8
AM_6
100
AcDbText
 10
20.95300000000009
 20
46.45300000000009
 30
0.0
 40
0.5
  1
SKF
100
AcDbAttributeDefinition
  3

  2
COMPANY
 70
     8
280
     0
  0
ENDBLK
  5
172
330
16F
100
AcDbEntity
  8
0
100
AcDbBlockEnd
  0
BLOCK
  5
185
330
183
100
AcDbEntity
  8
0
100
AcDbBlockBegin
  2
14_PART_6015_M_PART3_in_ASM_6015_M
 70
     2
 10
0.0
 20
0.0
 30
0.0
  3
14_PART_6015_M_PART3_in_ASM_6015_M
  1

  0
3DSOLID
  5
187
330
183
100
AcDbEntity
  8
AM_0
100
AcDbModelerGeometry
290
     0
  2
{00000000-0000-0000-0000-000000000000}
100
AcDb3dSolid
350
0
  0
ATTDEF
  5
188
330
183
100
AcDbEntity
  8
AM_6
100
AcDbText
 10
20.95300000000009
 20
53.45300000000009
 30
0.0
 40
0.5
  1

100
AcDbAttributeDefinition
  3

  2
NN
 70
     8
280
     0
  0
ATTDEF
  5
189
330
183
100
AcDbEntity
  8
AM_6
100
AcDbText
 10
20.95300000000009
 20
52.95300000000009
 30
0.0
 40
0.5
  1
Deep groove ball bearings, single row
100
AcDbAttributeDefinition
  3

  2
NT
 70
     8
280
     0
  0
ATTDEF
  5
18A
330
183
100
AcDbEntity
  8
AM_6
100
AcDbText
 10
20.95300000000009
 20
52.45300000000009
 30
0.0
 40
0.5
  1
6015 M_PART3
100
AcDbAttributeDefinition
  3

  2
NB
 70
     8
280
     0
  0
ATTDEF
  5
18B
330
183
100
AcDbEntity
  8
AM_6
100
AcDbText
 10
20.95300000000009
 20
51.95300000000009
 30
0.0
 40
0.5
  1
$DESIGNATION._PART3
100
AcDbAttributeDefinition
  3

  2
NBSYN
 70
     8
280
     0
  0
ATTDEF
  5
18C
330
183
100
AcDbEntity
  8
AM_6
100
AcDbText
 10
20.95300000000009
 20
51.45300000000009
 30
0.0
 40
0.5
  1
6015 M_PART3
100
AcDbAttributeDefinition
  3

  2
LINA
 70
     8
280
     0
  0
ATTDEF
  5
18D
330
183
100
AcDbEntity
  8
AM_6
100
AcDbText
 10
20.95300000000009
 20
50.95300000000009
 30
0.0
 40
0.5
  1
6015 M
100
AcDbAttributeDefinition
  3

  2
DESIGNATION
 70
     8
280
     0
  0
ATTDEF
  5
18E
330
183
100
AcDbEntity
  8
AM_6
100
AcDbText
 10
20.95300000000009
 20
50.45300000000009
 30
0.0
 40
0.5
  1
75.000
100
AcDbAttributeDefinition
  3

  2
DD
 70
     8
280
     0
  0
ATTDEF
  5
18F
330
183
100
AcDbEntity
  8
AM_6
100
AcDbText
 10
20.95300000000009
 20
49.95300000000009
 30
0.0
 40
0.5
  1
115.000
100
AcDbAttributeDefinition
  3

  2
D
 70
     8
280
     0
  0
ATTDEF
  5
190
330
183
100
AcDbEntity
  8
AM_6
100
AcDbText
 10
20.95300000000009
 20
49.45300000000009
 30
0.0
 40
0.5
  1
20.000
100
AcDbAttributeDefinition
  3

  2
B
 70
     8
280
     0
  0
ATTDEF
  5
191
330
183
100
AcDbEntity
  8
AM_6
100
AcDbText
 10
20.95300000000009
 20
48.95300000000009
 30
0.0
 40
0.5
  1
41.600
100
AcDbAttributeDefinition
  3

  2
LOAD1
 70
     8
280
     0
  0
ATTDEF
  5
192
330
183
100
AcDbEntity
  8
AM_6
100
AcDbText
 10
20.95300000000009
 20
48.45300000000009
 30
0.0
 40
0.5
  1
33.500
100
AcDbAttributeDefinition
  3

  2
LOAD2
 70
     8
280
     0
  0
ATTDEF
  5
193
330
183
100
AcDbEntity
  8
AM_6
100
AcDbText
 10
20.95300000000009
 20
47.95300000000009
 30
0.0
 40
0.5
  1
1.430
100
AcDbAttributeDefinition
  3

  2
LOAD3
 70
     8
280
     0
  0
ATTDEF
  5
194
330
183
100
AcDbEntity
  8
AM_6
100
AcDbText
 10
20.95300000000009
 20
47.45300000000009
 30
0.0
 40
0.5
  1
12000
100
AcDbAttributeDefinition
  3

  2
SPEED1
 70
     8
280
     0
  0
ATTDEF
  5
195
330
183
100
AcDbEntity
  8
AM_6
100
AcDbText
 10
20.95300000000009
 20
46.95300000000009
 30
0.0
 40
0.5
  1
10000
100
AcDbAttributeDefinition
  3

  2
SPEED2
 70
     8
280
     0
  0
ATTDEF
  5
196
330
183
100
AcDbEntity
  8
AM_6
100
AcDbText
 10
20.95300000000009
 20
46.45300000000009
 30
0.0
 40
0.5
  1
SKF
100
AcDbAttributeDefinition
  3

  2
COMPANY
 70
     8
280
     0
  0
ENDBLK
  5
186
330
183
100
AcDbEntity
  8
0
100
AcDbBlockEnd
  0
BLOCK
  5
199
330
197
100
AcDbEntity
  8
0
100
AcDbBlockBegin
  2
15_PART_6015_M_PART3_in_ASM_6015_M
 70
     2
 10
0.0
 20
0.0
 30
0.0
  3
15_PART_6015_M_PART3_in_ASM_6015_M
  1

  0
3DSOLID
  5
19B
330
197
100
AcDbEntity
  8
AM_0
100
AcDbModelerGeometry
290
     0
  2
{00000000-0000-0000-0000-000000000000}
100
AcDb3dSolid
350
0
  0
ATTDEF
  5
19C
330
197
100
AcDbEntity
  8
AM_6
100
AcDbText
 10
20.95300000000009
 20
53.45300000000009
 30
0.0
 40
0.5
  1

100
AcDbAttributeDefinition
  3

  2
NN
 70
     8
280
     0
  0
ATTDEF
  5
19D
330
197
100
AcDbEntity
  8
AM_6
100
AcDbText
 10
20.95300000000009
 20
52.95300000000009
 30
0.0
 40
0.5
  1
Deep groove ball bearings, single row
100
AcDbAttributeDefinition
  3

  2
NT
 70
     8
280
     0
  0
ATTDEF
  5
19E
330
197
100
AcDbEntity
  8
AM_6
100
AcDbText
 10
20.95300000000009
 20
52.45300000000009
 30
0.0
 40
0.5
  1
6015 M_PART3
100
AcDbAttributeDefinition
  3

  2
NB
 70
     8
280
     0
  0
ATTDEF
  5
19F
330
197
100
AcDbEntity
  8
AM_6
100
AcDbText
 10
20.95300000000009
 20
51.95300000000009
 30
0.0
 40
0.5
  1
$DESIGNATION._PART3
100
AcDbAttributeDefinition
  3

  2
NBSYN
 70
     8
280
     0
  0
ATTDEF
  5
1A0
330
197
100
AcDbEntity
  8
AM_6
100
AcDbText
 10
20.95300000000009
 20
51.45300000000009
 30
0.0
 40
0.5
  1
6015 M_PART3
100
AcDbAttributeDefinition
  3

  2
LINA
 70
     8
280
     0
  0
ATTDEF
  5
1A1
330
197
100
AcDbEntity
  8
AM_6
100
AcDbText
 10
20.95300000000009
 20
50.95300000000009
 30
0.0
 40
0.5
  1
6015 M
100
AcDbAttributeDefinition
  3

  2
DESIGNATION
 70
     8
280
     0
  0
ATTDEF
  5
1A2
330
197
100
AcDbEntity
  8
AM_6
100
AcDbText
 10
20.95300000000009
 20
50.45300000000009
 30
0.0
 40
0.5
  1
75.000
100
AcDbAttributeDefinition
  3

  2
DD
 70
     8
280
     0
  0
ATTDEF
  5
1A3
330
197
100
AcDbEntity
  8
AM_6
100
AcDbText
 10
20.95300000000009
 20
49.95300000000009
 30
0.0
 40
0.5
  1
115.000
100
AcDbAttributeDefinition
  3

  2
D
 70
     8
280
     0
  0
ATTDEF
  5
1A4
330
197
100
AcDbEntity
  8
AM_6
100
AcDbText
 10
20.95300000000009
 20
49.45300000000009
 30
0.0
 40
0.5
  1
20.000
100
AcDbAttributeDefinition
  3

  2
B
 70
     8
280
     0
  0
ATTDEF
  5
1A5
330
197
100
AcDbEntity
  8
AM_6
100
AcDbText
 10
20.95300000000009
 20
48.95300000000009
 30
0.0
 40
0.5
  1
41.600
100
AcDbAttributeDefinition
  3

  2
LOAD1
 70
     8
280
     0
  0
ATTDEF
  5
1A6
330
197
100
AcDbEntity
  8
AM_6
100
AcDbText
 10
20.95300000000009
 20
48.45300000000009
 30
0.0
 40
0.5
  1
33.500
100
AcDbAttributeDefinition
  3

  2
LOAD2
 70
     8
280
     0
  0
ATTDEF
  5
1A7
330
197
100
AcDbEntity
  8
AM_6
100
AcDbText
 10
20.95300000000009
 20
47.95300000000009
 30
0.0
 40
0.5
  1
1.430
100
AcDbAttributeDefinition
  3

  2
LOAD3
 70
     8
280
     0
  0
ATTDEF
  5
1A8
330
197
100
AcDbEntity
  8
AM_6
100
AcDbText
 10
20.95300000000009
 20
47.45300000000009
 30
0.0
 40
0.5
  1
12000
100
AcDbAttributeDefinition
  3

  2
SPEED1
 70
     8
280
     0
  0
ATTDEF
  5
1A9
330
197
100
AcDbEntity
  8
AM_6
100
AcDbText
 10
20.95300000000009
 20
46.95300000000009
 30
0.0
 40
0.5
  1
10000
100
AcDbAttributeDefinition
  3

  2
SPEED2
 70
     8
280
     0
  0
ATTDEF
  5
1AA
330
197
100
AcDbEntity
  8
AM_6
100
AcDbText
 10
20.95300000000009
 20
46.45300000000009
 30
0.0
 40
0.5
  1
SKF
100
AcDbAttributeDefinition
  3

  2
COMPANY
 70
     8
280
     0
  0
ENDBLK
  5
19A
330
197
100
AcDbEntity
  8
0
100
AcDbBlockEnd
  0
BLOCK
  5
1AD
330
1AB
100
AcDbEntity
  8
0
100
AcDbBlockBegin
  2
16_PART_6015_M_PART3_in_ASM_6015_M
 70
     2
 10
0.0
 20
0.0
 30
0.0
  3
16_PART_6015_M_PART3_in_ASM_6015_M
  1

  0
3DSOLID
  5
1AF
330
1AB
100
AcDbEntity
  8
AM_0
100
AcDbModelerGeometry
290
     0
  2
{00000000-0000-0000-0000-000000000000}
100
AcDb3dSolid
350
0
  0
ATTDEF
  5
1B0
330
1AB
100
AcDbEntity
  8
AM_6
100
AcDbText
 10
20.95300000000009
 20
53.45300000000009
 30
0.0
 40
0.5
  1

100
AcDbAttributeDefinition
  3

  2
NN
 70
     8
280
     0
  0
ATTDEF
  5
1B1
330
1AB
100
AcDbEntity
  8
AM_6
100
AcDbText
 10
20.95300000000009
 20
52.95300000000009
 30
0.0
 40
0.5
  1
Deep groove ball bearings, single row
100
AcDbAttributeDefinition
  3

  2
NT
 70
     8
280
     0
  0
ATTDEF
  5
1B2
330
1AB
100
AcDbEntity
  8
AM_6
100
AcDbText
 10
20.95300000000009
 20
52.45300000000009
 30
0.0
 40
0.5
  1
6015 M_PART3
100
AcDbAttributeDefinition
  3

  2
NB
 70
     8
280
     0
  0
ATTDEF
  5
1B3
330
1AB
100
AcDbEntity
  8
AM_6
100
AcDbText
 10
20.95300000000009
 20
51.95300000000009
 30
0.0
 40
0.5
  1
$DESIGNATION._PART3
100
AcDbAttributeDefinition
  3

  2
NBSYN
 70
     8
280
     0
  0
ATTDEF
  5
1B4
330
1AB
100
AcDbEntity
  8
AM_6
100
AcDbText
 10
20.95300000000009
 20
51.45300000000009
 30
0.0
 40
0.5
  1
6015 M_PART3
100
AcDbAttributeDefinition
  3

  2
LINA
 70
     8
280
     0
  0
ATTDEF
  5
1B5
330
1AB
100
AcDbEntity
  8
AM_6
100
AcDbText
 10
20.95300000000009
 20
50.95300000000009
 30
0.0
 40
0.5
  1
6015 M
100
AcDbAttributeDefinition
  3

  2
DESIGNATION
 70
     8
280
     0
  0
ATTDEF
  5
1B6
330
1AB
100
AcDbEntity
  8
AM_6
100
AcDbText
 10
20.95300000000009
 20
50.45300000000009
 30
0.0
 40
0.5
  1
75.000
100
AcDbAttributeDefinition
  3

  2
DD
 70
     8
280
     0
  0
ATTDEF
  5
1B7
330
1AB
100
AcDbEntity
  8
AM_6
100
AcDbText
 10
20.95300000000009
 20
49.95300000000009
 30
0.0
 40
0.5
  1
115.000
100
AcDbAttributeDefinition
  3

  2
D
 70
     8
280
     0
  0
ATTDEF
  5
1B8
330
1AB
100
AcDbEntity
  8
AM_6
100
AcDbText
 10
20.95300000000009
 20
49.45300000000009
 30
0.0
 40
0.5
  1
20.000
100
AcDbAttributeDefinition
  3

  2
B
 70
     8
280
     0
  0
ATTDEF
  5
1B9
330
1AB
100
AcDbEntity
  8
AM_6
100
AcDbText
 10
20.95300000000009
 20
48.95300000000009
 30
0.0
 40
0.5
  1
41.600
100
AcDbAttributeDefinition
  3

  2
LOAD1
 70
     8
280
     0
  0
ATTDEF
  5
1BA
330
1AB
100
AcDbEntity
  8
AM_6
100
AcDbText
 10
20.95300000000009
 20
48.45300000000009
 30
0.0
 40
0.5
  1
33.500
100
AcDbAttributeDefinition
  3

  2
LOAD2
 70
     8
280
     0
  0
ATTDEF
  5
1BB
330
1AB
100
AcDbEntity
  8
AM_6
100
AcDbText
 10
20.95300000000009
 20
47.95300000000009
 30
0.0
 40
0.5
  1
1.430
100
AcDbAttributeDefinition
  3

  2
LOAD3
 70
     8
280
     0
  0
ATTDEF
  5
1BC
330
1AB
100
AcDbEntity
  8
AM_6
100
AcDbText
 10
20.95300000000009
 20
47.45300000000009
 30
0.0
 40
0.5
  1
12000
100
AcDbAttributeDefinition
  3

  2
SPEED1
 70
     8
280
     0
  0
ATTDEF
  5
1BD
330
1AB
100
AcDbEntity
  8
AM_6
100
AcDbText
 10
20.95300000000009
 20
46.95300000000009
 30
0.0
 40
0.5
  1
10000
100
AcDbAttributeDefinition
  3

  2
SPEED2
 70
     8
280
     0
  0
ATTDEF
  5
1BE
330
1AB
100
AcDbEntity
  8
AM_6
100
AcDbText
 10
20.95300000000009
 20
46.45300000000009
 30
0.0
 40
0.5
  1
SKF
100
AcDbAttributeDefinition
  3

  2
COMPANY
 70
     8
280
     0
  0
ENDBLK
  5
1AE
330
1AB
100
AcDbEntity
  8
0
100
AcDbBlockEnd
  0
BLOCK
  5
1C1
330
1BF
100
AcDbEntity
  8
0
100
AcDbBlockBegin
  2
17_PART_6015_M_PART3_in_ASM_6015_M
 70
     2
 10
0.0
 20
0.0
 30
0.0
  3
17_PART_6015_M_PART3_in_ASM_6015_M
  1

  0
3DSOLID
  5
1C3
330
1BF
100
AcDbEntity
  8
AM_0
100
AcDbModelerGeometry
290
     0
  2
{00000000-0000-0000-0000-000000000000}
100
AcDb3dSolid
350
0
  0
ATTDEF
  5
1C4
330
1BF
100
AcDbEntity
  8
AM_6
100
AcDbText
 10
20.95300000000009
 20
53.45300000000009
 30
0.0
 40
0.5
  1

100
AcDbAttributeDefinition
  3

  2
NN
 70
     8
280
     0
  0
ATTDEF
  5
1C5
330
1BF
100
AcDbEntity
  8
AM_6
100
AcDbText
 10
20.95300000000009
 20
52.95300000000009
 30
0.0
 40
0.5
  1
Deep groove ball bearings, single row
100
AcDbAttributeDefinition
  3

  2
NT
 70
     8
280
     0
  0
ATTDEF
  5
1C6
330
1BF
100
AcDbEntity
  8
AM_6
100
AcDbText
 10
20.95300000000009
 20
52.45300000000009
 30
0.0
 40
0.5
  1
6015 M_PART3
100
AcDbAttributeDefinition
  3

  2
NB
 70
     8
280
     0
  0
ATTDEF
  5
1C7
330
1BF
100
AcDbEntity
  8
AM_6
100
AcDbText
 10
20.95300000000009
 20
51.95300000000009
 30
0.0
 40
0.5
  1
$DESIGNATION._PART3
100
AcDbAttributeDefinition
  3

  2
NBSYN
 70
     8
280
     0
  0
ATTDEF
  5
1C8
330
1BF
100
AcDbEntity
  8
AM_6
100
AcDbText
 10
20.95300000000009
 20
51.45300000000009
 30
0.0
 40
0.5
  1
6015 M_PART3
100
AcDbAttributeDefinition
  3

  2
LINA
 70
     8
280
     0
  0
ATTDEF
  5
1C9
330
1BF
100
AcDbEntity
  8
AM_6
100
AcDbText
 10
20.95300000000009
 20
50.95300000000009
 30
0.0
 40
0.5
  1
6015 M
100
AcDbAttributeDefinition
  3

  2
DESIGNATION
 70
     8
280
     0
  0
ATTDEF
  5
1CA
330
1BF
100
AcDbEntity
  8
AM_6
100
AcDbText
 10
20.95300000000009
 20
50.45300000000009
 30
0.0
 40
0.5
  1
75.000
100
AcDbAttributeDefinition
  3

  2
DD
 70
     8
280
     0
  0
ATTDEF
  5
1CB
330
1BF
100
AcDbEntity
  8
AM_6
100
AcDbText
 10
20.95300000000009
 20
49.95300000000009
 30
0.0
 40
0.5
  1
115.000
100
AcDbAttributeDefinition
  3

  2
D
 70
     8
280
     0
  0
ATTDEF
  5
1CC
330
1BF
100
AcDbEntity
  8
AM_6
100
AcDbText
 10
20.95300000000009
 20
49.45300000000009
 30
0.0
 40
0.5
  1
20.000
100
AcDbAttributeDefinition
  3

  2
B
 70
     8
280
     0
  0
ATTDEF
  5
1CD
330
1BF
100
AcDbEntity
  8
AM_6
100
AcDbText
 10
20.95300000000009
 20
48.95300000000009
 30
0.0
 40
0.5
  1
41.600
100
AcDbAttributeDefinition
  3

  2
LOAD1
 70
     8
280
     0
  0
ATTDEF
  5
1CE
330
1BF
100
AcDbEntity
  8
AM_6
100
AcDbText
 10
20.95300000000009
 20
48.45300000000009
 30
0.0
 40
0.5
  1
33.500
100
AcDbAttributeDefinition
  3

  2
LOAD2
 70
     8
280
     0
  0
ATTDEF
  5
1CF
330
1BF
100
AcDbEntity
  8
AM_6
100
AcDbText
 10
20.95300000000009
 20
47.95300000000009
 30
0.0
 40
0.5
  1
1.430
100
AcDbAttributeDefinition
  3

  2
LOAD3
 70
     8
280
     0
  0
ATTDEF
  5
1D0
330
1BF
100
AcDbEntity
  8
AM_6
100
AcDbText
 10
20.95300000000009
 20
47.45300000000009
 30
0.0
 40
0.5
  1
12000
100
AcDbAttributeDefinition
  3

  2
SPEED1
 70
     8
280
     0
  0
ATTDEF
  5
1D1
330
1BF
100
AcDbEntity
  8
AM_6
100
AcDbText
 10
20.95300000000009
 20
46.95300000000009
 30
0.0
 40
0.5
  1
10000
100
AcDbAttributeDefinition
  3

  2
SPEED2
 70
     8
280
     0
  0
ATTDEF
  5
1D2
330
1BF
100
AcDbEntity
  8
AM_6
100
AcDbText
 10
20.95300000000009
 20
46.45300000000009
 30
0.0
 40
0.5
  1
SKF
100
AcDbAttributeDefinition
  3

  2
COMPANY
 70
     8
280
     0
  0
ENDBLK
  5
1C2
330
1BF
100
AcDbEntity
  8
0
100
AcDbBlockEnd
  0
ENDSEC
  0
SECTION
  2
ENTITIES
  0
ATTDEF
  5
6F
330
1F
100
AcDbEntity
  8
AM_6
100
AcDbText
 10
25.00000000000032
 20
57.50000000000005
 30
0.0
 40
0.5
  1
BB1_001_101
100
AcDbAttributeDefinition
  3

  2
NN
 70
     8
280
     0
  0
ATTDEF
  5
70
330
1F
100
AcDbEntity
  8
AM_6
100
AcDbText
 10
25.00000000000032
 20
57.00000000000005
 30
0.0
 40
0.5
  1
Deep groove ball bearings, single row
100
AcDbAttributeDefinition
  3

  2
NT
 70
     8
280
     0
  0
ATTDEF
  5
71
330
1F
100
AcDbEntity
  8
AM_6
100
AcDbText
 10
25.00000000000032
 20
56.50000000000005
 30
0.0
 40
0.5
  1
6015 M
100
AcDbAttributeDefinition
  3

  2
NB
 70
     8
280
     0
  0
ATTDEF
  5
72
330
1F
100
AcDbEntity
  8
AM_6
100
AcDbText
 10
25.00000000000032
 20
56.00000000000005
 30
0.0
 40
0.5
  1
$DESIGNATION.
100
AcDbAttributeDefinition
  3

  2
NBSYN
 70
     8
280
     0
  0
ATTDEF
  5
73
330
1F
100
AcDbEntity
  8
AM_6
100
AcDbText
 10
25.00000000000032
 20
55.50000000000005
 30
0.0
 40
0.5
  1
6015 M
100
AcDbAttributeDefinition
  3

  2
LINA
 70
     8
280
     0
  0
ATTDEF
  5
74
330
1F
100
AcDbEntity
  8
AM_6
100
AcDbText
 10
25.00000000000032
 20
55.00000000000005
 30
0.0
 40
0.5
  1
6015 M
100
AcDbAttributeDefinition
  3

  2
DESIGNATION
 70
     8
280
     0
  0
ATTDEF
  5
75
330
1F
100
AcDbEntity
  8
AM_6
100
AcDbText
 10
25.00000000000032
 20
54.50000000000005
 30
0.0
 40
0.5
  1
75.000
100
AcDbAttributeDefinition
  3

  2
DD
 70
     8
280
     0
  0
ATTDEF
  5
76
330
1F
100
AcDbEntity
  8
AM_6
100
AcDbText
 10
25.00000000000032
 20
54.00000000000005
 30
0.0
 40
0.5
  1
115.000
100
AcDbAttributeDefinition
  3

  2
D
 70
     8
280
     0
  0
ATTDEF
  5
77
330
1F
100
AcDbEntity
  8
AM_6
100
AcDbText
 10
25.00000000000032
 20
53.50000000000005
 30
0.0
 40
0.5
  1
20.000
100
AcDbAttributeDefinition
  3

  2
B
 70
     8
280
     0
  0
ATTDEF
  5
78
330
1F
100
AcDbEntity
  8
AM_6
100
AcDbText
 10
25.00000000000032
 20
53.00000000000005
 30
0.0
 40
0.5
  1
41.600
100
AcDbAttributeDefinition
  3

  2
LOAD1
 70
     8
280
     0
  0
ATTDEF
  5
79
330
1F
100
AcDbEntity
  8
AM_6
100
AcDbText
 10
25.00000000000032
 20
52.50000000000005
 30
0.0
 40
0.5
  1
33.500
100
AcDbAttributeDefinition
  3

  2
LOAD2
 70
     8
280
     0
  0
ATTDEF
  5
7A
330
1F
100
AcDbEntity
  8
AM_6
100
AcDbText
 10
25.00000000000032
 20
52.00000000000005
 30
0.0
 40
0.5
  1
1.430
100
AcDbAttributeDefinition
  3

  2
LOAD3
 70
     8
280
     0
  0
ATTDEF
  5
7B
330
1F
100
AcDbEntity
  8
AM_6
100
AcDbText
 10
25.00000000000032
 20
51.50000000000005
 30
0.0
 40
0.5
  1
12000
100
AcDbAttributeDefinition
  3

  2
SPEED1
 70
     8
280
     0
  0
ATTDEF
  5
7C
330
1F
100
AcDbEntity
  8
AM_6
100
AcDbText
 10
25.00000000000032
 20
51.00000000000005
 30
0.0
 40
0.5
  1
10000
100
AcDbAttributeDefinition
  3

  2
SPEED2
 70
     8
280
     0
  0
ATTDEF
  5
7D
330
1F
100
AcDbEntity
  8
AM_6
100
AcDbText
 10
25.00000000000032
 20
50.50000000000005
 30
0.0
 40
0.5
  1
SKF
100
AcDbAttributeDefinition
  3

  2
COMPANY
 70
     8
280
     0
  0
INSERT
  5
7F
330
1F
100
AcDbEntity
  8
0
100
AcDbBlockReference
  2
1_PART_6015_M_PART1_in_ASM_6015_M
 10
0.0
 20
0.0
 30
0.0
  0
INSERT
  5
94
330
1F
100
AcDbEntity
  8
0
100
AcDbBlockReference
  2
2_PART_6015_M_PART2_in_ASM_6015_M
 10
0.0
 20
0.0
 30
0.0
  0
INSERT
  5
A8
330
1F
100
AcDbEntity
  8
0
100
AcDbBlockReference
  2
3_PART_6015_M_PART3_in_ASM_6015_M
 10
0.0
 20
0.0
 30
0.0
  0
INSERT
  5
BC
330
1F
100
AcDbEntity
  8
0
100
AcDbBlockReference
  2
4_PART_6015_M_PART3_in_ASM_6015_M
 10
0.0
 20
0.0
 30
0.0
  0
INSERT
  5
D0
330
1F
100
AcDbEntity
  8
0
100
AcDbBlockReference
  2
5_PART_6015_M_PART3_in_ASM_6015_M
 10
0.0
 20
0.0
 30
0.0
  0
INSERT
  5
E4
330
1F
100
AcDbEntity
  8
0
100
AcDbBlockReference
  2
6_PART_6015_M_PART3_in_ASM_6015_M
 10
0.0
 20
0.0
 30
0.0
  0
INSERT
  5
F8
330
1F
100
AcDbEntity
  8
0
100
AcDbBlockReference
  2
7_PART_6015_M_PART3_in_ASM_6015_M
 10
0.0
 20
0.0
 30
0.0
  0
INSERT
  5
10C
330
1F
100
AcDbEntity
  8
0
100
AcDbBlockReference
  2
8_PART_6015_M_PART3_in_ASM_6015_M
 10
0.0
 20
0.0
 30
0.0
  0
INSERT
  5
120
330
1F
100
AcDbEntity
  8
0
100
AcDbBlockReference
  2
9_PART_6015_M_PART3_in_ASM_6015_M
 10
0.0
 20
0.0
 30
0.0
  0
INSERT
  5
134
330
1F
100
AcDbEntity
  8
0
100
AcDbBlockReference
  2
10_PART_6015_M_PART3_in_ASM_6015_M
 10
0.0
 20
0.0
 30
0.0
  0
INSERT
  5
148
330
1F
100
AcDbEntity
  8
0
100
AcDbBlockReference
  2
11_PART_6015_M_PART3_in_ASM_6015_M
 10
0.0
 20
0.0
 30
0.0
  0
INSERT
  5
15C
330
1F
100
AcDbEntity
  8
0
100
AcDbBlockReference
  2
12_PART_6015_M_PART3_in_ASM_6015_M
 10
0.0
 20
0.0
 30
0.0
  0
INSERT
  5
170
330
1F
100
AcDbEntity
  8
0
100
AcDbBlockReference
  2
13_PART_6015_M_PART3_in_ASM_6015_M
 10
0.0
 20
0.0
 30
0.0
  0
INSERT
  5
184
330
1F
100
AcDbEntity
  8
0
100
AcDbBlockReference
  2
14_PART_6015_M_PART3_in_ASM_6015_M
 10
0.0
 20
0.0
 30
0.0
  0
INSERT
  5
198
330
1F
100
AcDbEntity
  8
0
100
AcDbBlockReference
  2
15_PART_6015_M_PART3_in_ASM_6015_M
 10
0.0
 20
0.0
 30
0.0
  0
INSERT
  5
1AC
330
1F
100
AcDbEntity
  8
0
100
AcDbBlockReference
  2
16_PART_6015_M_PART3_in_ASM_6015_M
 10
0.0
 20
0.0
 30
0.0
  0
INSERT
  5
1C0
330
1F
100
AcDbEntity
  8
0
100
AcDbBlockReference
  2
17_PART_6015_M_PART3_in_ASM_6015_M
 10
0.0
 20
0.0
 30
0.0
  0
ENDSEC
  0
SECTION
  2
OBJECTS
  0
DICTIONARY
  5
C
330
0
100
AcDbDictionary
281
     1
  3
ACAD_DETAILVIEWSTYLE
350
1DA
  3
ACAD_GROUP
350
D
  3
ACAD_LAYOUT
350
1A
  3
ACAD_MATERIAL
350
43
  3
ACAD_MLEADERSTYLE
350
6B
  3
ACAD_MLINESTYLE
350
17
  3
ACAD_PLOTSETTINGS
350
19
  3
ACAD_PLOTSTYLENAME
350
E
  3
ACAD_SCALELIST
350
47
  3
ACAD_SECTIONVIEWSTYLE
350
1DB
  3
ACAD_TABLESTYLE
350
69
  3
ACAD_VISUALSTYLE
350
2A
  3
ACDB_RECOMPOSE_DATA
350
1D7
  3
AcDbVariableDictionary
350
1D3
  0
SUN
  5
6D
330
29
100
AcDbSun
 90
        1
290
     0
 63
     7
421
 16777215
 40
1.0
291
     1
 91
  2455826
 92
 54000000
292
     0
 70
     2
 71
   256
280
     1
  0
DICTIONARY
  5
1DA
102
{ACAD_REACTORS
330
C
102
}
330
C
100
AcDbDictionary
281
     1
  0
DICTIONARY
  5
D
102
{ACAD_REACTORS
330
C
102
}
330
C
100
AcDbDictionary
281
     1
  0
DICTIONARY
  5
1A
102
{ACAD_REACTORS
330
C
102
}
330
C
100
AcDbDictionary
281
     1
  3
Layout1
350
1E
  3
Layout2
350
26
  3
Model
350
22
  0
DICTIONARY
  5
43
102
{ACAD_REACTORS
330
C
102
}
330
C
100
AcDbDictionary
281
     1
  3
ByBlock
350
45
  3
ByLayer
350
44
  3
Global
350
46
  0
DICTIONARY
  5
6B
102
{ACAD_REACTORS
330
C
102
}
330
C
100
AcDbDictionary
281
     1
  3
Standard
350
6C
  0
DICTIONARY
  5
17
102
{ACAD_REACTORS
330
C
102
}
330
C
100
AcDbDictionary
281
     1
  3
Standard
350
18
  0
DICTIONARY
  5
19
102
{ACAD_REACTORS
330
C
102
}
330
C
100
AcDbDictionary
281
     1
  0
ACDBDICTIONARYWDFLT
  5
E
102
{ACAD_REACTORS
330
C
102
}
330
C
100
AcDbDictionary
281
     1
  3
Normal
350
F
100
AcDbDictionaryWithDefault
340
F
  0
DICTIONARY
  5
47
102
{ACAD_REACTORS
330
C
102
}
330
C
100
AcDbDictionary
281
     1
  3
A0
350
48
  3
A1
350
49
  3
A2
350
4A
  3
A3
350
4B
  3
A4
350
4C
  3
A5
350
4D
  3
A6
350
4E
  3
A7
350
4F
  3
A8
350
50
  3
A9
350
51
  3
B0
350
52
  3
B1
350
53
  3
B2
350
54
  3
B3
350
55
  3
B4
350
56
  3
B5
350
57
  3
B6
350
58
  3
B7
350
59
  3
B8
350
5A
  3
B9
350
5B
  3
C0
350
5C
  3
C1
350
5D
  3
C2
350
5E
  3
C3
350
5F
  3
C4
350
60
  3
C5
350
61
  3
C6
350
62
  3
C7
350
63
  3
C8
350
64
  3
C9
350
65
  3
D0
350
66
  3
D1
350
67
  3
D2
350
68
  0
DICTIONARY
  5
1DB
102
{ACAD_REACTORS
330
C
102
}
330
C
100
AcDbDictionary
281
     1
  0
DICTIONARY
  5
69
102
{ACAD_REACTORS
330
C
102
}
330
C
100
AcDbDictionary
281
     1
  3
Standard
350
6A
  0
DICTIONARY
  5
2A
102
{ACAD_REACTORS
330
C
102
}
330
C
100
AcDbDictionary
281
     1
  3
2dWireframe
350
2F
  3
Basic
350
32
  3
Brighten
350
36
  3
ColorChange
350
3A
  3
Conceptual
350
34
  3
Dim
350
35
  3
EdgeColorOff
350
3D
  3
Facepattern
350
39
  3
Flat
350
2B
  3
FlatWithEdges
350
2C
  3
Gouraud
350
2D
  3
GouraudWithEdges
350
2E
  3
Hidden
350
31
  3
JitterOff
350
3B
  3
Linepattern
350
38
  3
OverhangOff
350
3C
  3
Realistic
350
33
  3
Shaded
350
42
  3
Shaded with edges
350
41
  3
Shades of Gray
350
3E
  3
Sketchy
350
3F
  3
Thicken
350
37
  3
Wireframe
350
30
  3
X-Ray
350
40
  0
XRECORD
  5
1D7
102
{ACAD_REACTORS
330
C
102
}
330
C
100
AcDbXrecord
280
     1
 90
        1
330
6A
  0
DICTIONARY
  5
1D3
102
{ACAD_REACTORS
330
C
102
}
330
C
100
AcDbDictionary
281
     1
  3
CANNOSCALE
350
1D4
  3
CMLEADERSTYLE
350
1D9
  3
CTABLESTYLE
350
1D8
  0
LAYOUT
  5
1E
102
{ACAD_REACTORS
330
1A
102
}
330
1A
100
AcDbPlotSettings
  1

  2
none_device
  4

  6

 40
0.0
 41
0.0
 42
0.0
 43
0.0
 44
0.0
 45
0.0
 46
0.0
 47
0.0
 48
0.0
 49
0.0
140
0.0
141
0.0
142
1.0
143
1.0
 70
   688
 72
     1
 73
     0
 74
     5
  7

 75
    16
 76
     0
 77
     2
 78
   300
147
1.0
148
0.0
149
0.0
100
AcDbLayout
  1
Layout1
 70
     1
 71
     1
 10
0.0
 20
0.0
 11
420.0
 21
297.0
 12
0.0
 22
0.0
 32
0.0
 14
1.000000000000000E+20
 24
1.000000000000000E+20
 34
1.000000000000000E+20
 15
-1.000000000000000E+20
 25
-1.000000000000000E+20
 35
-1.000000000000000E+20
146
0.0
 13
0.0
 23
0.0
 33
0.0
 16
1.0
 26
0.0
 36
0.0
 17
0.0
 27
1.0
 37
0.0
 76
     0
330
1B
  0
LAYOUT
  5
26
102
{ACAD_REACTORS
330
1A
102
}
330
1A
100
AcDbPlotSettings
  1

  2
none_device
  4

  6

 40
0.0
 41
0.0
 42
0.0
 43
0.0
 44
0.0
 45
0.0
 46
0.0
 47
0.0
 48
0.0
 49
0.0
140
0.0
141
0.0
142
1.0
143
1.0
 70
   688
 72
     1
 73
     0
 74
     5
  7

 75
    16
 76
     0
 77
     2
 78
   300
147
1.0
148
0.0
149
0.0
100
AcDbLayout
  1
Layout2
 70
     1
 71
     2
 10
0.0
 20
0.0
 11
0.0
 21
0.0
 12
0.0
 22
0.0
 32
0.0
 14
0.0
 24
0.0
 34
0.0
 15
0.0
 25
0.0
 35
0.0
146
0.0
 13
0.0
 23
0.0
 33
0.0
 16
1.0
 26
0.0
 36
0.0
 17
0.0
 27
1.0
 37
0.0
 76
     0
330
23
  0
LAYOUT
  5
22
102
{ACAD_REACTORS
330
1A
102
}
330
1A
100
AcDbPlotSettings
  1

  2
none_device
  4
Letter_(8.50_x_11.00_Inches)
  6

 40
6.35
 41
6.35
 42
6.35000508
 43
6.35000508
 44
215.9
 45
279.4
 46
0.0
 47
0.0
 48
0.0
 49
0.0
140
0.0
141
0.0
142
1.0
143
1.0
 70
  1712
 72
     1
 73
     0
 74
     0
  7

 75
     0
 76
     0
 77
     2
 78
   300
147
1.0
148
0.0
149
0.0
100
AcDbLayout
  1
Model
 70
     1
 71
     0
 10
0.0
 20
0.0
 11
420.0
 21
297.0
 12
0.0
 22
0.0
 32
0.0
 14
1.000000000000000E+20
 24
1.000000000000000E+20
 34
1.000000000000000E+20
 15
-1.000000000000000E+20
 25
-1.000000000000000E+20
 35
-1.000000000000000E+20
146
0.0
 13
0.0
 23
0.0
 33
0.0
 16
1.0
 26
0.0
 36
0.0
 17
0.0
 27
1.0
 37
0.0
 76
     0
330
1F
331
29
  0
MATERIAL
  5
45
102
{ACAD_REACTORS
330
43
102
}
330
43
100
AcDbMaterial
  1
ByBlock
 72
     1
 94
      127
  0
MATERIAL
  5
44
102
{ACAD_REACTORS
330
43
102
}
330
43
100
AcDbMaterial
  1
ByLayer
 72
     1
 94
      127
  0
MATERIAL
  5
46
102
{ACAD_REACTORS
330
43
102
}
330
43
100
AcDbMaterial
  1
Global
 72
     1
 94
      127
  0
MLEADERSTYLE
  5
6C
102
{ACAD_REACTORS
330
6B
102
}
330
6B
100
AcDbMLeaderStyle
179
     2
170
     2
171
     1
172
     0
 90
        2
 40
0.0
 41
0.0
173
     1
 91
-1056964608
340
14
 92
       -2
290
     1
 42
2.0
291
     1
 43
8.0
  3
Standard
341
0
 44
4.0
300

342
11
174
     1
178
     6
175
     1
176
     0
 93
-1056964608
 45
4.0
292
     0
297
     0
 46
4.0
343
0
 94
-1056964608
 47
1.0
 49
1.0
140
1.0
293
     1
141
0.0
294
     1
177
     0
142
1.0
295
     0
296
     0
143
3.75
271
     0
272
     9
273
     9
298
     0
  0
MLINESTYLE
  5
18
102
{ACAD_REACTORS
330
17
102
}
330
17
100
AcDbMlineStyle
  2
Standard
 70
     0
  3

 62
   256
 51
90.0
 52
90.0
 71
     2
 49
0.5
 62
   256
  6
BYLAYER
 49
-0.5
 62
   256
  6
BYLAYER
  0
ACDBPLACEHOLDER
  5
F
102
{ACAD_REACTORS
330
E
102
}
330
E
  0
SCALE
  5
48
102
{ACAD_REACTORS
330
47
102
}
330
47
100
AcDbScale
 70
     0
300
1:1
140
1.0
141
1.0
290
     1
  0
SCALE
  5
49
102
{ACAD_REACTORS
330
47
102
}
330
47
100
AcDbScale
 70
     0
300
1:2
140
1.0
141
2.0
290
     0
  0
SCALE
  5
4A
102
{ACAD_REACTORS
330
47
102
}
330
47
100
AcDbScale
 70
     0
300
1:4
140
1.0
141
4.0
290
     0
  0
SCALE
  5
4B
102
{ACAD_REACTORS
330
47
102
}
330
47
100
AcDbScale
 70
     0
300
1:5
140
1.0
141
5.0
290
     0
  0
SCALE
  5
4C
102
{ACAD_REACTORS
330
47
102
}
330
47
100
AcDbScale
 70
     0
300
1:8
140
1.0
141
8.0
290
     0
  0
SCALE
  5
4D
102
{ACAD_REACTORS
330
47
102
}
330
47
100
AcDbScale
 70
     0
300
1:10
140
1.0
141
10.0
290
     0
  0
SCALE
  5
4E
102
{ACAD_REACTORS
330
47
102
}
330
47
100
AcDbScale
 70
     0
300
1:16
140
1.0
141
16.0
290
     0
  0
SCALE
  5
4F
102
{ACAD_REACTORS
330
47
102
}
330
47
100
AcDbScale
 70
     0
300
1:20
140
1.0
141
20.0
290
     0
  0
SCALE
  5
50
102
{ACAD_REACTORS
330
47
102
}
330
47
100
AcDbScale
 70
     0
300
1:30
140
1.0
141
30.0
290
     0
  0
SCALE
  5
51
102
{ACAD_REACTORS
330
47
102
}
330
47
100
AcDbScale
 70
     0
300
1:40
140
1.0
141
40.0
290
     0
  0
SCALE
  5
52
102
{ACAD_REACTORS
330
47
102
}
330
47
100
AcDbScale
 70
     0
300
1:50
140
1.0
141
50.0
290
     0
  0
SCALE
  5
53
102
{ACAD_REACTORS
330
47
102
}
330
47
100
AcDbScale
 70
     0
300
1:100
140
1.0
141
100.0
290
     0
  0
SCALE
  5
54
102
{ACAD_REACTORS
330
47
102
}
330
47
100
AcDbScale
 70
     0
300
2:1
140
2.0
141
1.0
290
     0
  0
SCALE
  5
55
102
{ACAD_REACTORS
330
47
102
}
330
47
100
AcDbScale
 70
     0
300
4:1
140
4.0
141
1.0
290
     0
  0
SCALE
  5
56
102
{ACAD_REACTORS
330
47
102
}
330
47
100
AcDbScale
 70
     0
300
8:1
140
8.0
141
1.0
290
     0
  0
SCALE
  5
57
102
{ACAD_REACTORS
330
47
102
}
330
47
100
AcDbScale
 70
     0
300
10:1
140
10.0
141
1.0
290
     0
  0
SCALE
  5
58
102
{ACAD_REACTORS
330
47
102
}
330
47
100
AcDbScale
 70
     0
300
100:1
140
100.0
141
1.0
290
     0
  0
SCALE
  5
59
102
{ACAD_REACTORS
330
47
102
}
330
47
100
AcDbScale
 70
     0
300
1/128" = 1'-0"
140
0.0078125
141
12.0
290
     0
  0
SCALE
  5
5A
102
{ACAD_REACTORS
330
47
102
}
330
47
100
AcDbScale
 70
     0
300
1/64" = 1'-0"
140
0.015625
141
12.0
290
     0
  0
SCALE
  5
5B
102
{ACAD_REACTORS
330
47
102
}
330
47
100
AcDbScale
 70
     0
300
1/32" = 1'-0"
140
0.03125
141
12.0
290
     0
  0
SCALE
  5
5C
102
{ACAD_REACTORS
330
47
102
}
330
47
100
AcDbScale
 70
     0
300
1/16" = 1'-0"
140
0.0625
141
12.0
290
     0
  0
SCALE
  5
5D
102
{ACAD_REACTORS
330
47
102
}
330
47
100
AcDbScale
 70
     0
300
3/32" = 1'-0"
140
0.09375
141
12.0
290
     0
  0
SCALE
  5
5E
102
{ACAD_REACTORS
330
47
102
}
330
47
100
AcDbScale
 70
     0
300
1/8" = 1'-0"
140
0.125
141
12.0
290
     0
  0
SCALE
  5
5F
102
{ACAD_REACTORS
330
47
102
}
330
47
100
AcDbScale
 70
     0
300
3/16" = 1'-0"
140
0.1875
141
12.0
290
     0
  0
SCALE
  5
60
102
{ACAD_REACTORS
330
47
102
}
330
47
100
AcDbScale
 70
     0
300
1/4" = 1'-0"
140
0.25
141
12.0
290
     0
  0
SCALE
  5
61
102
{ACAD_REACTORS
330
47
102
}
330
47
100
AcDbScale
 70
     0
300
3/8" = 1'-0"
140
0.375
141
12.0
290
     0
  0
SCALE
  5
62
102
{ACAD_REACTORS
330
47
102
}
330
47
100
AcDbScale
 70
     0
300
1/2" = 1'-0"
140
0.5
141
12.0
290
     0
  0
SCALE
  5
63
102
{ACAD_REACTORS
330
47
102
}
330
47
100
AcDbScale
 70
     0
300
3/4" = 1'-0"
140
0.75
141
12.0
290
     0
  0
SCALE
  5
64
102
{ACAD_REACTORS
330
47
102
}
330
47
100
AcDbScale
 70
     0
300
1" = 1'-0"
140
1.0
141
12.0
290
     0
  0
SCALE
  5
65
102
{ACAD_REACTORS
330
47
102
}
330
47
100
AcDbScale
 70
     0
300
1-1/2" = 1'-0"
140
1.5
141
12.0
290
     0
  0
SCALE
  5
66
102
{ACAD_REACTORS
330
47
102
}
330
47
100
AcDbScale
 70
     0
300
3" = 1'-0"
140
3.0
141
12.0
290
     0
  0
SCALE
  5
67
102
{ACAD_REACTORS
330
47
102
}
330
47
100
AcDbScale
 70
     0
300
6" = 1'-0"
140
6.0
141
12.0
290
     0
  0
SCALE
  5
68
102
{ACAD_REACTORS
330
47
102
}
330
47
100
AcDbScale
 70
     0
300
1'-0" = 1'-0"
140
12.0
141
12.0
290
     0
  0
TABLESTYLE
  5
6A
102
{ACAD_REACTORS
330
69
102
}
102
{ACAD_XDICTIONARY
360
1D5
102
}
330
69
100
AcDbTableStyle
  3
Standard
 70
     0
 71
     0
 40
0.06
 41
0.06
280
     0
281
     0
  7
Standard
140
4.5
170
     2
 62
     0
 63
   257
283
     0
 90
        4
 91
        0
  1

274
    -2
284
     1
 64
     0
275
    -2
285
     1
 65
     0
276
    -2
286
     1
 66
     0
277
    -2
287
     1
 67
     0
278
    -2
288
     1
 68
     0
279
    -2
289
     1
 69
     0
  7
Standard
140
6.0
170
     5
 62
     0
 63
   257
283
     0
 90
        4
 91
        0
  1

274
    -2
284
     1
 64
     0
275
    -2
285
     1
 65
     0
276
    -2
286
     1
 66
     0
277
    -2
287
     1
 67
     0
278
    -2
288
     1
 68
     0
279
    -2
289
     1
 69
     0
  7
Standard
140
4.5
170
     5
 62
     0
 63
   257
283
     0
 90
        4
 91
        0
  1

274
    -2
284
     1
 64
     0
275
    -2
285
     1
 65
     0
276
    -2
286
     1
 66
     0
277
    -2
287
     1
 67
     0
278
    -2
288
     1
 68
     0
279
    -2
289
     1
 69
     0
  0
VISUALSTYLE
  5
2F
102
{ACAD_REACTORS
330
2A
102
}
330
2A
100
AcDbVisualStyle
  2
2dWireframe
 70
     4
177
     3
291
     0
 70
    58
 90
        0
176
     1
 90
        2
176
     1
 90
        0
176
     1
 90
        0
176
     1
 40
0.6
176
     1
 40
30.0
176
     1
 62
     7
420
 16777215
176
     1
 90
        1
176
     1
 90
        4
176
     1
 62
     7
176
     1
 62
   257
176
     1
 90
        1
176
     1
 90
        1
176
     1
 40
1.0
176
     1
 90
        0
176
     1
 62
   257
176
     1
 40
1.0
176
     1
 90
        1
176
     1
 90
        6
176
     1
 90
        2
176
     1
 62
     7
176
     1
 90
        5
176
     1
 90
        0
176
     1
 90
        0
176
     1
290
     0
176
     1
 90
        1
176
     1
 40
0.0
176
     1
 90
        0
176
     1
290
     1
176
     1
290
     1
176
     1
290
     0
176
     1
290
     0
176
     1
290
     0
176
     1
290
     0
176
     1
290
     0
176
     1
290
     0
176
     1
290
     0
176
     1
 90
       50
176
     1
 40
0.0
176
     1
 40
1.0
176
     1
 90
        0
176
     1
 62
    18
420
        0
176
     1
 90
       50
176
     1
 90
        3
176
     1
 62
     5
420
      255
176
     1
290
     0
176
     1
 90
       50
176
     1
 90
       50
176
     1
 90
       50
176
     1
290
     0
176
     1
 90
       50
176
     1
 62
   256
176
     0
 40
1.0
176
     0
 90
        2
176
     1
  1
strokes_ogs.tif
176
     1
290
     0
176
     1
 40
1.0
176
     1
 40
1.0
176
     1
  0
VISUALSTYLE
  5
32
102
{ACAD_REACTORS
330
2A
102
}
330
2A
100
AcDbVisualStyle
  2
Basic
 70
     7
177
     3
291
     1
 70
    58
 90
        1
176
     1
 90
        0
176
     1
 90
        1
176
     1
 90
        0
176
     1
 40
0.6
176
     1
 40
30.0
176
     1
 62
     7
420
 16777215
176
     1
 90
        0
176
     1
 90
        4
176
     1
 62
     7
176
     1
 62
   257
176
     1
 90
        1
176
     1
 90
        1
176
     1
 40
1.0
176
     1
 90
        8
176
     1
 62
     7
176
     1
 40
1.0
176
     1
 90
        1
176
     1
 90
        6
176
     1
 90
        2
176
     1
 62
     7
176
     1
 90
        5
176
     1
 90
        0
176
     1
 90
        0
176
     1
290
     0
176
     1
 90
        1
176
     1
 40
0.0
176
     1
 90
        0
176
     1
290
     0
176
     1
290
     1
176
     1
290
     1
176
     1
290
     0
176
     1
290
     0
176
     1
290
     0
176
     1
290
     0
176
     1
290
     0
176
     1
290
     0
176
     1
 90
       50
176
     1
 40
0.0
176
     1
 40
1.0
176
     1
 90
        0
176
     1
 62
    18
420
        0
176
     1
 90
       50
176
     1
 90
        3
176
     1
 62
     5
420
      255
176
     1
290
     0
176
     1
 90
       50
176
     1
 90
       50
176
     1
 90
       50
176
     1
290
     0
176
     1
 90
       50
176
     1
 62
   256
176
     0
 40
1.0
176
     0
 90
        2
176
     1
  1
strokes_ogs.tif
176
     1
290
     0
176
     1
 40
1.0
176
     1
 40
1.0
176
     1
  0
VISUALSTYLE
  5
36
102
{ACAD_REACTORS
330
2A
102
}
330
2A
100
AcDbVisualStyle
  2
Brighten
 70
    12
177
     3
291
     1
 70
    58
 90
        2
176
     1
 90
        2
176
     1
 90
        0
176
     1
 90
        0
176
     1
 40
0.6
176
     1
 40
30.0
176
     1
 62
     7
420
 16777215
176
     1
 90
        1
176
     1
 90
        4
176
     1
 62
     7
176
     1
 62
   257
176
     1
 90
        1
176
     1
 90
        1
176
     1
 40
1.0
176
     1
 90
        8
176
     1
 62
     7
176
     1
 40
1.0
176
     1
 90
        1
176
     1
 90
        6
176
     1
 90
        2
176
     1
 62
     7
176
     1
 90
        5
176
     1
 90
        0
176
     1
 90
        0
176
     1
290
     0
176
     1
 90
        1
176
     1
 40
50.0
176
     1
 90
        0
176
     1
290
     0
176
     1
290
     1
176
     1
290
     1
176
     1
290
     0
176
     1
290
     0
176
     1
290
     0
176
     1
290
     0
176
     1
290
     0
176
     1
290
     0
176
     1
 90
       50
176
     1
 40
0.0
176
     1
 40
1.0
176
     1
 90
        0
176
     1
 62
    18
420
        0
176
     1
 90
       50
176
     1
 90
        3
176
     1
 62
     5
420
      255
176
     1
290
     0
176
     1
 90
       50
176
     1
 90
       50
176
     1
 90
       50
176
     1
290
     0
176
     1
 90
       50
176
     1
 62
   256
176
     0
 40
1.0
176
     0
 90
        2
176
     1
  1
strokes_ogs.tif
176
     1
290
     0
176
     1
 40
1.0
176
     1
 40
1.0
176
     1
  0
VISUALSTYLE
  5
3A
102
{ACAD_REACTORS
330
2A
102
}
330
2A
100
AcDbVisualStyle
  2
ColorChange
 70
    16
177
     3
291
     1
 70
    58
 90
        2
176
     1
 90
        2
176
     1
 90
        3
176
     1
 90
        0
176
     1
 40
0.6
176
     1
 40
30.0
176
     1
 62
     8
420
  8421504
176
     1
 90
        1
176
     1
 90
        4
176
     1
 62
     7
176
     1
 62
   257
176
     1
 90
        1
176
     1
 90
        1
176
     1
 40
1.0
176
     1
 90
        8
176
     1
 62
     8
420
  8421504
176
     1
 40
1.0
176
     1
 90
        1
176
     1
 90
        6
176
     1
 90
        2
176
     1
 62
     7
176
     1
 90
        5
176
     1
 90
        0
176
     1
 90
        0
176
     1
290
     0
176
     1
 90
        1
176
     1
 40
0.0
176
     1
 90
        0
176
     1
290
     0
176
     1
290
     1
176
     1
290
     1
176
     1
290
     0
176
     1
290
     0
176
     1
290
     0
176
     1
290
     0
176
     1
290
     0
176
     1
290
     0
176
     1
 90
       50
176
     1
 40
0.0
176
     1
 40
1.0
176
     1
 90
        0
176
     1
 62
    18
420
        0
176
     1
 90
       50
176
     1
 90
        3
176
     1
 62
     5
420
      255
176
     1
290
     0
176
     1
 90
       50
176
     1
 90
       50
176
     1
 90
       50
176
     1
290
     0
176
     1
 90
       50
176
     1
 62
   256
176
     0
 40
1.0
176
     0
 90
        2
176
     1
  1
strokes_ogs.tif
176
     1
290
     0
176
     1
 40
1.0
176
     1
 40
1.0
176
     1
  0
VISUALSTYLE
  5
34
102
{ACAD_REACTORS
330
2A
102
}
330
2A
100
AcDbVisualStyle
  2
Conceptual
 70
     9
177
     3
291
     0
 70
    58
 90
        3
176
     1
 90
        2
176
     1
 90
        0
176
     1
 90
        0
176
     1
 40
0.6
176
     1
 40
30.0
176
     1
 62
     7
420
 16777215
176
     1
 90
        2
176
     1
 90
        2
176
     1
 62
     7
176
     1
 62
   257
176
     1
 90
        1
176
     1
 90
        1
176
     1
 40
179.0
176
     1
 90
        8
176
     1
 62
     7
176
     1
 40
1.0
176
     1
 90
        1
176
     1
 90
        6
176
     1
 90
        2
176
     1
 62
     7
176
     1
 90
        3
176
     1
 90
        0
176
     1
 90
        0
176
     1
290
     0
176
     1
 90
        1
176
     1
 40
0.0
176
     1
 90
        0
176
     1
290
     0
176
     1
290
     1
176
     1
290
     1
176
     1
290
     0
176
     1
290
     0
176
     1
290
     0
176
     1
290
     0
176
     1
290
     0
176
     1
290
     0
176
     1
 90
       50
176
     1
 40
0.0
176
     1
 40
1.0
176
     1
 90
        0
176
     1
 62
    18
420
        0
176
     1
 90
       50
176
     1
 90
        3
176
     1
 62
     5
420
      255
176
     1
290
     0
176
     1
 90
       50
176
     1
 90
       50
176
     1
 90
       50
176
     1
290
     0
176
     1
 90
       50
176
     1
 62
   256
176
     0
 40
1.0
176
     0
 90
        2
176
     1
  1
strokes_ogs.tif
176
     1
290
     0
176
     1
 40
1.0
176
     1
 40
1.0
176
     1
  0
VISUALSTYLE
  5
35
102
{ACAD_REACTORS
330
2A
102
}
330
2A
100
AcDbVisualStyle
  2
Dim
 70
    11
177
     3
291
     1
 70
    58
 90
        2
176
     1
 90
        2
176
     1
 90
        0
176
     1
 90
        0
176
     1
 40
0.6
176
     1
 40
30.0
176
     1
 62
     7
420
 16777215
176
     1
 90
        1
176
     1
 90
        4
176
     1
 62
     7
176
     1
 62
   257
176
     1
 90
        1
176
     1
 90
        1
176
     1
 40
1.0
176
     1
 90
        8
176
     1
 62
     7
176
     1
 40
1.0
176
     1
 90
        1
176
     1
 90
        6
176
     1
 90
        2
176
     1
 62
     7
176
     1
 90
        5
176
     1
 90
        0
176
     1
 90
        0
176
     1
290
     0
176
     1
 90
        1
176
     1
 40
-50.0
176
     1
 90
        0
176
     1
290
     0
176
     1
290
     1
176
     1
290
     1
176
     1
290
     0
176
     1
290
     0
176
     1
290
     0
176
     1
290
     0
176
     1
290
     0
176
     1
290
     0
176
     1
 90
       50
176
     1
 40
0.0
176
     1
 40
1.0
176
     1
 90
        0
176
     1
 62
    18
420
        0
176
     1
 90
       50
176
     1
 90
        3
176
     1
 62
     5
420
      255
176
     1
290
     0
176
     1
 90
       50
176
     1
 90
       50
176
     1
 90
       50
176
     1
290
     0
176
     1
 90
       50
176
     1
 62
   256
176
     0
 40
1.0
176
     0
 90
        2
176
     1
  1
strokes_ogs.tif
176
     1
290
     0
176
     1
 40
1.0
176
     1
 40
1.0
176
     1
  0
VISUALSTYLE
  5
3D
102
{ACAD_REACTORS
330
2A
102
}
330
2A
100
AcDbVisualStyle
  2
EdgeColorOff
 70
    22
177
     3
291
     1
 70
    58
 90
        2
176
     0
 90
        2
176
     0
 90
        0
176
     0
 90
        0
176
     0
 40
0.6
176
     0
 40
30.0
176
     0
 62
     7
420
 16777215
176
     0
 90
        1
176
     0
 90
        4
176
     0
 62
     7
176
     0
 62
   257
176
     0
 90
        1
176
     0
 90
        1
176
     0
 40
1.0
176
     0
 90
        8
176
     2
 62
     7
176
     0
 40
1.0
176
     0
 90
        1
176
     0
 90
        6
176
     0
 90
        2
176
     0
 62
     7
176
     0
 90
        5
176
     0
 90
        0
176
     0
 90
        0
176
     0
290
     0
176
     0
 90
        1
176
     0
 40
0.0
176
     0
 90
        0
176
     0
290
     0
176
     0
290
     1
176
     0
290
     1
176
     0
290
     0
176
     0
290
     0
176
     0
290
     0
176
     0
290
     0
176
     0
290
     0
176
     0
290
     0
176
     0
 90
       50
176
     0
 40
0.0
176
     0
 40
1.0
176
     0
 90
        0
176
     0
 62
    18
420
        0
176
     0
 90
       50
176
     0
 90
        3
176
     0
 62
     5
420
      255
176
     0
290
     0
176
     0
 90
       50
176
     0
 90
       50
176
     0
 90
       50
176
     0
290
     0
176
     0
 90
       50
176
     0
 62
   256
176
     0
 40
1.0
176
     0
 90
        2
176
     0
  1
strokes_ogs.tif
176
     0
290
     0
176
     0
 40
1.0
176
     0
 40
1.0
176
     0
  0
VISUALSTYLE
  5
39
102
{ACAD_REACTORS
330
2A
102
}
330
2A
100
AcDbVisualStyle
  2
Facepattern
 70
    15
177
     3
291
     1
 70
    58
 90
        2
176
     1
 90
        2
176
     1
 90
        0
176
     1
 90
        0
176
     1
 40
0.6
176
     1
 40
30.0
176
     1
 62
     7
420
 16777215
176
     1
 90
        1
176
     1
 90
        4
176
     1
 62
     7
176
     1
 62
   257
176
     1
 90
        1
176
     1
 90
        1
176
     1
 40
1.0
176
     1
 90
        8
176
     1
 62
     7
176
     1
 40
1.0
176
     1
 90
        1
176
     1
 90
        6
176
     1
 90
        2
176
     1
 62
     7
176
     1
 90
        5
176
     1
 90
        0
176
     1
 90
        0
176
     1
290
     0
176
     1
 90
        1
176
     1
 40
0.0
176
     1
 90
        0
176
     1
290
     0
176
     1
290
     1
176
     1
290
     1
176
     1
290
     0
176
     1
290
     0
176
     1
290
     0
176
     1
290
     0
176
     1
290
     0
176
     1
290
     0
176
     1
 90
       50
176
     1
 40
0.0
176
     1
 40
1.0
176
     1
 90
        0
176
     1
 62
    18
420
        0
176
     1
 90
       50
176
     1
 90
        3
176
     1
 62
     5
420
      255
176
     1
290
     0
176
     1
 90
       50
176
     1
 90
       50
176
     1
 90
       50
176
     1
290
     0
176
     1
 90
       50
176
     1
 62
   256
176
     0
 40
1.0
176
     0
 90
        2
176
     1
  1
strokes_ogs.tif
176
     1
290
     0
176
     1
 40
1.0
176
     1
 40
1.0
176
     1
  0
VISUALSTYLE
  5
2B
102
{ACAD_REACTORS
330
2A
102
}
330
2A
100
AcDbVisualStyle
  2
Flat
 70
     0
177
     3
291
     1
 70
    58
 90
        2
176
     1
 90
        1
176
     1
 90
        1
176
     1
 90
        2
176
     1
 40
0.6
176
     1
 40
30.0
176
     1
 62
     7
420
 16777215
176
     1
 90
        0
176
     1
 90
        0
176
     1
 62
     7
176
     1
 62
   257
176
     1
 90
        1
176
     1
 90
        1
176
     1
 40
1.0
176
     1
 90
        8
176
     1
 62
     7
176
     1
 40
1.0
176
     1
 90
        1
176
     1
 90
        6
176
     1
 90
        2
176
     1
 62
     7
176
     1
 90
        5
176
     1
 90
        0
176
     1
 90
        0
176
     1
290
     0
176
     1
 90
       13
176
     1
 40
0.0
176
     1
 90
        0
176
     1
290
     0
176
     1
290
     1
176
     1
290
     1
176
     1
290
     0
176
     1
290
     0
176
     1
290
     0
176
     1
290
     0
176
     1
290
     0
176
     1
290
     0
176
     1
 90
       50
176
     1
 40
0.0
176
     1
 40
1.0
176
     1
 90
        0
176
     1
 62
    18
420
        0
176
     1
 90
       50
176
     1
 90
        3
176
     1
 62
     5
420
      255
176
     1
290
     0
176
     1
 90
       50
176
     1
 90
       50
176
     1
 90
       50
176
     1
290
     0
176
     1
 90
       50
176
     1
 62
   256
176
     0
 40
1.0
176
     0
 90
        2
176
     1
  1
strokes_ogs.tif
176
     1
290
     0
176
     1
 40
1.0
176
     1
 40
1.0
176
     1
  0
VISUALSTYLE
  5
2C
102
{ACAD_REACTORS
330
2A
102
}
330
2A
100
AcDbVisualStyle
  2
FlatWithEdges
 70
     1
177
     3
291
     1
 70
    58
 90
        2
176
     1
 90
        1
176
     1
 90
        1
176
     1
 90
        2
176
     1
 40
0.6
176
     1
 40
30.0
176
     1
 62
     7
420
 16777215
176
     1
 90
        1
176
     1
 90
        0
176
     1
 62
     7
176
     1
 62
   257
176
     1
 90
        1
176
     1
 90
        1
176
     1
 40
1.0
176
     1
 90
        0
176
     1
 62
   257
176
     1
 40
1.0
176
     1
 90
        1
176
     1
 90
        6
176
     1
 90
        2
176
     1
 62
     7
176
     1
 90
        5
176
     1
 90
        0
176
     1
 90
        0
176
     1
290
     0
176
     1
 90
       13
176
     1
 40
0.0
176
     1
 90
        0
176
     1
290
     0
176
     1
290
     1
176
     1
290
     1
176
     1
290
     0
176
     1
290
     0
176
     1
290
     0
176
     1
290
     0
176
     1
290
     0
176
     1
290
     0
176
     1
 90
       50
176
     1
 40
0.0
176
     1
 40
1.0
176
     1
 90
        0
176
     1
 62
    18
420
        0
176
     1
 90
       50
176
     1
 90
        3
176
     1
 62
     5
420
      255
176
     1
290
     0
176
     1
 90
       50
176
     1
 90
       50
176
     1
 90
       50
176
     1
290
     0
176
     1
 90
       50
176
     1
 62
   256
176
     0
 40
1.0
176
     0
 90
        2
176
     1
  1
strokes_ogs.tif
176
     1
290
     0
176
     1
 40
1.0
176
     1
 40
1.0
176
     1
  0
VISUALSTYLE
  5
2D
102
{ACAD_REACTORS
330
2A
102
}
330
2A
100
AcDbVisualStyle
  2
Gouraud
 70
     2
177
     3
291
     1
 70
    58
 90
        2
176
     1
 90
        2
176
     1
 90
        1
176
     1
 90
        2
176
     1
 40
0.6
176
     1
 40
30.0
176
     1
 62
     7
420
 16777215
176
     1
 90
        0
176
     1
 90
        0
176
     1
 62
     7
176
     1
 62
   257
176
     1
 90
        1
176
     1
 90
        1
176
     1
 40
1.0
176
     1
 90
        0
176
     1
 62
     7
176
     1
 40
1.0
176
     1
 90
        1
176
     1
 90
        6
176
     1
 90
        2
176
     1
 62
     7
176
     1
 90
        5
176
     1
 90
        0
176
     1
 90
        0
176
     1
290
     0
176
     1
 90
       13
176
     1
 40
0.0
176
     1
 90
        0
176
     1
290
     0
176
     1
290
     1
176
     1
290
     1
176
     1
290
     0
176
     1
290
     0
176
     1
290
     0
176
     1
290
     0
176
     1
290
     0
176
     1
290
     0
176
     1
 90
       50
176
     1
 40
0.0
176
     1
 40
1.0
176
     1
 90
        0
176
     1
 62
    18
420
        0
176
     1
 90
       50
176
     1
 90
        3
176
     1
 62
     5
420
      255
176
     1
290
     0
176
     1
 90
       50
176
     1
 90
       50
176
     1
 90
       50
176
     1
290
     0
176
     1
 90
       50
176
     1
 62
   256
176
     0
 40
1.0
176
     0
 90
        2
176
     1
  1
strokes_ogs.tif
176
     1
290
     0
176
     1
 40
1.0
176
     1
 40
1.0
176
     1
  0
VISUALSTYLE
  5
2E
102
{ACAD_REACTORS
330
2A
102
}
330
2A
100
AcDbVisualStyle
  2
GouraudWithEdges
 70
     3
177
     3
291
     1
 70
    58
 90
        2
176
     1
 90
        2
176
     1
 90
        1
176
     1
 90
        2
176
     1
 40
0.6
176
     1
 40
30.0
176
     1
 62
     7
420
 16777215
176
     1
 90
        1
176
     1
 90
        0
176
     1
 62
     7
176
     1
 62
   257
176
     1
 90
        1
176
     1
 90
        1
176
     1
 40
1.0
176
     1
 90
        0
176
     1
 62
   257
176
     1
 40
1.0
176
     1
 90
        1
176
     1
 90
        6
176
     1
 90
        2
176
     1
 62
     7
176
     1
 90
        5
176
     1
 90
        0
176
     1
 90
        0
176
     1
290
     0
176
     1
 90
       13
176
     1
 40
0.0
176
     1
 90
        0
176
     1
290
     0
176
     1
290
     1
176
     1
290
     1
176
     1
290
     0
176
     1
290
     0
176
     1
290
     0
176
     1
290
     0
176
     1
290
     0
176
     1
290
     0
176
     1
 90
       50
176
     1
 40
0.0
176
     1
 40
1.0
176
     1
 90
        0
176
     1
 62
    18
420
        0
176
     1
 90
       50
176
     1
 90
        3
176
     1
 62
     5
420
      255
176
     1
290
     0
176
     1
 90
       50
176
     1
 90
       50
176
     1
 90
       50
176
     1
290
     0
176
     1
 90
       50
176
     1
 62
   256
176
     0
 40
1.0
176
     0
 90
        2
176
     1
  1
strokes_ogs.tif
176
     1
290
     0
176
     1
 40
1.0
176
     1
 40
1.0
176
     1
  0
VISUALSTYLE
  5
31
102
{ACAD_REACTORS
330
2A
102
}
330
2A
100
AcDbVisualStyle
  2
Hidden
 70
     6
177
     3
291
     0
 70
    58
 90
        1
176
     1
 90
        2
176
     1
 90
        2
176
     1
 90
        0
176
     1
 40
0.6
176
     1
 40
30.0
176
     1
 62
     7
420
 16777215
176
     1
 90
        2
176
     1
 90
        2
176
     1
 62
     7
176
     1
 62
   257
176
     1
 90
        2
176
     1
 90
        1
176
     1
 40
40.0
176
     1
 90
        0
176
     1
 62
   257
176
     1
 40
1.0
176
     1
 90
        1
176
     1
 90
        6
176
     1
 90
        2
176
     1
 62
     7
176
     1
 90
        3
176
     1
 90
        0
176
     1
 90
        0
176
     1
290
     0
176
     1
 90
        1
176
     1
 40
0.0
176
     1
 90
        0
176
     1
290
     0
176
     1
290
     1
176
     1
290
     1
176
     1
290
     0
176
     1
290
     0
176
     1
290
     0
176
     1
290
     0
176
     1
290
     0
176
     1
290
     0
176
     1
 90
       50
176
     1
 40
0.0
176
     1
 40
1.0
176
     1
 90
        0
176
     1
 62
    18
420
        0
176
     1
 90
       50
176
     1
 90
        3
176
     1
 62
     5
420
      255
176
     1
290
     0
176
     1
 90
       50
176
     1
 90
       50
176
     1
 90
       50
176
     1
290
     0
176
     1
 90
       50
176
     1
 62
   256
176
     0
 40
1.0
176
     0
 90
        2
176
     1
  1
strokes_ogs.tif
176
     1
290
     0
176
     1
 40
1.0
176
     1
 40
1.0
176
     1
  0
VISUALSTYLE
  5
3B
102
{ACAD_REACTORS
330
2A
102
}
330
2A
100
AcDbVisualStyle
  2
JitterOff
 70
    20
177
     3
291
     1
 70
    58
 90
        2
176
     0
 90
        2
176
     0
 90
        0
176
     0
 90
        0
176
     0
 40
0.6
176
     0
 40
30.0
176
     0
 62
     7
420
 16777215
176
     0
 90
        1
176
     0
 90
        4
176
     0
 62
     7
176
     0
 62
   257
176
     0
 90
        1
176
     0
 90
        1
176
     0
 40
1.0
176
     0
 90
       10
176
     2
 62
     7
176
     0
 40
1.0
176
     0
 90
        1
176
     0
 90
        6
176
     0
 90
        2
176
     0
 62
     7
176
     0
 90
        5
176
     0
 90
        0
176
     0
 90
        0
176
     0
290
     0
176
     0
 90
        1
176
     0
 40
0.0
176
     0
 90
        0
176
     0
290
     0
176
     0
290
     1
176
     0
290
     1
176
     0
290
     0
176
     0
290
     0
176
     0
290
     0
176
     0
290
     0
176
     0
290
     0
176
     0
290
     0
176
     0
 90
       50
176
     0
 40
0.0
176
     0
 40
1.0
176
     0
 90
        0
176
     0
 62
    18
420
        0
176
     0
 90
       50
176
     0
 90
        3
176
     0
 62
     5
420
      255
176
     0
290
     0
176
     0
 90
       50
176
     0
 90
       50
176
     0
 90
       50
176
     0
290
     0
176
     0
 90
       50
176
     0
 62
   256
176
     0
 40
1.0
176
     0
 90
        2
176
     0
  1
strokes_ogs.tif
176
     0
290
     0
176
     0
 40
1.0
176
     0
 40
1.0
176
     0
  0
VISUALSTYLE
  5
38
102
{ACAD_REACTORS
330
2A
102
}
330
2A
100
AcDbVisualStyle
  2
Linepattern
 70
    14
177
     3
291
     1
 70
    58
 90
        2
176
     1
 90
        2
176
     1
 90
        0
176
     1
 90
        0
176
     1
 40
0.6
176
     1
 40
30.0
176
     1
 62
     7
420
 16777215
176
     1
 90
        1
176
     1
 90
        4
176
     1
 62
     7
176
     1
 62
   257
176
     1
 90
        7
176
     1
 90
        7
176
     1
 40
1.0
176
     1
 90
        8
176
     1
 62
     7
176
     1
 40
1.0
176
     1
 90
        1
176
     1
 90
        6
176
     1
 90
        2
176
     1
 62
     7
176
     1
 90
        5
176
     1
 90
        0
176
     1
 90
        0
176
     1
290
     0
176
     1
 90
        1
176
     1
 40
0.0
176
     1
 90
        0
176
     1
290
     0
176
     1
290
     1
176
     1
290
     1
176
     1
290
     0
176
     1
290
     0
176
     1
290
     0
176
     1
290
     0
176
     1
290
     0
176
     1
290
     0
176
     1
 90
       50
176
     1
 40
0.0
176
     1
 40
1.0
176
     1
 90
        0
176
     1
 62
    18
420
        0
176
     1
 90
       50
176
     1
 90
        3
176
     1
 62
     5
420
      255
176
     1
290
     0
176
     1
 90
       50
176
     1
 90
       50
176
     1
 90
       50
176
     1
290
     0
176
     1
 90
       50
176
     1
 62
   256
176
     0
 40
1.0
176
     0
 90
        2
176
     1
  1
strokes_ogs.tif
176
     1
290
     0
176
     1
 40
1.0
176
     1
 40
1.0
176
     1
  0
VISUALSTYLE
  5
3C
102
{ACAD_REACTORS
330
2A
102
}
330
2A
100
AcDbVisualStyle
  2
OverhangOff
 70
    21
177
     3
291
     1
 70
    58
 90
        2
176
     0
 90
        2
176
     0
 90
        0
176
     0
 90
        0
176
     0
 40
0.6
176
     0
 40
30.0
176
     0
 62
     7
420
 16777215
176
     0
 90
        1
176
     0
 90
        4
176
     0
 62
     7
176
     0
 62
   257
176
     0
 90
        1
176
     0
 90
        1
176
     0
 40
1.0
176
     0
 90
        9
176
     2
 62
     7
176
     0
 40
1.0
176
     0
 90
        1
176
     0
 90
        6
176
     0
 90
        2
176
     0
 62
     7
176
     0
 90
        5
176
     0
 90
        0
176
     0
 90
        0
176
     0
290
     0
176
     0
 90
        1
176
     0
 40
0.0
176
     0
 90
        0
176
     0
290
     0
176
     0
290
     1
176
     0
290
     1
176
     0
290
     0
176
     0
290
     0
176
     0
290
     0
176
     0
290
     0
176
     0
290
     0
176
     0
290
     0
176
     0
 90
       50
176
     0
 40
0.0
176
     0
 40
1.0
176
     0
 90
        0
176
     0
 62
    18
420
        0
176
     0
 90
       50
176
     0
 90
        3
176
     0
 62
     5
420
      255
176
     0
290
     0
176
     0
 90
       50
176
     0
 90
       50
176
     0
 90
       50
176
     0
290
     0
176
     0
 90
       50
176
     0
 62
   256
176
     0
 40
1.0
176
     0
 90
        2
176
     0
  1
strokes_ogs.tif
176
     0
290
     0
176
     0
 40
1.0
176
     0
 40
1.0
176
     0
  0
VISUALSTYLE
  5
33
102
{ACAD_REACTORS
330
2A
102
}
330
2A
100
AcDbVisualStyle
  2
Realistic
 70
     8
177
     3
291
     0
 70
    58
 90
        2
176
     1
 90
        3
176
     1
 90
        0
176
     1
 90
        2
176
     1
 40
0.6
176
     1
 40
30.0
176
     1
 62
     7
420
 16777215
176
     1
 90
        0
176
     1
 90
        0
176
     1
 62
     7
176
     1
 62
   257
176
     1
 90
        1
176
     1
 90
        1
176
     1
 40
1.0
176
     1
 90
        8
176
     1
 62
   257
176
     1
 40
1.0
176
     1
 90
        1
176
     1
 90
        6
176
     1
 90
        2
176
     1
 62
     7
176
     1
 90
        3
176
     1
 90
        0
176
     1
 90
        0
176
     1
290
     0
176
     1
 90
       13
176
     1
 40
0.0
176
     1
 90
        0
176
     1
290
     0
176
     1
290
     1
176
     1
290
     1
176
     1
290
     0
176
     1
290
     0
176
     1
290
     0
176
     1
290
     0
176
     1
290
     0
176
     1
290
     0
176
     1
 90
       50
176
     1
 40
0.0
176
     1
 40
1.0
176
     1
 90
        0
176
     1
 62
    18
420
        0
176
     1
 90
       50
176
     1
 90
        3
176
     1
 62
     5
420
      255
176
     1
290
     0
176
     1
 90
       50
176
     1
 90
       50
176
     1
 90
       50
176
     1
290
     0
176
     1
 90
       50
176
     1
 62
   256
176
     0
 40
1.0
176
     0
 90
        2
176
     1
  1
strokes_ogs.tif
176
     1
290
     0
176
     1
 40
1.0
176
     1
 40
1.0
176
     1
  0
VISUALSTYLE
  5
42
102
{ACAD_REACTORS
330
2A
102
}
330
2A
100
AcDbVisualStyle
  2
Shaded
 70
    27
177
     3
291
     0
 70
    58
 90
        2
176
     1
 90
        2
176
     1
 90
        1
176
     1
 90
        2
176
     1
 40
0.6
176
     1
 40
30.0
176
     1
 62
     7
420
 16777215
176
     1
 90
        0
176
     1
 90
        4
176
     1
 62
     7
176
     1
 62
   257
176
     1
 90
        1
176
     1
 90
        1
176
     1
 40
1.0
176
     1
 90
        8
176
     1
 62
   257
176
     1
 40
1.0
176
     1
 90
        1
176
     1
 90
        6
176
     1
 90
        2
176
     1
 62
     8
420
  7895160
176
     1
 90
        3
176
     1
 90
        0
176
     1
 90
        0
176
     1
290
     0
176
     1
 90
        5
176
     1
 40
0.0
176
     1
 90
        0
176
     1
290
     0
176
     1
290
     1
176
     1
290
     1
176
     1
290
     0
176
     1
290
     0
176
     1
290
     0
176
     1
290
     0
176
     1
290
     0
176
     1
290
     0
176
     1
 90
       50
176
     1
 40
0.0
176
     1
 40
1.0
176
     1
 90
        0
176
     1
 62
    18
420
        0
176
     1
 90
       50
176
     1
 90
        3
176
     1
 62
     5
420
      255
176
     1
290
     0
176
     1
 90
       50
176
     1
 90
       50
176
     1
 90
       50
176
     1
290
     0
176
     1
 90
       50
176
     1
 62
   256
176
     0
 40
1.0
176
     0
 90
        2
176
     1
  1
strokes_ogs.tif
176
     1
290
     0
176
     1
 40
1.0
176
     1
 40
1.0
176
     1
  0
VISUALSTYLE
  5
41
102
{ACAD_REACTORS
330
2A
102
}
330
2A
100
AcDbVisualStyle
  2
Shaded with edges
 70
    26
177
     3
291
     0
 70
    58
 90
        2
176
     1
 90
        2
176
     1
 90
        1
176
     1
 90
        2
176
     1
 40
0.6
176
     1
 40
30.0
176
     1
 62
     7
420
 16777215
176
     1
 90
        1
176
     1
 90
       10
176
     1
 62
     7
176
     1
 62
   257
176
     1
 90
        2
176
     1
 90
        1
176
     1
 40
1.0
176
     1
 90
        8
176
     1
 62
   257
176
     1
 40
1.0
176
     1
 90
        1
176
     1
 90
        6
176
     1
 90
        2
176
     1
 62
     7
176
     1
 90
        3
176
     1
 90
        0
176
     1
 90
        0
176
     1
290
     0
176
     1
 90
        5
176
     1
 40
0.0
176
     1
 90
        0
176
     1
290
     0
176
     1
290
     1
176
     1
290
     1
176
     1
290
     0
176
     1
290
     0
176
     1
290
     0
176
     1
290
     0
176
     1
290
     0
176
     1
290
     0
176
     1
 90
       50
176
     1
 40
0.0
176
     1
 40
1.0
176
     1
 90
        0
176
     1
 62
    18
420
        0
176
     1
 90
       50
176
     1
 90
        3
176
     1
 62
     5
420
      255
176
     1
290
     0
176
     1
 90
       50
176
     1
 90
       50
176
     1
 90
       50
176
     1
290
     0
176
     1
 90
       50
176
     1
 62
   256
176
     0
 40
1.0
176
     0
 90
        2
176
     1
  1
strokes_ogs.tif
176
     1
290
     0
176
     1
 40
1.0
176
     1
 40
1.0
176
     1
  0
VISUALSTYLE
  5
3E
102
{ACAD_REACTORS
330
2A
102
}
330
2A
100
AcDbVisualStyle
  2
Shades of Gray
 70
    23
177
     3
291
     0
 70
    58
 90
        2
176
     1
 90
        2
176
     1
 90
        3
176
     1
 90
        0
176
     1
 40
0.6
176
     1
 40
30.0
176
     1
 62
     7
420
 16777215
176
     1
 90
        2
176
     1
 90
        2
176
     1
 62
     7
176
     1
 62
     7
176
     1
 90
        1
176
     1
 90
        1
176
     1
 40
40.0
176
     1
 90
        8
176
     1
 62
     7
176
     1
 40
1.0
176
     1
 90
        1
176
     1
 90
        6
176
     1
 90
        2
176
     1
 62
     7
176
     1
 90
        3
176
     1
 90
        0
176
     1
 90
        0
176
     1
290
     0
176
     1
 90
        1
176
     1
 40
0.0
176
     1
 90
        0
176
     1
290
     0
176
     1
290
     1
176
     1
290
     1
176
     1
290
     0
176
     1
290
     0
176
     1
290
     0
176
     1
290
     0
176
     1
290
     0
176
     1
290
     0
176
     1
 90
       50
176
     1
 40
0.0
176
     1
 40
1.0
176
     1
 90
        0
176
     1
 62
    18
420
        0
176
     1
 90
       50
176
     1
 90
        3
176
     1
 62
     5
420
      255
176
     1
290
     0
176
     1
 90
       50
176
     1
 90
       50
176
     1
 90
       50
176
     1
290
     0
176
     1
 90
       50
176
     1
 62
   256
176
     0
 40
1.0
176
     0
 90
        2
176
     1
  1
strokes_ogs.tif
176
     1
290
     0
176
     1
 40
1.0
176
     1
 40
1.0
176
     1
  0
VISUALSTYLE
  5
3F
102
{ACAD_REACTORS
330
2A
102
}
330
2A
100
AcDbVisualStyle
  2
Sketchy
 70
    24
177
     3
291
     0
 70
    58
 90
        1
176
     1
 90
        2
176
     1
 90
        2
176
     1
 90
        0
176
     1
 40
0.6
176
     1
 40
30.0
176
     1
 62
     7
420
 16777215
176
     1
 90
        2
176
     1
 90
        2
176
     1
 62
     7
176
     1
 62
     7
176
     1
 90
        1
176
     1
 90
        1
176
     1
 40
40.0
176
     1
 90
       11
176
     1
 62
     7
176
     1
 40
1.0
176
     1
 90
        1
176
     1
 90
        6
176
     1
 90
        2
176
     1
 62
     7
176
     1
 90
        6
176
     1
 90
        0
176
     1
 90
        0
176
     1
290
     0
176
     1
 90
        1
176
     1
 40
0.0
176
     1
 90
        0
176
     1
290
     0
176
     1
290
     1
176
     1
290
     1
176
     1
290
     0
176
     1
290
     0
176
     1
290
     0
176
     1
290
     0
176
     1
290
     0
176
     1
290
     0
176
     1
 90
       50
176
     1
 40
0.0
176
     1
 40
1.0
176
     1
 90
        0
176
     1
 62
    18
420
        0
176
     1
 90
       50
176
     1
 90
        3
176
     1
 62
     5
420
      255
176
     1
290
     0
176
     1
 90
       50
176
     1
 90
       50
176
     1
 90
       50
176
     1
290
     0
176
     1
 90
       50
176
     1
 62
   256
176
     0
 40
1.0
176
     0
 90
        2
176
     1
  1
strokes_ogs.tif
176
     1
290
     0
176
     1
 40
1.0
176
     1
 40
1.0
176
     1
  0
VISUALSTYLE
  5
37
102
{ACAD_REACTORS
330
2A
102
}
330
2A
100
AcDbVisualStyle
  2
Thicken
 70
    13
177
     3
291
     1
 70
    58
 90
        2
176
     1
 90
        2
176
     1
 90
        0
176
     1
 90
        0
176
     1
 40
0.6
176
     1
 40
30.0
176
     1
 62
     7
420
 16777215
176
     1
 90
        1
176
     1
 90
        4
176
     1
 62
     7
176
     1
 62
   257
176
     1
 90
        1
176
     1
 90
        1
176
     1
 40
1.0
176
     1
 90
       12
176
     1
 62
     7
176
     1
 40
1.0
176
     1
 90
        1
176
     1
 90
        6
176
     1
 90
        2
176
     1
 62
     7
176
     1
 90
        5
176
     1
 90
        0
176
     1
 90
        0
176
     1
290
     0
176
     1
 90
        1
176
     1
 40
0.0
176
     1
 90
        0
176
     1
290
     0
176
     1
290
     1
176
     1
290
     1
176
     1
290
     0
176
     1
290
     0
176
     1
290
     0
176
     1
290
     0
176
     1
290
     0
176
     1
290
     0
176
     1
 90
       50
176
     1
 40
0.0
176
     1
 40
1.0
176
     1
 90
        0
176
     1
 62
    18
420
        0
176
     1
 90
       50
176
     1
 90
        3
176
     1
 62
     5
420
      255
176
     1
290
     0
176
     1
 90
       50
176
     1
 90
       50
176
     1
 90
       50
176
     1
290
     0
176
     1
 90
       50
176
     1
 62
   256
176
     0
 40
1.0
176
     0
 90
        2
176
     1
  1
strokes_ogs.tif
176
     1
290
     0
176
     1
 40
1.0
176
     1
 40
1.0
176
     1
  0
VISUALSTYLE
  5
30
102
{ACAD_REACTORS
330
2A
102
}
330
2A
100
AcDbVisualStyle
  2
Wireframe
 70
     5
177
     3
291
     0
 70
    58
 90
        0
176
     1
 90
        2
176
     1
 90
        0
176
     1
 90
        0
176
     1
 40
0.6
176
     1
 40
30.0
176
     1
 62
     7
420
 16777215
176
     1
 90
        1
176
     1
 90
        4
176
     1
 62
     7
176
     1
 62
   257
176
     1
 90
        1
176
     1
 90
        1
176
     1
 40
1.0
176
     1
 90
        0
176
     1
 62
   257
176
     1
 40
1.0
176
     1
 90
        1
176
     1
 90
        6
176
     1
 90
        2
176
     1
 62
     7
176
     1
 90
        3
176
     1
 90
        0
176
     1
 90
        0
176
     1
290
     0
176
     1
 90
        1
176
     1
 40
0.0
176
     1
 90
        0
176
     1
290
     0
176
     1
290
     1
176
     1
290
     1
176
     1
290
     0
176
     1
290
     0
176
     1
290
     0
176
     1
290
     0
176
     1
290
     0
176
     1
290
     0
176
     1
 90
       50
176
     1
 40
0.0
176
     1
 40
1.0
176
     1
 90
        0
176
     1
 62
    18
420
        0
176
     1
 90
       50
176
     1
 90
        3
176
     1
 62
     5
420
      255
176
     1
290
     0
176
     1
 90
       50
176
     1
 90
       50
176
     1
 90
       50
176
     1
290
     0
176
     1
 90
       50
176
     1
 62
   256
176
     0
 40
1.0
176
     0
 90
        2
176
     1
  1
strokes_ogs.tif
176
     1
290
     0
176
     1
 40
1.0
176
     1
 40
1.0
176
     1
  0
VISUALSTYLE
  5
40
102
{ACAD_REACTORS
330
2A
102
}
330
2A
100
AcDbVisualStyle
  2
X-Ray
 70
    25
177
     3
291
     0
 70
    58
 90
        2
176
     1
 90
        2
176
     1
 90
        1
176
     1
 90
        1
176
     1
 40
0.5
176
     1
 40
30.0
176
     1
 62
     7
420
 16777215
176
     1
 90
        1
176
     1
 90
        0
176
     1
 62
     7
176
     1
 62
   257
176
     1
 90
        1
176
     1
 90
        1
176
     1
 40
1.0
176
     1
 90
        8
176
     1
 62
     7
176
     1
 40
1.0
176
     1
 90
        1
176
     1
 90
        6
176
     1
 90
        2
176
     1
 62
     7
176
     1
 90
        3
176
     1
 90
        0
176
     1
 90
        0
176
     1
290
     0
176
     1
 90
       13
176
     1
 40
0.0
176
     1
 90
        0
176
     1
290
     0
176
     1
290
     1
176
     1
290
     1
176
     1
290
     0
176
     1
290
     0
176
     1
290
     0
176
     1
290
     0
176
     1
290
     0
176
     1
290
     0
176
     1
 90
       50
176
     1
 40
0.0
176
     1
 40
1.0
176
     1
 90
        0
176
     1
 62
    18
420
        0
176
     1
 90
       50
176
     1
 90
        3
176
     1
 62
     5
420
      255
176
     1
290
     0
176
     1
 90
       50
176
     1
 90
       50
176
     1
 90
       50
176
     1
290
     0
176
     1
 90
       50
176
     1
 62
   256
176
     0
 40
1.0
176
     0
 90
        2
176
     1
  1
strokes_ogs.tif
176
     1
290
     0
176
     1
 40
1.0
176
     1
 40
1.0
176
     1
  0
DICTIONARYVAR
  5
1D4
102
{ACAD_REACTORS
330
1D3
102
}
330
1D3
100
DictionaryVariables
280
     0
  1
1:1
  0
DICTIONARYVAR
  5
1D9
102
{ACAD_REACTORS
330
1D3
102
}
330
1D3
100
DictionaryVariables
280
     0
  1
Standard
  0
DICTIONARYVAR
  5
1D8
102
{ACAD_REACTORS
330
1D3
102
}
330
1D3
100
DictionaryVariables
280
     0
  1
Standard
  0
DICTIONARY
  5
1D5
330
6A
100
AcDbDictionary
280
     1
281
     1
  3
ACAD_ROUNDTRIP_2008_TABLESTYLE_CELLSTYLEMAP
360
1D6
  0
CELLSTYLEMAP
  5
1D6
102
{ACAD_REACTORS
330
1D5
102
}
330
1D5
100
AcDbCellStyleMap
 90
        3
300
CELLSTYLE
  1
TABLEFORMAT_BEGIN
 90
        5
170
     1
 91
        0
 92
    32768
 62
   257
 93
        1
300
CONTENTFORMAT
  1
CONTENTFORMAT_BEGIN
 90
        0
 91
        0
 92
        4
 93
        0
300

 40
0.0
140
1.0
 94
        5
 62
     0
340
11
144
6.0
309
CONTENTFORMAT_END
171
     1
301
MARGIN
  1
CELLMARGIN_BEGIN
 40
1.5
 40
1.5
 40
1.5
 40
1.5
 40
1.5
 40
1.5
309
CELLMARGIN_END
 94
        6
 95
        1
302
GRIDFORMAT
  1
GRIDFORMAT_BEGIN
 90
        0
 91
        1
 62
     0
 92
       -2
340
14
 93
        0
 40
0.045
309
GRIDFORMAT_END
 95
        2
302
GRIDFORMAT
  1
GRIDFORMAT_BEGIN
 90
        0
 91
        1
 62
     0
 92
       -2
340
14
 93
        0
 40
0.045
309
GRIDFORMAT_END
 95
        4
302
GRIDFORMAT
  1
GRIDFORMAT_BEGIN
 90
        0
 91
        1
 62
     0
 92
       -2
340
14
 93
        0
 40
0.045
309
GRIDFORMAT_END
 95
        8
302
GRIDFORMAT
  1
GRIDFORMAT_BEGIN
 90
        0
 91
        1
 62
     0
 92
       -2
340
14
 93
        0
 40
0.045
309
GRIDFORMAT_END
 95
       16
302
GRIDFORMAT
  1
GRIDFORMAT_BEGIN
 90
        0
 91
        1
 62
     0
 92
       -2
340
14
 93
        0
 40
0.045
309
GRIDFORMAT_END
 95
       32
302
GRIDFORMAT
  1
GRIDFORMAT_BEGIN
 90
        0
 91
        1
 62
     0
 92
       -2
340
14
 93
        0
 40
0.045
309
GRIDFORMAT_END
309
TABLEFORMAT_END
  1
CELLSTYLE_BEGIN
 90
        1
 91
        1
300
_TITLE
309
CELLSTYLE_END
300
CELLSTYLE
  1
TABLEFORMAT_BEGIN
 90
        5
170
     1
 91
        0
 92
        0
 62
   257
 93
        1
300
CONTENTFORMAT
  1
CONTENTFORMAT_BEGIN
 90
        0
 91
        0
 92
        4
 93
        0
300

 40
0.0
140
1.0
 94
        5
 62
     0
340
11
144
4.5
309
CONTENTFORMAT_END
171
     1
301
MARGIN
  1
CELLMARGIN_BEGIN
 40
1.5
 40
1.5
 40
1.5
 40
1.5
 40
1.5
 40
1.5
309
CELLMARGIN_END
 94
        6
 95
        1
302
GRIDFORMAT
  1
GRIDFORMAT_BEGIN
 90
        0
 91
        1
 62
     0
 92
       -2
340
14
 93
        0
 40
0.045
309
GRIDFORMAT_END
 95
        2
302
GRIDFORMAT
  1
GRIDFORMAT_BEGIN
 90
        0
 91
        1
 62
     0
 92
       -2
340
14
 93
        0
 40
0.045
309
GRIDFORMAT_END
 95
        4
302
GRIDFORMAT
  1
GRIDFORMAT_BEGIN
 90
        0
 91
        1
 62
     0
 92
       -2
340
14
 93
        0
 40
0.045
309
GRIDFORMAT_END
 95
        8
302
GRIDFORMAT
  1
GRIDFORMAT_BEGIN
 90
        0
 91
        1
 62
     0
 92
       -2
340
14
 93
        0
 40
0.045
309
GRIDFORMAT_END
 95
       16
302
GRIDFORMAT
  1
GRIDFORMAT_BEGIN
 90
        0
 91
        1
 62
     0
 92
       -2
340
14
 93
        0
 40
0.045
309
GRIDFORMAT_END
 95
       32
302
GRIDFORMAT
  1
GRIDFORMAT_BEGIN
 90
        0
 91
        1
 62
     0
 92
       -2
340
14
 93
        0
 40
0.045
309
GRIDFORMAT_END
309
TABLEFORMAT_END
  1
CELLSTYLE_BEGIN
 90
        2
 91
        1
300
_HEADER
309
CELLSTYLE_END
300
CELLSTYLE
  1
TABLEFORMAT_BEGIN
 90
        5
170
     1
 91
        0
 92
        0
 62
   257
 93
        1
300
CONTENTFORMAT
  1
CONTENTFORMAT_BEGIN
 90
        0
 91
        0
 92
        4
 93
        0
300

 40
0.0
140
1.0
 94
        2
 62
     0
340
11
144
4.5
309
CONTENTFORMAT_END
171
     1
301
MARGIN
  1
CELLMARGIN_BEGIN
 40
1.5
 40
1.5
 40
1.5
 40
1.5
 40
1.5
 40
1.5
309
CELLMARGIN_END
 94
        6
 95
        1
302
GRIDFORMAT
  1
GRIDFORMAT_BEGIN
 90
        0
 91
        1
 62
     0
 92
       -2
340
14
 93
        0
 40
0.045
309
GRIDFORMAT_END
 95
        2
302
GRIDFORMAT
  1
GRIDFORMAT_BEGIN
 90
        0
 91
        1
 62
     0
 92
       -2
340
14
 93
        0
 40
0.045
309
GRIDFORMAT_END
 95
        4
302
GRIDFORMAT
  1
GRIDFORMAT_BEGIN
 90
        0
 91
        1
 62
     0
 92
       -2
340
14
 93
        0
 40
0.045
309
GRIDFORMAT_END
 95
        8
302
GRIDFORMAT
  1
GRIDFORMAT_BEGIN
 90
        0
 91
        1
 62
     0
 92
       -2
340
14
 93
        0
 40
0.045
309
GRIDFORMAT_END
 95
       16
302
GRIDFORMAT
  1
GRIDFORMAT_BEGIN
 90
        0
 91
        1
 62
     0
 92
       -2
340
14
 93
        0
 40
0.045
309
GRIDFORMAT_END
 95
       32
302
GRIDFORMAT
  1
GRIDFORMAT_BEGIN
 90
        0
 91
        1
 62
     0
 92
       -2
340
14
 93
        0
 40
0.045
309
GRIDFORMAT_END
309
TABLEFORMAT_END
  1
CELLSTYLE_BEGIN
 90
        3
 91
        2
300
_DATA
309
CELLSTYLE_END
  0
ENDSEC
  0
SECTION
  2
ACDSDATA
 70
     2
 71
     2
  0
ACDSSCHEMA
 90
        0
  1
AcDb_Thumbnail_Schema
  2
AcDbDs::ID
280
    10
 91
        8
  2
Thumbnail_Data
280
    15
 91
        0
101
ACDSRECORD
 95
        0
 90
        2
  2
AcDbDs::TreatedAsObjectData
280
     1
291
     1
101
ACDSRECORD
 95
        0
 90
        3
  2
AcDbDs::Legacy
280
     1
291
     1
101
ACDSRECORD
  1
AcDbDs::ID
 90
        4
  2
AcDs:Indexable
280
     1
291
     1
101
ACDSRECORD
  1
AcDbDs::ID
 90
        5
  2
AcDbDs::HandleAttribute
280
     7
282
     1
  0
ACDSSCHEMA
 90
        1
  1
AcDb3DSolid_ASM_Data
  2
AcDbDs::ID
280
    10
 91
        8
  2
ASM_Data
280
    15
 91
        0
101
ACDSRECORD
 95
        1
 90
        2
  2
AcDbDs::TreatedAsObjectData
280
     1
291
     1
101
ACDSRECORD
 95
        1
 90
        3
  2
AcDbDs::Legacy
280
     1
291
     1
101
ACDSRECORD
  1
AcDbDs::ID
 90
        4
  2
AcDs:Indexable
280
     1
291
     1
101
ACDSRECORD
  1
AcDbDs::ID
 90
        5
  2
AcDbDs::HandleAttribute
280
     7
282
     1
  0
ACDSSCHEMA
 90
        2
  1
AcDbDs::TreatedAsObjectDataSchema
  2
AcDbDs::TreatedAsObjectData
280
     1
 91
        0
  0
ACDSSCHEMA
 90
        3
  1
AcDbDs::LegacySchema
  2
AcDbDs::Legacy
280
     1
 91
        0
  0
ACDSSCHEMA
 90
        4
  1
AcDbDs::IndexedPropertySchema
  2
AcDs:Indexable
280
     1
 91
        0
  0
ACDSSCHEMA
 90
        5
  1
AcDbDs::HandleAttributeSchema
  2
AcDbDs::HandleAttribute
280
     7
 91
        1
284
     1
  0
ACDSRECORD
 90
        1
  2
AcDbDs::ID
280
    10
320
83
  2
ASM_Data
280
    15
 94
      715
310
414349532042696E61727946696C652855000000000000020000000C00000007214F70656E2044657369676E20416C6C69616E63652041434953204275696C646572070E41434953203231382E3030204E540718536174204A756C2030382032323A35343A3532203230313706000000000000F03F068DEDB5A0F7C6B03E06
310
BBBDD7D9DF7CDB3D0D0961736D6865616465720CFFFFFFFF04FFFFFFFF070C3230382E302E342E37303039110D04626F64790C0200000004FFFFFFFF0CFFFFFFFF0C030000000CFFFFFFFF0CFFFFFFFF110E0D737472696E675F6174747269620E0B6E616D655F6174747269620E0367656E0D066174747269620CFFFFFFFF
310
04FFFFFFFF0CFFFFFFFF0CFFFFFFFF0C01000000150200000015010000001501000000150200000007114154545249425F58414349535F4E414D45070D5F36303135204D5F5041525433110D046C756D700CFFFFFFFF04FFFFFFFF0CFFFFFFFF0CFFFFFFFF0C040000000C01000000110D057368656C6C0CFFFFFFFF04FFFF
310
FFFF0CFFFFFFFF0CFFFFFFFF0CFFFFFFFF0C050000000CFFFFFFFF0C03000000110D04666163650C0700000004FFFFFFFF0CFFFFFFFF0CFFFFFFFF0CFFFFFFFF0C040000000CFFFFFFFF0C060000000B0B110E067370686572650D07737572666163650CFFFFFFFF04FFFFFFFF0CFFFFFFFF130000000000002440B3A0E13B
310
5BB24540E88782E6EA513340061E5A643BDFCF1740140000000000000000967FFFAEC33BEDBFD01A0621F907DABF14000000000000F03F000000000000000000000000000000000B0B0B0B0B110E0D737472696E675F6174747269620E0B6E616D655F6174747269620E0367656E0D066174747269620CFFFFFFFF04FFFFFF
310
FF0CFFFFFFFF0CFFFFFFFF0C050000001502000000150100000015010000001502000000070F4154545249425F58414349535F4944070436323132110E03456E640E026F660E0341534D0D0464617461
  0
ACDSRECORD
 90
        1
  2
AcDbDs::ID
280
    10
320
97
  2
ASM_Data
280
    15
 94
      715
310
414349532042696E61727946696C652855000000000000020000000C00000007214F70656E2044657369676E20416C6C69616E63652041434953204275696C646572070E41434953203231382E3030204E540718536174204A756C2030382032323A35343A3532203230313706000000000000F03F068DEDB5A0F7C6B03E06
310
BBBDD7D9DF7CDB3D0D0961736D6865616465720CFFFFFFFF04FFFFFFFF070C3230382E302E342E37303039110D04626F64790C0200000004FFFFFFFF0CFFFFFFFF0C030000000CFFFFFFFF0CFFFFFFFF110E0D737472696E675F6174747269620E0B6E616D655F6174747269620E0367656E0D066174747269620CFFFFFFFF
310
04FFFFFFFF0CFFFFFFFF0CFFFFFFFF0C01000000150200000015010000001501000000150200000007114154545249425F58414349535F4E414D45070D5F36303135204D5F5041525433110D046C756D700CFFFFFFFF04FFFFFFFF0CFFFFFFFF0CFFFFFFFF0C040000000C01000000110D057368656C6C0CFFFFFFFF04FFFF
310
FFFF0CFFFFFFFF0CFFFFFFFF0CFFFFFFFF0C050000000CFFFFFFFF0C03000000110D04666163650C0700000004FFFFFFFF0CFFFFFFFF0CFFFFFFFF0CFFFFFFFF0C040000000CFFFFFFFF0C060000000B0B110E067370686572650D07737572666163650CFFFFFFFF04FFFFFFFF0CFFFFFFFF1300000000000024409389F7CF
310
A0C83F409867D60E52A64140061E5A643BDFCF1740140000000000000000D30BE2968469E5BFC5BE33A8D7C7E7BF14000000000000F03F000000000000000000000000000000000B0B0B0B0B110E0D737472696E675F6174747269620E0B6E616D655F6174747269620E0367656E0D066174747269620CFFFFFFFF04FFFFFF
310
FF0CFFFFFFFF0CFFFFFFFF0C050000001502000000150100000015010000001502000000070F4154545249425F58414349535F4944070436323133110E03456E640E026F660E0341534D0D0464617461
  0
ACDSRECORD
 90
        1
  2
AcDbDs::ID
280
    10
320
AB
  2
ASM_Data
280
    15
 94
      715
310
414349532042696E61727946696C652855000000000000020000000C00000007214F70656E2044657369676E20416C6C69616E63652041434953204275696C646572070E41434953203231382E3030204E540718536174204A756C2030382032323A35343A3532203230313706000000000000F03F068DEDB5A0F7C6B03E06
310
BBBDD7D9DF7CDB3D0D0961736D6865616465720CFFFFFFFF04FFFFFFFF070C3230382E302E342E37303039110D04626F64790C0200000004FFFFFFFF0CFFFFFFFF0C030000000CFFFFFFFF0CFFFFFFFF110E0D737472696E675F6174747269620E0B6E616D655F6174747269620E0367656E0D066174747269620CFFFFFFFF
310
04FFFFFFFF0CFFFFFFFF0CFFFFFFFF0C01000000150200000015010000001501000000150200000007114154545249425F58414349535F4E414D45070D5F36303135204D5F5041525433110D046C756D700CFFFFFFFF04FFFFFFFF0CFFFFFFFF0CFFFFFFFF0C040000000C01000000110D057368656C6C0CFFFFFFFF04FFFF
310
FFFF0CFFFFFFFF0CFFFFFFFF0CFFFFFFFF0C050000000CFFFFFFFF0C03000000110D04666163650C0700000004FFFFFFFF0CFFFFFFFF0CFFFFFFFF0CFFFFFFFF0C040000000CFFFFFFFF0C060000000B0B110E067370686572650D07737572666163650CFFFFFFFF04FFFFFFFF0CFFFFFFFF130000000000002440501EEB15
310
4B5B2D4018B74C726C964640061E5A643BDFCF17401400000000000000004CE92F37EFC6D3BF005544130E6FEEBF14000000000000F03F000000000000000000000000000000000B0B0B0B0B110E0D737472696E675F6174747269620E0B6E616D655F6174747269620E0367656E0D066174747269620CFFFFFFFF04FFFFFF
310
FF0CFFFFFFFF0CFFFFFFFF0C050000001502000000150100000015010000001502000000070F4154545249425F58414349535F4944070436323134110E03456E640E026F660E0341534D0D0464617461
  0
ACDSRECORD
 90
        1
  2
AcDbDs::ID
280
    10
320
BF
  2
ASM_Data
280
    15
 94
      715
310
414349532042696E61727946696C652855000000000000020000000C00000007214F70656E2044657369676E20416C6C69616E63652041434953204275696C646572070E41434953203231382E3030204E540718536174204A756C2030382032323A35343A3532203230313706000000000000F03F068DEDB5A0F7C6B03E06
310
BBBDD7D9DF7CDB3D0D0961736D6865616465720CFFFFFFFF04FFFFFFFF070C3230382E302E342E37303039110D04626F64790C0200000004FFFFFFFF0CFFFFFFFF0C030000000CFFFFFFFF0CFFFFFFFF110E0D737472696E675F6174747269620E0B6E616D655F6174747269620E0367656E0D066174747269620CFFFFFFFF
310
04FFFFFFFF0CFFFFFFFF0CFFFFFFFF0C01000000150200000015010000001501000000150200000007114154545249425F58414349535F4E414D45070D5F36303135204D5F5041525433110D046C756D700CFFFFFFFF04FFFFFFFF0CFFFFFFFF0CFFFFFFFF0C040000000C01000000110D057368656C6C0CFFFFFFFF04FFFF
310
FFFF0CFFFFFFFF0CFFFFFFFF0CFFFFFFFF0C050000000CFFFFFFFF0C03000000110D04666163650C0700000004FFFFFFFF0CFFFFFFFF0CFFFFFFFF0CFFFFFFFF0C040000000CFFFFFFFF0C060000000B0B110E067370686572650D07737572666163650CFFFFFFFF04FFFFFFFF0CFFFFFFFF130000000000002440DEC836B3
310
43DC13C0075D9070B19E4740061E5A643BDFCF174014000000000000000064573C9B60C2BA3FC767F8941FD3EFBF14000000000000F03F000000000000000000000000000000000B0B0B0B0B110E0D737472696E675F6174747269620E0B6E616D655F6174747269620E0367656E0D066174747269620CFFFFFFFF04FFFFFF
310
FF0CFFFFFFFF0CFFFFFFFF0C050000001502000000150100000015010000001502000000070F4154545249425F58414349535F4944070436323135110E03456E640E026F660E0341534D0D0464617461
  0
ACDSRECORD
 90
        1
  2
AcDbDs::ID
280
    10
320
D3
  2
ASM_Data
280
    15
 94
      715
310
414349532042696E61727946696C652855000000000000020000000C00000007214F70656E2044657369676E20416C6C69616E63652041434953204275696C646572070E41434953203231382E3030204E540718536174204A756C2030382032323A35343A3532203230313706000000000000F03F068DEDB5A0F7C6B03E06
310
BBBDD7D9DF7CDB3D0D0961736D6865616465720CFFFFFFFF04FFFFFFFF070C3230382E302E342E37303039110D04626F64790C0200000004FFFFFFFF0CFFFFFFFF0C030000000CFFFFFFFF0CFFFFFFFF110E0D737472696E675F6174747269620E0B6E616D655F6174747269620E0367656E0D066174747269620CFFFFFFFF
310
04FFFFFFFF0CFFFFFFFF0CFFFFFFFF0C01000000150200000015010000001501000000150200000007114154545249425F58414349535F4E414D45070D5F36303135204D5F5041525433110D046C756D700CFFFFFFFF04FFFFFFFF0CFFFFFFFF0CFFFFFFFF0C040000000C01000000110D057368656C6C0CFFFFFFFF04FFFF
310
FFFF0CFFFFFFFF0CFFFFFFFF0CFFFFFFFF0C050000000CFFFFFFFF0C03000000110D04666163650C0700000004FFFFFFFF0CFFFFFFFF0CFFFFFFFF0CFFFFFFFF0C040000000CFFFFFFFF0C060000000B0B110E067370686572650D07737572666163650CFFFFFFFF04FFFFFFFF0CFFFFFFFF13000000000000244008000000
310
00C037C0E68871386F914440061E5A643BDFCF1740140000000000000000050000000000E03FA84C58E87AB6EBBF14000000000000F03F000000000000000000000000000000000B0B0B0B0B110E0D737472696E675F6174747269620E0B6E616D655F6174747269620E0367656E0D066174747269620CFFFFFFFF04FFFFFF
310
FF0CFFFFFFFF0CFFFFFFFF0C050000001502000000150100000015010000001502000000070F4154545249425F58414349535F4944070436323136110E03456E640E026F660E0341534D0D0464617461
  0
ACDSRECORD
 90
        1
  2
AcDbDs::ID
280
    10
320
E7
  2
ASM_Data
280
    15
 94
      715
310
414349532042696E61727946696C652855000000000000020000000C00000007214F70656E2044657369676E20416C6C69616E63652041434953204275696C646572070E41434953203231382E3030204E540718536174204A756C2030382032323A35343A3532203230313706000000000000F03F068DEDB5A0F7C6B03E06
310
BBBDD7D9DF7CDB3D0D0961736D6865616465720CFFFFFFFF04FFFFFFFF070C3230382E302E342E37303039110D04626F64790C0200000004FFFFFFFF0CFFFFFFFF0C030000000CFFFFFFFF0CFFFFFFFF110E0D737472696E675F6174747269620E0B6E616D655F6174747269620E0367656E0D066174747269620CFFFFFFFF
310
04FFFFFFFF0CFFFFFFFF0CFFFFFFFF0C01000000150200000015010000001501000000150200000007114154545249425F58414349535F4E414D45070D5F36303135204D5F5041525433110D046C756D700CFFFFFFFF04FFFFFFFF0CFFFFFFFF0CFFFFFFFF0C040000000C01000000110D057368656C6C0CFFFFFFFF04FFFF
310
FFFF0CFFFFFFFF0CFFFFFFFF0CFFFFFFFF0C050000000CFFFFFFFF0C03000000110D04666163650C0700000004FFFFFFFF0CFFFFFFFF0CFFFFFFFF0CFFFFFFFF0C040000000CFFFFFFFF0C060000000B0B110E067370686572650D07737572666163650CFFFFFFFF04FFFFFFFF0CFFFFFFFF13000000000000244097C77AC5
310
D23643C026329EFA77EB3B40061F5A643BDFCF1740140000000000000000A9F4979B77E3E93F5D5A750423CFE2BF14000000000000F03F000000000000000000000000000000000B0B0B0B0B110E0D737472696E675F6174747269620E0B6E616D655F6174747269620E0367656E0D066174747269620CFFFFFFFF04FFFFFF
310
FF0CFFFFFFFF0CFFFFFFFF0C050000001502000000150100000015010000001502000000070F4154545249425F58414349535F4944070436323137110E03456E640E026F660E0341534D0D0464617461
  0
ACDSRECORD
 90
        1
  2
AcDbDs::ID
280
    10
320
FB
  2
ASM_Data
280
    15
 94
      715
310
414349532042696E61727946696C652855000000000000020000000C00000007214F70656E2044657369676E20416C6C69616E63652041434953204275696C646572070E41434953203231382E3030204E540718536174204A756C2030382032323A35343A3532203230313706000000000000F03F068DEDB5A0F7C6B03E06
310
BBBDD7D9DF7CDB3D0D0961736D6865616465720CFFFFFFFF04FFFFFFFF070C3230382E302E342E37303039110D04626F64790C0200000004FFFFFFFF0CFFFFFFFF0C030000000CFFFFFFFF0CFFFFFFFF110E0D737472696E675F6174747269620E0B6E616D655F6174747269620E0367656E0D066174747269620CFFFFFFFF
310
04FFFFFFFF0CFFFFFFFF0CFFFFFFFF0C01000000150200000015010000001501000000150200000007114154545249425F58414349535F4E414D45070D5F36303135204D5F5041525433110D046C756D700CFFFFFFFF04FFFFFFFF0CFFFFFFFF0CFFFFFFFF0C040000000C01000000110D057368656C6C0CFFFFFFFF04FFFF
310
FFFF0CFFFFFFFF0CFFFFFFFF0CFFFFFFFF0C050000000CFFFFFFFF0C03000000110D04666163650C0700000004FFFFFFFF0CFFFFFFFF0CFFFFFFFF0CFFFFFFFF0C040000000CFFFFFFFF0C060000000B0B110E067370686572650D07737572666163650CFFFFFFFF04FFFFFFFF0CFFFFFFFF130000000000002440618C762D
310
233B47C00C3ED98D69C02340061D5A643BDFCF174014000000000000000080007A32FC4CEF3FFD5842ACD99CCABF14000000000000F03F000000000000000000000000000000000B0B0B0B0B110E0D737472696E675F6174747269620E0B6E616D655F6174747269620E0367656E0D066174747269620CFFFFFFFF04FFFFFF
310
FF0CFFFFFFFF0CFFFFFFFF0C050000001502000000150100000015010000001502000000070F4154545249425F58414349535F4944070436323138110E03456E640E026F660E0341534D0D0464617461
  0
ACDSRECORD
 90
        1
  2
AcDbDs::ID
280
    10
320
10F
  2
ASM_Data
280
    15
 94
      715
310
414349532042696E61727946696C652855000000000000020000000C00000007214F70656E2044657369676E20416C6C69616E63652041434953204275696C646572070E41434953203231382E3030204E540718536174204A756C2030382032323A35343A3532203230313706000000000000F03F068DEDB5A0F7C6B03E06
310
BBBDD7D9DF7CDB3D0D0961736D6865616465720CFFFFFFFF04FFFFFFFF070C3230382E302E342E37303039110D04626F64790C0200000004FFFFFFFF0CFFFFFFFF0C030000000CFFFFFFFF0CFFFFFFFF110E0D737472696E675F6174747269620E0B6E616D655F6174747269620E0367656E0D066174747269620CFFFFFFFF
310
04FFFFFFFF0CFFFFFFFF0CFFFFFFFF0C01000000150200000015010000001501000000150200000007114154545249425F58414349535F4E414D45070D5F36303135204D5F5041525433110D046C756D700CFFFFFFFF04FFFFFFFF0CFFFFFFFF0CFFFFFFFF0C040000000C01000000110D057368656C6C0CFFFFFFFF04FFFF
310
FFFF0CFFFFFFFF0CFFFFFFFF0CFFFFFFFF0C050000000CFFFFFFFF0C03000000110D04666163650C0700000004FFFFFFFF0CFFFFFFFF0CFFFFFFFF0CFFFFFFFF0C040000000CFFFFFFFF0C060000000B0B110E067370686572650D07737572666163650CFFFFFFFF04FFFFFFFF0CFFFFFFFF130000000000002440618C762D
310
233B47C0083ED98D69C023C0061E5A643BDFCF174014000000000000000080007A32FC4CEF3FF55842ACD99CCA3F14000000000000F03F000000000000000000000000000000000B0B0B0B0B110E0D737472696E675F6174747269620E0B6E616D655F6174747269620E0367656E0D066174747269620CFFFFFFFF04FFFFFF
310
FF0CFFFFFFFF0CFFFFFFFF0C050000001502000000150100000015010000001502000000070F4154545249425F58414349535F4944070436323139110E03456E640E026F660E0341534D0D0464617461
  0
ACDSRECORD
 90
        1
  2
AcDbDs::ID
280
    10
320
123
  2
ASM_Data
280
    15
 94
      715
310
414349532042696E61727946696C652855000000000000020000000C00000007214F70656E2044657369676E20416C6C69616E63652041434953204275696C646572070E41434953203231382E3030204E540718536174204A756C2030382032323A35343A3532203230313706000000000000F03F068DEDB5A0F7C6B03E06
310
BBBDD7D9DF7CDB3D0D0961736D6865616465720CFFFFFFFF04FFFFFFFF070C3230382E302E342E37303039110D04626F64790C0200000004FFFFFFFF0CFFFFFFFF0C030000000CFFFFFFFF0CFFFFFFFF110E0D737472696E675F6174747269620E0B6E616D655F6174747269620E0367656E0D066174747269620CFFFFFFFF
310
04FFFFFFFF0CFFFFFFFF0CFFFFFFFF0C01000000150200000015010000001501000000150200000007114154545249425F58414349535F4E414D45070D5F36303135204D5F5041525433110D046C756D700CFFFFFFFF04FFFFFFFF0CFFFFFFFF0CFFFFFFFF0C040000000C01000000110D057368656C6C0CFFFFFFFF04FFFF
310
FFFF0CFFFFFFFF0CFFFFFFFF0CFFFFFFFF0C050000000CFFFFFFFF0C03000000110D04666163650C0700000004FFFFFFFF0CFFFFFFFF0CFFFFFFFF0CFFFFFFFF0C040000000CFFFFFFFF0C060000000B0B110E067370686572650D07737572666163650CFFFFFFFF04FFFFFFFF0CFFFFFFFF13000000000000244095C77AC5
310
D23643C027329EFA77EB3BC0061E5A643BDFCF1740140000000000000000A7F4979B77E3E93F5F5A750423CFE23F14000000000000F03F000000000000000000000000000000000B0B0B0B0B110E0D737472696E675F6174747269620E0B6E616D655F6174747269620E0367656E0D066174747269620CFFFFFFFF04FFFFFF
310
FF0CFFFFFFFF0CFFFFFFFF0C050000001502000000150100000015010000001502000000070F4154545249425F58414349535F4944070436323230110E03456E640E026F660E0341534D0D0464617461
  0
ACDSRECORD
 90
        1
  2
AcDbDs::ID
280
    10
320
137
  2
ASM_Data
280
    15
 94
      715
310
414349532042696E61727946696C652855000000000000020000000C00000007214F70656E2044657369676E20416C6C69616E63652041434953204275696C646572070E41434953203231382E3030204E540718536174204A756C2030382032323A35343A3532203230313706000000000000F03F068DEDB5A0F7C6B03E06
310
BBBDD7D9DF7CDB3D0D0961736D6865616465720CFFFFFFFF04FFFFFFFF070C3230382E302E342E37303039110D04626F64790C0200000004FFFFFFFF0CFFFFFFFF0C030000000CFFFFFFFF0CFFFFFFFF110E0D737472696E675F6174747269620E0B6E616D655F6174747269620E0367656E0D066174747269620CFFFFFFFF
310
04FFFFFFFF0CFFFFFFFF0CFFFFFFFF0C01000000150200000015010000001501000000150200000007114154545249425F58414349535F4E414D45070D5F36303135204D5F5041525433110D046C756D700CFFFFFFFF04FFFFFFFF0CFFFFFFFF0CFFFFFFFF0C040000000C01000000110D057368656C6C0CFFFFFFFF04FFFF
310
FFFF0CFFFFFFFF0CFFFFFFFF0CFFFFFFFF0C050000000CFFFFFFFF0C03000000110D04666163650C0700000004FFFFFFFF0CFFFFFFFF0CFFFFFFFF0CFFFFFFFF0C040000000CFFFFFFFF0C060000000B0B110E067370686572650D07737572666163650CFFFFFFFF04FFFFFFFF0CFFFFFFFF13000000000000244000000000
310
00C037C0E98871386F9144C0061E5A643BDFCF1740140000000000000000FBFFFFFFFFFFDF3FAB4C58E87AB6EB3F14000000000000F03F000000000000000000000000000000000B0B0B0B0B110E0D737472696E675F6174747269620E0B6E616D655F6174747269620E0367656E0D066174747269620CFFFFFFFF04FFFFFF
310
FF0CFFFFFFFF0CFFFFFFFF0C050000001502000000150100000015010000001502000000070F4154545249425F58414349535F4944070436323231110E03456E640E026F660E0341534D0D0464617461
  0
ACDSRECORD
 90
        1
  2
AcDbDs::ID
280
    10
320
14B
  2
ASM_Data
280
    15
 94
      715
310
414349532042696E61727946696C652855000000000000020000000C00000007214F70656E2044657369676E20416C6C69616E63652041434953204275696C646572070E41434953203231382E3030204E540718536174204A756C2030382032323A35343A3532203230313706000000000000F03F068DEDB5A0F7C6B03E06
310
BBBDD7D9DF7CDB3D0D0961736D6865616465720CFFFFFFFF04FFFFFFFF070C3230382E302E342E37303039110D04626F64790C0200000004FFFFFFFF0CFFFFFFFF0C030000000CFFFFFFFF0CFFFFFFFF110E0D737472696E675F6174747269620E0B6E616D655F6174747269620E0367656E0D066174747269620CFFFFFFFF
310
04FFFFFFFF0CFFFFFFFF0CFFFFFFFF0C01000000150200000015010000001501000000150200000007114154545249425F58414349535F4E414D45070D5F36303135204D5F5041525433110D046C756D700CFFFFFFFF04FFFFFFFF0CFFFFFFFF0CFFFFFFFF0C040000000C01000000110D057368656C6C0CFFFFFFFF04FFFF
310
FFFF0CFFFFFFFF0CFFFFFFFF0CFFFFFFFF0C050000000CFFFFFFFF0C03000000110D04666163650C0700000004FFFFFFFF0CFFFFFFFF0CFFFFFFFF0CFFFFFFFF0C040000000CFFFFFFFF0C060000000B0B110E067370686572650D07737572666163650CFFFFFFFF04FFFFFFFF0CFFFFFFFF130000000000002440E9C836B3
310
43DC13C0075D9070B19E47C0061E5A643BDFCF174014000000000000000073573C9B60C2BA3FC767F8941FD3EF3F14000000000000F03F000000000000000000000000000000000B0B0B0B0B110E0D737472696E675F6174747269620E0B6E616D655F6174747269620E0367656E0D066174747269620CFFFFFFFF04FFFFFF
310
FF0CFFFFFFFF0CFFFFFFFF0C050000001502000000150100000015010000001502000000070F4154545249425F58414349535F4944070436323232110E03456E640E026F660E0341534D0D0464617461
  0
ACDSRECORD
 90
        1
  2
AcDbDs::ID
280
    10
320
15F
  2
ASM_Data
280
    15
 94
      715
310
414349532042696E61727946696C652855000000000000020000000C00000007214F70656E2044657369676E20416C6C69616E63652041434953204275696C646572070E41434953203231382E3030204E540718536174204A756C2030382032323A35343A3532203230313706000000000000F03F068DEDB5A0F7C6B03E06
310
BBBDD7D9DF7CDB3D0D0961736D6865616465720CFFFFFFFF04FFFFFFFF070C3230382E302E342E37303039110D04626F64790C0200000004FFFFFFFF0CFFFFFFFF0C030000000CFFFFFFFF0CFFFFFFFF110E0D737472696E675F6174747269620E0B6E616D655F6174747269620E0367656E0D066174747269620CFFFFFFFF
310
04FFFFFFFF0CFFFFFFFF0CFFFFFFFF0C01000000150200000015010000001501000000150200000007114154545249425F58414349535F4E414D45070D5F36303135204D5F5041525433110D046C756D700CFFFFFFFF04FFFFFFFF0CFFFFFFFF0CFFFFFFFF0C040000000C01000000110D057368656C6C0CFFFFFFFF04FFFF
310
FFFF0CFFFFFFFF0CFFFFFFFF0CFFFFFFFF0C050000000CFFFFFFFF0C03000000110D04666163650C0700000004FFFFFFFF0CFFFFFFFF0CFFFFFFFF0CFFFFFFFF0C040000000CFFFFFFFF0C060000000B0B110E067370686572650D07737572666163650CFFFFFFFF04FFFFFFFF0CFFFFFFFF130000000000002440571EEB15
310
4B5B2D4018B74C726C9646C0061F5A643BDFCF174014000000000000000052E92F37EFC6D3BF005544130E6FEE3F14000000000000F03F000000000000000000000000000000000B0B0B0B0B110E0D737472696E675F6174747269620E0B6E616D655F6174747269620E0367656E0D066174747269620CFFFFFFFF04FFFFFF
310
FF0CFFFFFFFF0CFFFFFFFF0C050000001502000000150100000015010000001502000000070F4154545249425F58414349535F4944070436323233110E03456E640E026F660E0341534D0D0464617461
  0
ACDSRECORD
 90
        1
  2
AcDbDs::ID
280
    10
320
173
  2
ASM_Data
280
    15
 94
      715
310
414349532042696E61727946696C652855000000000000020000000C00000007214F70656E2044657369676E20416C6C69616E63652041434953204275696C646572070E41434953203231382E3030204E540718536174204A756C2030382032323A35343A3532203230313706000000000000F03F068DEDB5A0F7C6B03E06
310
BBBDD7D9DF7CDB3D0D0961736D6865616465720CFFFFFFFF04FFFFFFFF070C3230382E302E342E37303039110D04626F64790C0200000004FFFFFFFF0CFFFFFFFF0C030000000CFFFFFFFF0CFFFFFFFF110E0D737472696E675F6174747269620E0B6E616D655F6174747269620E0367656E0D066174747269620CFFFFFFFF
310
04FFFFFFFF0CFFFFFFFF0CFFFFFFFF0C01000000150200000015010000001501000000150200000007114154545249425F58414349535F4E414D45070D5F36303135204D5F5041525433110D046C756D700CFFFFFFFF04FFFFFFFF0CFFFFFFFF0CFFFFFFFF0C040000000C01000000110D057368656C6C0CFFFFFFFF04FFFF
310
FFFF0CFFFFFFFF0CFFFFFFFF0CFFFFFFFF0C050000000CFFFFFFFF0C03000000110D04666163650C0700000004FFFFFFFF0CFFFFFFFF0CFFFFFFFF0CFFFFFFFF0C040000000CFFFFFFFF0C060000000B0B110E067370686572650D07737572666163650CFFFFFFFF04FFFFFFFF0CFFFFFFFF1300000000000024409789F7CF
310
A0C83F409567D60E52A641C0061E5A643BDFCF1740140000000000000000D80BE2968469E5BFC2BE33A8D7C7E73F14000000000000F03F000000000000000000000000000000000B0B0B0B0B110E0D737472696E675F6174747269620E0B6E616D655F6174747269620E0367656E0D066174747269620CFFFFFFFF04FFFFFF
310
FF0CFFFFFFFF0CFFFFFFFF0C050000001502000000150100000015010000001502000000070F4154545249425F58414349535F4944070436323234110E03456E640E026F660E0341534D0D0464617461
  0
ACDSRECORD
 90
        1
  2
AcDbDs::ID
280
    10
320
187
  2
ASM_Data
280
    15
 94
      715
310
414349532042696E61727946696C652855000000000000020000000C00000007214F70656E2044657369676E20416C6C69616E63652041434953204275696C646572070E41434953203231382E3030204E540718536174204A756C2030382032323A35343A3532203230313706000000000000F03F068DEDB5A0F7C6B03E06
310
BBBDD7D9DF7CDB3D0D0961736D6865616465720CFFFFFFFF04FFFFFFFF070C3230382E302E342E37303039110D04626F64790C0200000004FFFFFFFF0CFFFFFFFF0C030000000CFFFFFFFF0CFFFFFFFF110E0D737472696E675F6174747269620E0B6E616D655F6174747269620E0367656E0D066174747269620CFFFFFFFF
310
04FFFFFFFF0CFFFFFFFF0CFFFFFFFF0C01000000150200000015010000001501000000150200000007114154545249425F58414349535F4E414D45070D5F36303135204D5F5041525433110D046C756D700CFFFFFFFF04FFFFFFFF0CFFFFFFFF0CFFFFFFFF0C040000000C01000000110D057368656C6C0CFFFFFFFF04FFFF
310
FFFF0CFFFFFFFF0CFFFFFFFF0CFFFFFFFF0C050000000CFFFFFFFF0C03000000110D04666163650C0700000004FFFFFFFF0CFFFFFFFF0CFFFFFFFF0CFFFFFFFF0C040000000CFFFFFFFF0C060000000B0B110E067370686572650D07737572666163650CFFFFFFFF04FFFFFFFF0CFFFFFFFF130000000000002440B3A0E13B
310
5BB24540E98782E6EA5133C0061F5A643BDFCF1740140000000000000000967FFFAEC33BEDBFD21A0621F907DA3F14000000000000F03F000000000000000000000000000000000B0B0B0B0B110E0D737472696E675F6174747269620E0B6E616D655F6174747269620E0367656E0D066174747269620CFFFFFFFF04FFFFFF
310
FF0CFFFFFFFF0CFFFFFFFF0C050000001502000000150100000015010000001502000000070F4154545249425F58414349535F4944070436323235110E03456E640E026F660E0341534D0D0464617461
  0
ACDSRECORD
 90
        1
  2
AcDbDs::ID
280
    10
320
19B
  2
ASM_Data
280
    15
 94
      715
310
414349532042696E61727946696C652855000000000000020000000C00000007214F70656E2044657369676E20416C6C69616E63652041434953204275696C646572070E41434953203231382E3030204E540718536174204A756C2030382032323A35343A3532203230313706000000000000F03F068DEDB5A0F7C6B03E06
310
BBBDD7D9DF7CDB3D0D0961736D6865616465720CFFFFFFFF04FFFFFFFF070C3230382E302E342E37303039110D04626F64790C0200000004FFFFFFFF0CFFFFFFFF0C030000000CFFFFFFFF0CFFFFFFFF110E0D737472696E675F6174747269620E0B6E616D655F6174747269620E0367656E0D066174747269620CFFFFFFFF
310
04FFFFFFFF0CFFFFFFFF0CFFFFFFFF0C01000000150200000015010000001501000000150200000007114154545249425F58414349535F4E414D45070D5F36303135204D5F5041525433110D046C756D700CFFFFFFFF04FFFFFFFF0CFFFFFFFF0CFFFFFFFF0C040000000C01000000110D057368656C6C0CFFFFFFFF04FFFF
310
FFFF0CFFFFFFFF0CFFFFFFFF0CFFFFFFFF0C050000000CFFFFFFFF0C03000000110D04666163650C0700000004FFFFFFFF0CFFFFFFFF0CFFFFFFFF0CFFFFFFFF0C040000000CFFFFFFFF0C060000000B0B110E067370686572650D07737572666163650CFFFFFFFF04FFFFFFFF0CFFFFFFFF13000000000000244002000000
310
00C047400000000000000000061E5A643BDFCF1740140000000000000080000000000000F0BF000000000000000014000000000000F03F000000000000008000000000000000800B0B0B0B0B110E0D737472696E675F6174747269620E0B6E616D655F6174747269620E0367656E0D066174747269620CFFFFFFFF04FFFFFF
310
FF0CFFFFFFFF0CFFFFFFFF0C050000001502000000150100000015010000001502000000070F4154545249425F58414349535F4944070436323236110E03456E640E026F660E0341534D0D0464617461
  0
ACDSRECORD
 90
        1
  2
AcDbDs::ID
280
    10
320
1AF
  2
ASM_Data
280
    15
 94
    11143
310
414349532042696E61727946696C652855000000000000020000000C00000007214F70656E2044657369676E20416C6C69616E63652041434953204275696C646572070E41434953203231382E3030204E540718536174204A756C2030382032323A35343A3532203230313706000000000000F03F068DEDB5A0F7C6B03E06
310
BBBDD7D9DF7CDB3D0D0961736D6865616465720CFFFFFFFF04FFFFFFFF070C3230382E302E342E37303039110D04626F64790C0200000004FFFFFFFF0CFFFFFFFF0C030000000CFFFFFFFF0CFFFFFFFF110E0D737472696E675F6174747269620E0B6E616D655F6174747269620E0367656E0D066174747269620CFFFFFFFF
310
04FFFFFFFF0CFFFFFFFF0CFFFFFFFF0C01000000150200000015010000001501000000150200000007114154545249425F58414349535F4E414D45070D5F36303135204D5F5041525432110D046C756D700CFFFFFFFF04FFFFFFFF0CFFFFFFFF0CFFFFFFFF0C040000000C01000000110D057368656C6C0CFFFFFFFF04FFFF
310
FFFF0CFFFFFFFF0CFFFFFFFF0CFFFFFFFF0C050000000CFFFFFFFF0C03000000110D04666163650C0E00000004FFFFFFFF0CFFFFFFFF0C060000000C070000000C040000000CFFFFFFFF0C080000000B0B110D04666163650C1700000004FFFFFFFF0CFFFFFFFF0C090000000C0A0000000C040000000CFFFFFFFF0C0B0000
310
000A0B110D046C6F6F700CFFFFFFFF04FFFFFFFF0CFFFFFFFF0C0C0000000C0D0000000C05000000110E05706C616E650D07737572666163650CFFFFFFFF04FFFFFFFF0CFFFFFFFF13000000000094E1BC3333333333334C40000000000000000014000000000000F0BF000000000000000000000000000000001400000000
310
0000000000000000000000000000000000408F400B0B0B0B0B110D04666163650C2200000004FFFFFFFF0CFFFFFFFF0C0F0000000C100000000C040000000CFFFFFFFF0C110000000A0B110D046C6F6F700CFFFFFFFF04FFFFFFFF0CFFFFFFFF0C120000000C130000000C06000000110E04636F6E650D0773757266616365
310
0CFFFFFFFF04FFFFFFFF0CFFFFFFFF1300000000000049400000000000000000000000000000000014000000000000F0BF0000000000000080000000000000000014000000000000008000000000000000009A99999999394AC006000000000000F03F0B0B06000000000000008006000000000000F03F069A99999999394A
310
400B0B0B0B0B110D046C6F6F700CFFFFFFFF04FFFFFFFF0CFFFFFFFF0CFFFFFFFF0C140000000C05000000110D06636F656467650CFFFFFFFF04FFFFFFFF0CFFFFFFFF0C0D0000000C0D0000000C150000000C160000000B0C0700000004000000000CFFFFFFFF110E0D737472696E675F6174747269620E0B6E616D655F61
310
74747269620E0367656E0D066174747269620CFFFFFFFF04FFFFFFFF0CFFFFFFFF0CFFFFFFFF0C050000001502000000150100000015010000001502000000070F4154545249425F58414349535F4944070436323334110D04666163650C2F00000004FFFFFFFF0CFFFFFFFF0C180000000C190000000C040000000CFFFFFF
310
FF0C1A0000000A0B110D046C6F6F700CFFFFFFFF04FFFFFFFF0CFFFFFFFF0C1B0000000C1C0000000C09000000110E05746F7275730D07737572666163650CFFFFFFFF04FFFFFFFF0CFFFFFFFF13AE47E17A14AEEF3F0000000000000000000000000000000014000000000000F03F00000000000000000000000000000080
310
069999999999394A40061F85EB51B81EE53F1400000000000000800000000000000000000000000000F0BF0B0B0B0B0B110D046C6F6F700CFFFFFFFF04FFFFFFFF0CFFFFFFFF0CFFFFFFFF0C150000000C06000000110D06636F656467650CFFFFFFFF04FFFFFFFF0CFFFFFFFF0C130000000C130000000C1C0000000C1D00
310
00000B0C0A00000004000000000CFFFFFFFF110D06636F656467650CFFFFFFFF04FFFFFFFF0CFFFFFFFF0C140000000C140000000C1E0000000C1F0000000A0C0C00000004000000000CFFFFFFFF110D06636F656467650CFFFFFFFF04FFFFFFFF0CFFFFFFFF0C150000000C150000000C0D0000000C160000000A0C120000
310
0004000000000CFFFFFFFF110D04656467650CFFFFFFFF04FFFFFFFF0CFFFFFFFF0C200000000600000000000000000C2000000006182D4454FB2119400C0D0000000C210000000B0707756E6B6E6F776E110E0D737472696E675F6174747269620E0B6E616D655F6174747269620E0367656E0D066174747269620CFFFFFF
310
FF04FFFFFFFF0CFFFFFFFF0CFFFFFFFF0C060000001502000000150100000015010000001502000000070F4154545249425F58414349535F4944070436323331110D04666163650C3D00000004FFFFFFFF0CFFFFFFFF0C230000000C240000000C040000000CFFFFFFFF0C250000000A0B110D046C6F6F700CFFFFFFFF04FF
310
FFFFFF0CFFFFFFFF0C260000000C270000000C0F000000110E04636F6E650D07737572666163650CFFFFFFFF04FFFFFFFF0CFFFFFFFF13606666666666FA3F0000000000000000000000000000000014000000000000F03F000000000000008000000000000000001400000000000000000000000000000000999999999939
310
4A4006000000000000F03F0B0B06191C818C8B83EFBF066D730B7E1A3AC63F069999999999394A400B0B0B0B0B110D046C6F6F700CFFFFFFFF04FFFFFFFF0CFFFFFFFF0CFFFFFFFF0C280000000C09000000110D06636F656467650CFFFFFFFF04FFFFFFFF0CFFFFFFFF0C1C0000000C1C0000000C130000000C1D0000000A
310
0C1000000004000000000CFFFFFFFF110D04656467650CFFFFFFFF04FFFFFFFF0CFFFFFFFF0C290000000600000000000000000C2900000006182D4454FB2119400C130000000C2A0000000B0707756E6B6E6F776E110D06636F656467650CFFFFFFFF04FFFFFFFF0CFFFFFFFF0C1E0000000C1E0000000C140000000C1F00
310
00000B0C2B00000004000000000CFFFFFFFF110D04656467650CFFFFFFFF04FFFFFFFF0CFFFFFFFF0C2C0000000600000000000000000C2C00000006182D4454FB2119400C1E0000000C2D0000000B0707756E6B6E6F776E110D067665727465780CFFFFFFFF04FFFFFFFF0CFFFFFFFF0C1600000004020000000C2E000000
310
110E07656C6C697073650D0563757276650CFFFFFFFF04FFFFFFFF0CFFFFFFFF1300000000000000000000000000000000000000000000000014000000000000F03F0000000000000000000000000000008014000000000000008000000000000000009A99999999394AC006000000000000F03F0B0B110E0D737472696E67
310
5F6174747269620E0B6E616D655F6174747269620E0367656E0D066174747269620CFFFFFFFF04FFFFFFFF0CFFFFFFFF0CFFFFFFFF0C090000001502000000150100000015010000001502000000070F4154545249425F58414349535F4944070436323330110D04666163650C4A00000004FFFFFFFF0CFFFFFFFF0C300000
310
000C310000000C040000000CFFFFFFFF0C320000000A0B110D046C6F6F700CFFFFFFFF04FFFFFFFF0CFFFFFFFF0C330000000C340000000C18000000110E04636F6E650D07737572666163650CFFFFFFFF04FFFFFFFF0CFFFFFFFF1300000000000049400000000000000000000000000000000014000000000000F0BF0000
310
000000000080000000000000000014000000000000008000000000000000009A999999998949C006000000000000F03F0B0B06000000000000008006000000000000F03F069A999999998949400B0B0B0B0B110D046C6F6F700CFFFFFFFF04FFFFFFFF0CFFFFFFFF0CFFFFFFFF0C350000000C0F000000110D06636F656467
310
650CFFFFFFFF04FFFFFFFF0CFFFFFFFF0C270000000C270000000C360000000C370000000B0C1900000004000000000CFFFFFFFF110D06636F656467650CFFFFFFFF04FFFFFFFF0CFFFFFFFF0C280000000C280000000C350000000C380000000B0C1B00000004000000000CFFFFFFFF110D067665727465780CFFFFFFFF04
310
FFFFFFFF0CFFFFFFFF0C1D00000004020000000C39000000110E07656C6C697073650D0563757276650CFFFFFFFF04FFFFFFFF0CFFFFFFFF13E884EB51B81ED53F0000000000000000000000000000000014000000000000F03F0000000000000000000000000000008014000000000000008000000000000000009A999999
310
99394AC006000000000000F03F0B0B110D046C6F6F700CFFFFFFFF04FFFFFFFF0CFFFFFFFF0C3A0000000C1E0000000C3B000000110D067665727465780CFFFFFFFF04FFFFFFFF0CFFFFFFFF0C1F00000004020000000C3C000000110E07656C6C697073650D0563757276650CFFFFFFFF04FFFFFFFF0CFFFFFFFF13000000
310
000040FFBC0000000000000000000000000000000014000000000000F03F0000000000000000000000000000008014000000000000008000000000000000003433333333334CC006000000000000F03F0B0B110D05706F696E740CFFFFFFFF04FFFFFFFF0CFFFFFFFF13000000000000000000000000000000009A99999999
310
394AC0110E0D737472696E675F6174747269620E0B6E616D655F6174747269620E0367656E0D066174747269620CFFFFFFFF04FFFFFFFF0CFFFFFFFF0CFFFFFFFF0C0F0000001502000000150100000015010000001502000000070F4154545249425F58414349535F4944070436323332110D04666163650C5700000004FF
310
FFFFFF0CFFFFFFFF0C3E0000000C3F0000000C040000000CFFFFFFFF0C400000000A0B110D046C6F6F700CFFFFFFFF04FFFFFFFF0CFFFFFFFF0C410000000C420000000C23000000110E05746F7275730D07737572666163650CFFFFFFFF04FFFFFFFF0CFFFFFFFF1300000000000024400000000000000000000000000000
310
000014000000000000F03F00000000000000000000000000000080060200000000C0474006135A643BDFCF17401400000000000000800000000000000000000000000000F0BF0B0B0B0B0B110D046C6F6F700CFFFFFFFF04FFFFFFFF0CFFFFFFFF0CFFFFFFFF0C360000000C18000000110D06636F656467650CFFFFFFFF04
310
FFFFFFFF0CFFFFFFFF0C340000000C340000000C420000000C430000000B0C2400000004000000000CFFFFFFFF110D06636F656467650CFFFFFFFF04FFFFFFFF0CFFFFFFFF0C350000000C350000000C280000000C380000000A0C2600000004000000000CFFFFFFFF110D06636F656467650CFFFFFFFF04FFFFFFFF0CFFFF
310
FFFF0C360000000C360000000C270000000C370000000A0C3300000004000000000CFFFFFFFF110D04656467650CFFFFFFFF04FFFFFFFF0CFFFFFFFF0C440000000600000000000000000C4400000006182D4454FB2119400C270000000C450000000B0707756E6B6E6F776E110D04656467650CFFFFFFFF04FFFFFFFF0CFF
310
FFFFFF0C460000000600000000000000000C4600000006182D4454FB2119400C280000000C470000000B0707756E6B6E6F776E110D05706F696E740CFFFFFFFF04FFFFFFFF0CFFFFFFFF13E884EB51B81ED53F00000000000000009A99999999394AC0110D046C6F6F700CFFFFFFFF04FFFFFFFF0CFFFFFFFF0CFFFFFFFF0C
310
480000000C3B000000110D04666163650C6500000004FFFFFFFF0CFFFFFFFF0CFFFFFFFF0C2B0000000C040000000CFFFFFFFF0C490000000B0B110D05706F696E740CFFFFFFFF04FFFFFFFF0CFFFFFFFF13000000000040FFBC00000000000000003433333333334CC0110E0D737472696E675F6174747269620E0B6E616D
310
655F6174747269620E0367656E0D066174747269620CFFFFFFFF04FFFFFFFF0CFFFFFFFF0CFFFFFFFF0C180000001502000000150100000015010000001502000000070F4154545249425F58414349535F4944070436323237110D04666163650C6600000004FFFFFFFF0CFFFFFFFF0C4B0000000C4C0000000C040000000C
310
FFFFFFFF0C4D0000000A0B110D046C6F6F700CFFFFFFFF04FFFFFFFF0CFFFFFFFF0C4E0000000C4F0000000C30000000110E04636F6E650D07737572666163650CFFFFFFFF04FFFFFFFF0CFFFFFFFF1300000000000049400000000000000000000000000000000014000000000000F0BF0000000000000080000000000000
310
000014000000000000008000000000000000009A999999998949C006000000000000F03F0B0B06000000000000008006000000000000F03F069A999999998949400B0B0B0B0B110D046C6F6F700CFFFFFFFF04FFFFFFFF0CFFFFFFFF0CFFFFFFFF0C500000000C23000000110D06636F656467650CFFFFFFFF04FFFFFFFF0C
310
FFFFFFFF0C420000000C420000000C340000000C430000000A0C3100000004000000000CFFFFFFFF110D04656467650CFFFFFFFF04FFFFFFFF0CFFFFFFFF0C510000000600000000000000000C5100000006182D4454FB2119400C340000000C520000000B0707756E6B6E6F776E110D067665727465780CFFFFFFFF04FFFF
310
FFFF0CFFFFFFFF0C3700000004020000000C53000000110E07656C6C697073650D0563757276650CFFFFFFFF04FFFFFFFF0CFFFFFFFF135A65EC3A7947FE3F0000000000000000000000000000000014000000000000F03F0000000000000000000000000000008014000000000000008000000000000000009A9999999989
310
49C006000000000000F03F0B0B110D067665727465780CFFFFFFFF04FFFFFFFF0CFFFFFFFF0C3800000004020000000C54000000110E07656C6C697073650D0563757276650CFFFFFFFF04FFFFFFFF0CFFFFFFFF13606666666666FA3F0000000000000000000000000000000014000000000000F03F000000000000000000
310
0000000000008014000000000000008000000000000000009999999999394AC006000000000000F03F0B0B110D06636F656467650CFFFFFFFF04FFFFFFFF0CFFFFFFFF0C480000000C480000000C550000000C560000000A0C3A00000004000000000CFFFFFFFF110E05746F7275730D07737572666163650CFFFFFFFF04FF
310
FFFFFF0CFFFFFFFF137A9999999999F13F0000000000000000000000000000000014000000000000F03F00000000000000000000000000000080063433333333334C40068B9999999999F13F1400000000000000800000000000000000000000000000F0BF0B0B0B0B0B110E0D737472696E675F6174747269620E0B6E616D
310
655F6174747269620E0367656E0D066174747269620CFFFFFFFF04FFFFFFFF0CFFFFFFFF0CFFFFFFFF0C230000001502000000150100000015010000001502000000070F4154545249425F58414349535F4944070436323430110D04666163650C7400000004FFFFFFFF0CFFFFFFFF0C580000000C590000000C040000000C
310
FFFFFFFF0C5A0000000A0B110D046C6F6F700CFFFFFFFF04FFFFFFFF0CFFFFFFFF0C5B0000000C5C0000000C3E000000110E04636F6E650D07737572666163650CFFFFFFFF04FFFFFFFF0CFFFFFFFF13A939516C881B32400000000000000000000000000000000014000000000000F0BF0000000000000000000000000000
310
000014000000000000008000000000000000009A999999998949C006000000000000F03F0B0B06181C818C8B83EFBF067D730B7E1A3AC63F069A999999998949400B0B0B0B0B110D046C6F6F700CFFFFFFFF04FFFFFFFF0CFFFFFFFF0CFFFFFFFF0C5D0000000C30000000110D06636F656467650CFFFFFFFF04FFFFFFFF0C
310
FFFFFFFF0C4F0000000C4F0000000C5E0000000C5F0000000B0C3F00000004000000000CFFFFFFFF110D06636F656467650CFFFFFFFF04FFFFFFFF0CFFFFFFFF0C500000000C500000000C5D0000000C600000000B0C4100000004000000000CFFFFFFFF110D067665727465780CFFFFFFFF04FFFFFFFF0CFFFFFFFF0C4300
310
000004020000000C61000000110E07656C6C697073650D0563757276650CFFFFFFFF04FFFFFFFF0CFFFFFFFF1316E52500C3F514400000000000000000000000000000000014000000000000F03F0000000000000000000000000000008014000000000000008000000000000000009A999999998949C006000000000000F0
310
3F0B0B110D05706F696E740CFFFFFFFF04FFFFFFFF0CFFFFFFFF135A65EC3A7947FE3F00000000000000009A999999998949C0110D05706F696E740CFFFFFFFF04FFFFFFFF0CFFFFFFFF13606666666666FA3F00000000000000009999999999394AC0110D06636F656467650CFFFFFFFF04FFFFFFFF0CFFFFFFFF0C550000
310
000C550000000C480000000C560000000B0C6200000004000000000CFFFFFFFF110D04656467650CFFFFFFFF04FFFFFFFF0CFFFFFFFF0C630000000600000000000000000C6300000006182D4454FB2119400C550000000C640000000B0707756E6B6E6F776E110E0D737472696E675F6174747269620E0B6E616D655F6174
310
747269620E0367656E0D066174747269620CFFFFFFFF04FFFFFFFF0CFFFFFFFF0CFFFFFFFF0C300000001502000000150100000015010000001502000000070F4154545249425F58414349535F4944070436323339110D04666163650C8100000004FFFFFFFF0CFFFFFFFF0C670000000C680000000C040000000CFFFFFFFF
310
0C690000000A0B110D046C6F6F700CFFFFFFFF04FFFFFFFF0CFFFFFFFF0C6A0000000C6B0000000C4B000000110E05746F7275730D07737572666163650CFFFFFFFF04FFFFFFFF0CFFFFFFFF13C3F5285C8F0233400000000000000000000000000000000014000000000000F03F0000000000000000000000000000008006
310
9999999999394A40062685EB51B81EE53F1400000000000000800000000000000000000000000000F0BF0B0B0B0B0B110D046C6F6F700CFFFFFFFF04FFFFFFFF0CFFFFFFFF0CFFFFFFFF0C5E0000000C3E000000110D06636F656467650CFFFFFFFF04FFFFFFFF0CFFFFFFFF0C5C0000000C5C0000000C6B0000000C6C0000
310
000B0C4C00000004000000000CFFFFFFFF110D06636F656467650CFFFFFFFF04FFFFFFFF0CFFFFFFFF0C5D0000000C5D0000000C500000000C600000000A0C4E00000004000000000CFFFFFFFF110D06636F656467650CFFFFFFFF04FFFFFFFF0CFFFFFFFF0C5E0000000C5E0000000C4F0000000C5F0000000A0C5B000000
310
04000000000CFFFFFFFF110D04656467650CFFFFFFFF04FFFFFFFF0CFFFFFFFF0C6D0000000600000000000000000C6D00000006182D4454FB2119400C4F0000000C6E0000000B0707756E6B6E6F776E110D04656467650CFFFFFFFF04FFFFFFFF0CFFFFFFFF0C6F0000000600000000000000000C6F00000006182D4454FB
310
2119400C500000000C700000000B0707756E6B6E6F776E110D05706F696E740CFFFFFFFF04FFFFFFFF0CFFFFFFFF1316E52500C3F5144000000000000000009A999999998949C0110D046C6F6F700CFFFFFFFF04FFFFFFFF0CFFFFFFFF0C710000000C550000000C72000000110D067665727465780CFFFFFFFF04FFFFFFFF
310
0CFFFFFFFF0C5600000004020000000C73000000110E07656C6C697073650D0563757276650CFFFFFFFF04FFFFFFFF0CFFFFFFFF13AA9999999999F13F0000000000000000000000000000000014000000000000F03F0000000000000000000000000000008014000000000000008000000000000000000000000000C04CC0
310
06000000000000F03F0B0B110E0D737472696E675F6174747269620E0B6E616D655F6174747269620E0367656E0D066174747269620CFFFFFFFF04FFFFFFFF0CFFFFFFFF0CFFFFFFFF0C3B0000001502000000150100000015010000001502000000070F4154545249425F58414349535F4944070436323335110E0D737472
310
696E675F6174747269620E0B6E616D655F6174747269620E0367656E0D066174747269620CFFFFFFFF04FFFFFFFF0CFFFFFFFF0CFFFFFFFF0C3E0000001502000000150100000015010000001502000000070F4154545249425F58414349535F4944070436323336110D04666163650C8D00000004FFFFFFFF0CFFFFFFFF0C
310
750000000C760000000C040000000CFFFFFFFF0C770000000B0B110D046C6F6F700CFFFFFFFF04FFFFFFFF0CFFFFFFFF0C780000000C790000000C58000000110E04636F6E650D07737572666163650CFFFFFFFF04FFFFFFFF0CFFFFFFFF1300000000000049400000000000000000000000000000000014000000000000F0
310
BF0000000000000080000000000000000014000000000000008000000000000000009999999999394AC006000000000000F03F0B0B06000000000000008006000000000000F03F069999999999394A400B0B0B0B0B110D046C6F6F700CFFFFFFFF04FFFFFFFF0CFFFFFFFF0CFFFFFFFF0C7A0000000C4B000000110D06636F
310
656467650CFFFFFFFF04FFFFFFFF0CFFFFFFFF0C6B0000000C6B0000000C5C0000000C6C0000000A0C5900000004000000000CFFFFFFFF110D04656467650CFFFFFFFF04FFFFFFFF0CFFFFFFFF0C7B0000000600000000000000000C7B00000006182D4454FB2119400C5C0000000C7C0000000B0707756E6B6E6F776E110D
310
067665727465780CFFFFFFFF04FFFFFFFF0CFFFFFFFF0C5F00000004020000000C7D000000110E07656C6C697073650D0563757276650CFFFFFFFF04FFFFFFFF0CFFFFFFFF13A939516C881B32400000000000000000000000000000000014000000000000F03F000000000000000000000000000000801400000000000000
310
8000000000000000009A999999998949C006000000000000F03F0B0B110D067665727465780CFFFFFFFF04FFFFFFFF0CFFFFFFFF0C6000000004020000000C7E000000110E07656C6C697073650D0563757276650CFFFFFFFF04FFFFFFFF0CFFFFFFFF13770DED7F1E852D4000000000000000000000000000000000140000
310
00000000F03F0000000000000000000000000000008014000000000000008000000000000000009A999999998949C006000000000000F03F0B0B110D046C6F6F700CFFFFFFFF04FFFFFFFF0CFFFFFFFF0CFFFFFFFF0C7F0000000C72000000110D04666163650C9700000004FFFFFFFF0CFFFFFFFF0C3B0000000C62000000
310
0C040000000CFFFFFFFF0C800000000B0B110D05706F696E740CFFFFFFFF04FFFFFFFF0CFFFFFFFF13AA9999999999F13F00000000000000000000000000C04CC0110E0D737472696E675F6174747269620E0B6E616D655F6174747269620E0367656E0D066174747269620CFFFFFFFF04FFFFFFFF0CFFFFFFFF0CFFFFFFFF
310
0C4B0000001502000000150100000015010000001502000000070F4154545249425F58414349535F4944070436323239110D04666163650C9800000004FFFFFFFF0CFFFFFFFF0C720000000C820000000C040000000CFFFFFFFF0C830000000B0B110D046C6F6F700CFFFFFFFF04FFFFFFFF0CFFFFFFFF0C840000000C8500
310
00000C67000000110E05706C616E650D07737572666163650CFFFFFFFF04FFFFFFFF0CFFFFFFFF1300000000000034409A99999999394A40000000000000000014000000000000F03F0000000000000000000000000000008014000000000000008000000000000000000000000000408FC00B0B0B0B0B110D046C6F6F700C
310
FFFFFFFF04FFFFFFFF0CFFFFFFFF0CFFFFFFFF0C860000000C58000000110D06636F656467650CFFFFFFFF04FFFFFFFF0CFFFFFFFF0C790000000C790000000C870000000C880000000B0C6800000004000000000CFFFFFFFF110D06636F656467650CFFFFFFFF04FFFFFFFF0CFFFFFFFF0C7A0000000C7A0000000C860000
310
000C890000000B0C6A00000004000000000CFFFFFFFF110D067665727465780CFFFFFFFF04FFFFFFFF0CFFFFFFFF0C6C00000004020000000C8A000000110E07656C6C697073650D0563757276650CFFFFFFFF04FFFFFFFF0CFFFFFFFF139B999999995932400000000000000000000000000000000014000000000000F03F
310
0000000000000000000000000000008014000000000000008000000000000000009E99999999394AC006000000000000F03F0B0B110D05706F696E740CFFFFFFFF04FFFFFFFF0CFFFFFFFF13A939516C881B324000000000000000009A999999998949C0110D05706F696E740CFFFFFFFF04FFFFFFFF0CFFFFFFFF13770DED
310
7F1E852D4000000000000000009A999999998949C0110D06636F656467650CFFFFFFFF04FFFFFFFF0CFFFFFFFF0C7F0000000C7F0000000C8B0000000C8C0000000A0C7100000004000000000CFFFFFFFF110E04636F6E650D07737572666163650CFFFFFFFF04FFFFFFFF0CFFFFFFFF130000000000004940000000000000
310
0000000000000000000014000000000000F0BF0000000000000080000000000000000014000000000000008000000000000000000000000000C04CC006000000000000F03F0B0B06000000000000008006000000000000F03F060000000000C04C400B0B0B0B0B110E0D737472696E675F6174747269620E0B6E616D655F61
310
74747269620E0367656E0D066174747269620CFFFFFFFF04FFFFFFFF0CFFFFFFFF0CFFFFFFFF0C580000001502000000150100000015010000001502000000070F4154545249425F58414349535F4944070436323238110D046C6F6F700CFFFFFFFF04FFFFFFFF0CFFFFFFFF0C8E0000000C8B0000000C75000000110E0574
310
6F7275730D07737572666163650CFFFFFFFF04FFFFFFFF0CFFFFFFFF136566666666E632400000000000000000000000000000000014000000000000F03F00000000000000000000000000000080063333333333334C4006AA9999999999F13F1400000000000000800000000000000000000000000000F0BF0B0B0B0B0B11
310
0D046C6F6F700CFFFFFFFF04FFFFFFFF0CFFFFFFFF0CFFFFFFFF0C870000000C67000000110D06636F656467650CFFFFFFFF04FFFFFFFF0CFFFFFFFF0C850000000C850000000C8F0000000C900000000B0C7600000004000000000CFFFFFFFF110D06636F656467650CFFFFFFFF04FFFFFFFF0CFFFFFFFF0C860000000C86
310
0000000C7A0000000C890000000A0C7800000004000000000CFFFFFFFF110D06636F656467650CFFFFFFFF04FFFFFFFF0CFFFFFFFF0C870000000C870000000C790000000C880000000A0C8400000004000000000CFFFFFFFF110D04656467650CFFFFFFFF04FFFFFFFF0CFFFFFFFF0C910000000600000000000000000C91
310
00000006182D4454FB2119400C790000000C920000000B0707756E6B6E6F776E110D04656467650CFFFFFFFF04FFFFFFFF0CFFFFFFFF0C930000000600000000000000000C9300000006182D4454FB2119400C7A0000000C940000000B0707756E6B6E6F776E110D05706F696E740CFFFFFFFF04FFFFFFFF0CFFFFFFFF139B
310
9999999959324000000000000000009E99999999394AC0110D06636F656467650CFFFFFFFF04FFFFFFFF0CFFFFFFFF0C8B0000000C8B0000000C7F0000000C8C0000000B0C8200000004000000000CFFFFFFFF110D04656467650CFFFFFFFF04FFFFFFFF0CFFFFFFFF0C950000000600000000000000000C9500000006182D
310
4454FB2119400C8B0000000C960000000B0707756E6B6E6F776E110E0D737472696E675F6174747269620E0B6E616D655F6174747269620E0367656E0D066174747269620CFFFFFFFF04FFFFFFFF0CFFFFFFFF0CFFFFFFFF0C670000001502000000150100000015010000001502000000070F4154545249425F5841434953
310
5F4944070436323337110D046C6F6F700CFFFFFFFF04FFFFFFFF0CFFFFFFFF0CFFFFFFFF0C8F0000000C75000000110D06636F656467650CFFFFFFFF04FFFFFFFF0CFFFFFFFF0C8F0000000C8F0000000C850000000C900000000A0C8E00000004000000000CFFFFFFFF110D04656467650CFFFFFFFF04FFFFFFFF0CFFFFFF
310
FF0C990000000600000000000000000C9900000006182D4454FB2119400C850000000C9A0000000B0707756E6B6E6F776E110D067665727465780CFFFFFFFF04FFFFFFFF0CFFFFFFFF0C8800000004020000000C9B000000110E07656C6C697073650D0563757276650CFFFFFFFF04FFFFFFFF0CFFFFFFFF13000000000000
310
34400000000000000000000000000000000014000000000000F03F0000000000000000000000000000008014000000000000008000000000000000009A99999999394AC006000000000000F03F0B0B110D067665727465780CFFFFFFFF04FFFFFFFF0CFFFFFFFF0C8900000004020000000C9C000000110E07656C6C697073
310
650D0563757276650CFFFFFFFF04FFFFFFFF0CFFFFFFFF13EC51B81E85AB33400000000000000000000000000000000014000000000000F03F0000000000000000000000000000008014000000000000008000000000000000009999999999394AC006000000000000F03F0B0B110D067665727465780CFFFFFFFF04FFFFFF
310
FF0CFFFFFFFF0C8C00000004020000000C9D000000110E07656C6C697073650D0563757276650CFFFFFFFF04FFFFFFFF0CFFFFFFFF136566666666E632400000000000000000000000000000000014000000000000F03F0000000000000000000000000000008014000000000000008000000000000000000000000000C04C
310
C006000000000000F03F0B0B110E0D737472696E675F6174747269620E0B6E616D655F6174747269620E0367656E0D066174747269620CFFFFFFFF04FFFFFFFF0CFFFFFFFF0CFFFFFFFF0C720000001502000000150100000015010000001502000000070F4154545249425F58414349535F4944070436323333110E0D7374
310
72696E675F6174747269620E0B6E616D655F6174747269620E0367656E0D066174747269620CFFFFFFFF04FFFFFFFF0CFFFFFFFF0CFFFFFFFF0C750000001502000000150100000015010000001502000000070F4154545249425F58414349535F4944070436323338110D067665727465780CFFFFFFFF04FFFFFFFF0CFFFF
310
FFFF0C9000000004020000000C9E000000110E07656C6C697073650D0563757276650CFFFFFFFF04FFFFFFFF0CFFFFFFFF1300000000000034400000000000000000000000000000000014000000000000F03F0000000000000000000000000000008014000000000000008000000000000000003333333333334CC0060000
310
00000000F03F0B0B110D05706F696E740CFFFFFFFF04FFFFFFFF0CFFFFFFFF13000000000000344000000000000000009A99999999394AC0110D05706F696E740CFFFFFFFF04FFFFFFFF0CFFFFFFFF13EC51B81E85AB334000000000000000009999999999394AC0110D05706F696E740CFFFFFFFF04FFFFFFFF0CFFFFFFFF
310
136566666666E6324000000000000000000000000000C04CC0110D05706F696E740CFFFFFFFF04FFFFFFFF0CFFFFFFFF13000000000000344000000000000000003333333333334CC0110E03456E640E026F660E0341534D0D0464617461
  0
ACDSRECORD
 90
        1
  2
AcDbDs::ID
280
    10
320
1C3
  2
ASM_Data
280
    15
 94
     6519
310
414349532042696E61727946696C652855000000000000020000000C00000007214F70656E2044657369676E20416C6C69616E63652041434953204275696C646572070E41434953203231382E3030204E540718536174204A756C2030382032323A35343A3532203230313706000000000000F03F068DEDB5A0F7C6B03E06
310
BBBDD7D9DF7CDB3D0D0961736D6865616465720CFFFFFFFF04FFFFFFFF070C3230382E302E342E37303039110D04626F64790C0200000004FFFFFFFF0CFFFFFFFF0C030000000CFFFFFFFF0CFFFFFFFF110E0D737472696E675F6174747269620E0B6E616D655F6174747269620E0367656E0D066174747269620CFFFFFFFF
310
04FFFFFFFF0CFFFFFFFF0CFFFFFFFF0C01000000150200000015010000001501000000150200000007114154545249425F58414349535F4E414D45070D5F36303135204D5F5041525431110D046C756D700CFFFFFFFF04FFFFFFFF0CFFFFFFFF0CFFFFFFFF0C040000000C01000000110D057368656C6C0CFFFFFFFF04FFFF
310
FFFF0CFFFFFFFF0CFFFFFFFF0CFFFFFFFF0C050000000CFFFFFFFF0C03000000110D04666163650C0E00000004FFFFFFFF0CFFFFFFFF0C060000000C070000000C040000000CFFFFFFFF0C080000000B0B110D04666163650C1700000004FFFFFFFF0CFFFFFFFF0C090000000C0A0000000C040000000CFFFFFFFF0C0B0000
310
000B0B110D046C6F6F700CFFFFFFFF04FFFFFFFF0CFFFFFFFF0C0C0000000C0D0000000C05000000110E05706C616E650D07737572666163650CFFFFFFFF04FFFFFFFF0CFFFFFFFF1300000000000000006666666666F64540000000000000000014000000000000F0BF000000000000000000000000000000001400000000
310
0000000000000000000000000000000000408F400B0B0B0B0B110D04666163650C2300000004FFFFFFFF0CFFFFFFFF0C0F0000000C100000000C040000000CFFFFFFFF0C110000000A0B110D046C6F6F700CFFFFFFFF04FFFFFFFF0CFFFFFFFF0C120000000C130000000C06000000110E05746F7275730D07737572666163
310
650CFFFFFFFF04FFFFFFFF0CFFFFFFFF13779999999999F13F0000000000000000000000000000000014000000000000F03F0000000000000000000000000000008006CCCCCCCCCC4C434006779999999999F13F1400000000000000800000000000000000000000000000F0BF0B0B0B0B0B110D046C6F6F700CFFFFFFFF04
310
FFFFFFFF0CFFFFFFFF0CFFFFFFFF0C140000000C05000000110D06636F656467650CFFFFFFFF04FFFFFFFF0CFFFFFFFF0C0D0000000C0D0000000C150000000C160000000B0C0700000004000000000CFFFFFFFF110E0D737472696E675F6174747269620E0B6E616D655F6174747269620E0367656E0D066174747269620C
310
FFFFFFFF04FFFFFFFF0CFFFFFFFF0CFFFFFFFF0C050000001502000000150100000015010000001502000000070F4154545249425F58414349535F4944070436323436110D04666163650C3100000004FFFFFFFF0CFFFFFFFF0C180000000C190000000C040000000CFFFFFFFF0C1A0000000B0B110D046C6F6F700CFFFFFF
310
FF04FFFFFFFF0CFFFFFFFF0C1B0000000C1C0000000C09000000110E04636F6E650D07737572666163650CFFFFFFFF04FFFFFFFF0CFFFFFFFF1300000000000049400000000000000000000000000000000014000000000000F0BF000000000000008000000000000000001400000000000000800000000000000000010000
310
0000C042C006000000000000F03F0B0B06000000000000008006000000000000F03F060100000000C042400B0B0B0B0B110D046C6F6F700CFFFFFFFF04FFFFFFFF0CFFFFFFFF0CFFFFFFFF0C150000000C06000000110D06636F656467650CFFFFFFFF04FFFFFFFF0CFFFFFFFF0C130000000C130000000C1D0000000C1E00
310
00000B0C0A00000004000000000CFFFFFFFF110D06636F656467650CFFFFFFFF04FFFFFFFF0CFFFFFFFF0C140000000C140000000C1F0000000C200000000A0C0C00000004000000000CFFFFFFFF110D06636F656467650CFFFFFFFF04FFFFFFFF0CFFFFFFFF0C150000000C150000000C0D0000000C160000000A0C120000
310
0004000000000CFFFFFFFF110D04656467650CFFFFFFFF04FFFFFFFF0CFFFFFFFF0C210000000600000000000000000C2100000006182D4454FB2119400C0D0000000C220000000B0707756E6B6E6F776E110E0D737472696E675F6174747269620E0B6E616D655F6174747269620E0367656E0D066174747269620CFFFFFF
310
FF04FFFFFFFF0CFFFFFFFF0CFFFFFFFF0C060000001502000000150100000015010000001502000000070F4154545249425F58414349535F4944070436323431110D04666163650C3F00000004FFFFFFFF0CFFFFFFFF0C240000000C250000000C040000000CFFFFFFFF0C260000000B0B110D046C6F6F700CFFFFFFFF04FF
310
FFFFFF0CFFFFFFFF0C270000000C280000000C0F000000110E05746F7275730D07737572666163650CFFFFFFFF04FFFFFFFF0CFFFFFFFF136766666666E632400000000000000000000000000000000014000000000000F03F0000000000000000000000000000008006CCCCCCCCCC4C4340068B9999999999F13F14000000
310
00000000800000000000000000000000000000F0BF0B0B0B0B0B110D046C6F6F700CFFFFFFFF04FFFFFFFF0CFFFFFFFF0CFFFFFFFF0C1D0000000C09000000110D06636F656467650CFFFFFFFF04FFFFFFFF0CFFFFFFFF0C1C0000000C1C0000000C290000000C2A0000000B0C1000000004000000000CFFFFFFFF110D0663
310
6F656467650CFFFFFFFF04FFFFFFFF0CFFFFFFFF0C1D0000000C1D0000000C130000000C1E0000000A0C1B00000004000000000CFFFFFFFF110D04656467650CFFFFFFFF04FFFFFFFF0CFFFFFFFF0C2B0000000600000000000000000C2B00000006182D4454FB2119400C130000000C2C0000000B0707756E6B6E6F776E11
310
0D06636F656467650CFFFFFFFF04FFFFFFFF0CFFFFFFFF0C1F0000000C1F0000000C140000000C200000000B0C2D00000004000000000CFFFFFFFF110D04656467650CFFFFFFFF04FFFFFFFF0CFFFFFFFF0C2E0000000600000000000000000C2E00000006182D4454FB2119400C1F0000000C2F0000000B0707756E6B6E6F
310
776E110D067665727465780CFFFFFFFF04FFFFFFFF0CFFFFFFFF0C1600000004020000000C30000000110E07656C6C697073650D0563757276650CFFFFFFFF04FFFFFFFF0CFFFFFFFF1300000000000000000000000000000000000000000000000014000000000000F03F0000000000000000000000000000008014000000
310
00000000800000000000000000CCCCCCCCCC4C43C006000000000000F03F0B0B110E0D737472696E675F6174747269620E0B6E616D655F6174747269620E0367656E0D066174747269620CFFFFFFFF04FFFFFFFF0CFFFFFFFF0CFFFFFFFF0C090000001502000000150100000015010000001502000000070F415454524942
310
5F58414349535F4944070436323435110D04666163650C4B00000004FFFFFFFF0CFFFFFFFF0C320000000C330000000C040000000CFFFFFFFF0C340000000B0B110D046C6F6F700CFFFFFFFF04FFFFFFFF0CFFFFFFFF0C350000000C360000000C18000000110E05706C616E650D07737572666163650CFFFFFFFF04FFFFFF
310
FF0CFFFFFFFF130000000000003440CDCCCCCCCC4C4340000000000000000014000000000000F03F0000000000000000000000000000008014000000000000008000000000000000000000000000408FC00B0B0B0B0B110D046C6F6F700CFFFFFFFF04FFFFFFFF0CFFFFFFFF0CFFFFFFFF0C290000000C0F000000110D0663
310
6F656467650CFFFFFFFF04FFFFFFFF0CFFFFFFFF0C280000000C280000000C370000000C380000000B0C1900000004000000000CFFFFFFFF110D06636F656467650CFFFFFFFF04FFFFFFFF0CFFFFFFFF0C290000000C290000000C1C0000000C2A0000000A0C2700000004000000000CFFFFFFFF110D04656467650CFFFFFF
310
FF04FFFFFFFF0CFFFFFFFF0C390000000600000000000000000C3900000006182D4454FB2119400C1C0000000C3A0000000B0707756E6B6E6F776E110D067665727465780CFFFFFFFF04FFFFFFFF0CFFFFFFFF0C1E00000004020000000C3B000000110E07656C6C697073650D0563757276650CFFFFFFFF04FFFFFFFF0CFF
310
FFFFFF136C9999999999F13F0000000000000000000000000000000014000000000000F03F0000000000000000000000000000008014000000000000008000000000000000000100000000C042C006000000000000F03F0B0B110D046C6F6F700CFFFFFFFF04FFFFFFFF0CFFFFFFFF0C3C0000000C1F0000000C3D00000011
310
0D067665727465780CFFFFFFFF04FFFFFFFF0CFFFFFFFF0C2000000004020000000C3E000000110E07656C6C697073650D0563757276650CFFFFFFFF04FFFFFFFF0CFFFFFFFF1300000000000000000000000000000000000000000000000014000000000000F03F0000000000000000000000000000008014000000000000
310
008000000000000000006666666666F645C006000000000000F03F0B0B110D05706F696E740CFFFFFFFF04FFFFFFFF0CFFFFFFFF1300000000000000000000000000000000CCCCCCCCCC4C43C0110E0D737472696E675F6174747269620E0B6E616D655F6174747269620E0367656E0D066174747269620CFFFFFFFF04FFFF
310
FFFF0CFFFFFFFF0CFFFFFFFF0C0F0000001502000000150100000015010000001502000000070F4154545249425F58414349535F4944070436323432110D04666163650C5400000004FFFFFFFF0CFFFFFFFF0C3D0000000C400000000C040000000CFFFFFFFF0C410000000A0B110D046C6F6F700CFFFFFFFF04FFFFFFFF0C
310
FFFFFFFF0C420000000C430000000C24000000110E04636F6E650D07737572666163650CFFFFFFFF04FFFFFFFF0CFFFFFFFF1300000000000049400000000000000000000000000000000014000000000000F0BF0000000000000080000000000000000014000000000000008000000000000000006666666666F645C00600
310
0000000000F03F0B0B06000000000000008006000000000000F03F066666666666F645400B0B0B0B0B110D046C6F6F700CFFFFFFFF04FFFFFFFF0CFFFFFFFF0CFFFFFFFF0C370000000C18000000110D06636F656467650CFFFFFFFF04FFFFFFFF0CFFFFFFFF0C360000000C360000000C440000000C450000000B0C250000
310
0004000000000CFFFFFFFF110D06636F656467650CFFFFFFFF04FFFFFFFF0CFFFFFFFF0C370000000C370000000C280000000C380000000A0C3500000004000000000CFFFFFFFF110D04656467650CFFFFFFFF04FFFFFFFF0CFFFFFFFF0C460000000600000000000000000C4600000006182D4454FB2119400C280000000C
310
470000000B0707756E6B6E6F776E110D067665727465780CFFFFFFFF04FFFFFFFF0CFFFFFFFF0C2A00000004020000000C48000000110E07656C6C697073650D0563757276650CFFFFFFFF04FFFFFFFF0CFFFFFFFF136666666666E632400000000000000000000000000000000014000000000000F03F0000000000000000
310
000000000000008014000000000000008000000000000000000000000000C042C006000000000000F03F0B0B110D05706F696E740CFFFFFFFF04FFFFFFFF0CFFFFFFFF136C9999999999F13F00000000000000000100000000C042C0110D046C6F6F700CFFFFFFFF04FFFFFFFF0CFFFFFFFF0CFFFFFFFF0C490000000C3D00
310
0000110D04666163650C5A00000004FFFFFFFF0CFFFFFFFF0CFFFFFFFF0C2D0000000C040000000CFFFFFFFF0C4A0000000B0B110D05706F696E740CFFFFFFFF04FFFFFFFF0CFFFFFFFF13000000000000000000000000000000006666666666F645C0110E0D737472696E675F6174747269620E0B6E616D655F6174747269
310
620E0367656E0D066174747269620CFFFFFFFF04FFFFFFFF0CFFFFFFFF0CFFFFFFFF0C180000001502000000150100000015010000001502000000070F4154545249425F58414349535F4944070436323434110D046C6F6F700CFFFFFFFF04FFFFFFFF0CFFFFFFFF0C4C0000000C4D0000000C32000000110E05746F727573
310
0D07737572666163650CFFFFFFFF04FFFFFFFF0CFFFFFFFF1301000000000024400000000000000000000000000000000014000000000000F03F0000000000000000000000000000008006FFFFFFFFFFBF474006185A643BDFCF17401400000000000000800000000000000000000000000000F0BF0B0B0B0B0B110D046C6F
310
6F700CFFFFFFFF04FFFFFFFF0CFFFFFFFF0CFFFFFFFF0C440000000C24000000110D06636F656467650CFFFFFFFF04FFFFFFFF0CFFFFFFFF0C430000000C430000000C4D0000000C4E0000000B0C3300000004000000000CFFFFFFFF110D06636F656467650CFFFFFFFF04FFFFFFFF0CFFFFFFFF0C440000000C440000000C
310
360000000C450000000A0C4200000004000000000CFFFFFFFF110D04656467650CFFFFFFFF04FFFFFFFF0CFFFFFFFF0C4F0000000600000000000000000C4F00000006182D4454FB2119400C360000000C500000000B0707756E6B6E6F776E110D067665727465780CFFFFFFFF04FFFFFFFF0CFFFFFFFF0C38000000040200
310
00000C51000000110E07656C6C697073650D0563757276650CFFFFFFFF04FFFFFFFF0CFFFFFFFF1300000000000034400000000000000000000000000000000014000000000000F03F000000000000000000000000000000801400000000000000800000000000000000CCCCCCCCCC4C43C006000000000000F03F0B0B110D
310
05706F696E740CFFFFFFFF04FFFFFFFF0CFFFFFFFF136666666666E6324000000000000000000000000000C042C0110D06636F656467650CFFFFFFFF04FFFFFFFF0CFFFFFFFF0C490000000C490000000C520000000C530000000A0C3C00000004000000000CFFFFFFFF110E04636F6E650D07737572666163650CFFFFFFFF
310
04FFFFFFFF0CFFFFFFFF1300000000000049400000000000000000000000000000000014000000000000F0BF0000000000000080000000000000000014000000000000008000000000000000006666666666F645C006000000000000F03F0B0B06000000000000008006000000000000F03F066666666666F645400B0B0B0B
310
0B110E0D737472696E675F6174747269620E0B6E616D655F6174747269620E0367656E0D066174747269620CFFFFFFFF04FFFFFFFF0CFFFFFFFF0CFFFFFFFF0C240000001502000000150100000015010000001502000000070F4154545249425F58414349535F4944070436323438110D046C6F6F700CFFFFFFFF04FFFFFF
310
FF0CFFFFFFFF0CFFFFFFFF0C520000000C32000000110D06636F656467650CFFFFFFFF04FFFFFFFF0CFFFFFFFF0C4D0000000C4D0000000C430000000C4E0000000A0C4000000004000000000CFFFFFFFF110D04656467650CFFFFFFFF04FFFFFFFF0CFFFFFFFF0C550000000600000000000000000C5500000006182D4454
310
FB2119400C430000000C560000000B0707756E6B6E6F776E110D067665727465780CFFFFFFFF04FFFFFFFF0CFFFFFFFF0C4500000004020000000C57000000110E07656C6C697073650D0563757276650CFFFFFFFF04FFFFFFFF0CFFFFFFFF1300000000000034400000000000000000000000000000000014000000000000
310
F03F0000000000000000000000000000008014000000000000008000000000000000006666666666F645C006000000000000F03F0B0B110D05706F696E740CFFFFFFFF04FFFFFFFF0CFFFFFFFF1300000000000034400000000000000000CCCCCCCCCC4C43C0110D06636F656467650CFFFFFFFF04FFFFFFFF0CFFFFFFFF0C
310
520000000C520000000C490000000C530000000B0C4C00000004000000000CFFFFFFFF110D04656467650CFFFFFFFF04FFFFFFFF0CFFFFFFFF0C580000000600000000000000000C5800000006182D4454FB2119400C520000000C590000000B0707756E6B6E6F776E110E0D737472696E675F6174747269620E0B6E616D65
310
5F6174747269620E0367656E0D066174747269620CFFFFFFFF04FFFFFFFF0CFFFFFFFF0CFFFFFFFF0C320000001502000000150100000015010000001502000000070F4154545249425F58414349535F4944070436323433110D067665727465780CFFFFFFFF04FFFFFFFF0CFFFFFFFF0C4E00000004020000000C5B000000
310
110E07656C6C697073650D0563757276650CFFFFFFFF04FFFFFFFF0CFFFFFFFF13770DED7F1E852D400000000000000000000000000000000014000000000000F03F0000000000000000000000000000008014000000000000008000000000000000006666666666F645C006000000000000F03F0B0B110D05706F696E740C
310
FFFFFFFF04FFFFFFFF0CFFFFFFFF13000000000000344000000000000000006666666666F645C0110D067665727465780CFFFFFFFF04FFFFFFFF0CFFFFFFFF0C5300000004020000000C5C000000110E07656C6C697073650D0563757276650CFFFFFFFF04FFFFFFFF0CFFFFFFFF1316E52500C3F514400000000000000000
310
000000000000000014000000000000F03F0000000000000000000000000000008014000000000000008000000000000000006666666666F645C006000000000000F03F0B0B110E0D737472696E675F6174747269620E0B6E616D655F6174747269620E0367656E0D066174747269620CFFFFFFFF04FFFFFFFF0CFFFFFFFF0C
310
FFFFFFFF0C3D0000001502000000150100000015010000001502000000070F4154545249425F58414349535F4944070436323437110D05706F696E740CFFFFFFFF04FFFFFFFF0CFFFFFFFF13770DED7F1E852D4000000000000000006666666666F645C0110D05706F696E740CFFFFFFFF04FFFFFFFF0CFFFFFFFF1316E525
310
00C3F5144000000000000000006666666666F645C0110E03456E640E026F660E0341534D0D0464617461
  0
ENDSEC
  0
EOF