999
DXF file: _cgs_temp_output.dxf
999
Pro/ENGINEER 2016360 by Parametric Technology Corporation
  0
SECTION
  2
HEADER
  9
$ACADVER
  1
AC1021
  9
$DWGCODEPAGE
  3
ANSI_1252
  9
$EXTMAX
 10
22.0
 20
17.0
 30
0.0
  9
$EXTMIN
 10
0.0
 20
0.0
 30
0.0
  9
$LIMMIN
 10
0.0
 20
0.0
  9
$LIMMAX
 10
22.0
 20
17.0
  9
$VIEWCTR
 10
11.0
 20
8.5
  9
$VIEWSIZE
 40
17.0
  9
$CLAYER
  8
0
  9
$LTSCALE
 40
1.21
  9
$CELTYPE
  6
BYLAYER
  9
$DIMSCALE
 40
1.0
  9
$DIMASZ
 40
0.1875
  9
$DIMEXO
 40
0.0625
  9
$DIMDLI
 40
0.836
  9
$DIMEXE
 40
0.125
  9
$DIMCEN
 40
0.198
  9
$DIMLFAC
 40
1.0
  9
$DIMBLK
  1
_CLOSED
  9
$DIMALT
 70
0
  9
$DIMALTF
 40
25.4
  9
$DIMTXT
 40
0.15625
  9
$DIMTOL
 70
0
  9
$DIMLIM
 70
0
  9
$DIMTFAC
 40
1.0
  9
$DIMGAP
 40
0.09
  9
$DIMDSEP
 70
46
  9
$AUNITS
 70
0
  9
$PDMODE
 70
3
  9
$PDSIZE
 40
0.3125
  9
$HANDSEED
  5
273
  9
$TILEMODE
 70
1
  9
$MEASUREMENT
 70
0
  9
$INSUNITS
 70
1
  0
ENDSEC
  0
SECTION
  2
CLASSES
  0
CLASS
  1
ACDBDICTIONARYWDFLT
  2
AcDbDictionaryWithDefault
  3
AutoCAD 2000
 90
0
 91
1
280
0
281
0
  0
CLASS
  1
ACDBPLACEHOLDER
  2
AcDbPlaceHolder
  3
AutoCAD 2000
 90
0
 91
1
280
0
281
0
  0
CLASS
  1
LAYOUT
  2
AcDbLayout
  3
AutoCAD 2000
 90
0
 91
0
280
0
281
0
  0
ENDSEC
  0
SECTION
  2
TABLES
  0
TABLE
  2
VPORT
  5
8
100
AcDbSymbolTable
 70
2
  0
VPORT
  5
1F4
100
AcDbSymbolTableRecord
100
AcDbViewportTableRecord
  2
*ACTIVE
 70
0
 10
0.0
 20
0.0
 11
1.0
 21
1.0
 12
11.0
 22
8.5
 13
0.0
 23
0.0
 14
1.0
 24
1.0
 15
0.0
 25
0.0
 16
0.0
 26
0.0
 36
1.0
 17
0.0
 27
0.0
 37
0.0
 40
17.0
 41
1.2941176471
 42
50.0
 43
0.0
 44
0.0
 50
0.0
 51
0.0
 71
0
 72
100
 73
1
 74
1
 75
0
 76
0
 77
0
 78
0
  0
ENDTAB
  0
TABLE
  2
LTYPE
  5
5
100
AcDbSymbolTable
 70
6
  0
LTYPE
  5
14
100
AcDbSymbolTableRecord
100
AcDbLinetypeTableRecord
  2
BYBLOCK
 70
0
  3

 72
65
 73
0
 40
0.0
  0
LTYPE
  5
15
100
AcDbSymbolTableRecord
100
AcDbLinetypeTableRecord
  2
BYLAYER
 70
0
  3

 72
65
 73
0
 40
0.0
  0
LTYPE
  5
16
100
AcDbSymbolTableRecord
100
AcDbLinetypeTableRecord
  2
CONTINUOUS
 70
64
  3
Solid line
 72
65
 73
0
 40
0.0
  0
LTYPE
  5
1F5
100
AcDbSymbolTableRecord
100
AcDbLinetypeTableRecord
  2
CENTER
 70
64
  3
____ _ ____ _ ____ _ ____ _ ____ _ ____ _ ____
 72
65
 73
4
 40
0.6
 49
0.375
 74
0
 49
-0.075
 74
0
 49
0.075
 74
0
 49
-0.075
 74
0
  0
LTYPE
  5
1F6
100
AcDbSymbolTableRecord
100
AcDbLinetypeTableRecord
  2
HIDDEN
 70
64
  3
- - - - - - - - - - - - - - - - - - - -
 72
65
 73
2
 40
0.2
 49
0.1
 74
0
 49
-0.1
 74
0
  0
LTYPE
  5
1F7
100
AcDbSymbolTableRecord
100
AcDbLinetypeTableRecord
  2
PHANTOM
 70
64
  3
_____ _ _ _____ _ _ _____ _ _ _____
 72
65
 73
6
 40
0.8
 49
0.45
 74
0
 49
-0.05
 74
0
 49
0.1
 74
0
 49
-0.05
 74
0
 49
0.1
 74
0
 49
-0.05
 74
0
  0
LTYPE
  5
1F8
100
AcDbSymbolTableRecord
100
AcDbLinetypeTableRecord
  2
DOT
 70
64
  3
. . . . . . . . . . . . . . . . . . . .
 72
65
 73
2
 40
0.2
 49
0.1
 74
0
 49
-0.1
 74
0
  0
LTYPE
  5
1F9
100
AcDbSymbolTableRecord
100
AcDbLinetypeTableRecord
  2
DASHED
 70
64
  3
- - - - - - - - - - - - - - - - - - - -
 72
65
 73
2
 40
0.2
 49
0.1
 74
0
 49
-0.1
 74
0
  0
ENDTAB
  0
TABLE
  2
LAYER
  5
2
100
AcDbSymbolTable
 70
36
  0
LAYER
  5
10
100
AcDbSymbolTableRecord
100
AcDbLayerTableRecord
  2
0
 70
0
 62
7
  6
CONTINUOUS
370
-3
390
F
  0
LAYER
  5
1FA
100
AcDbSymbolTableRecord
100
AcDbLayerTableRecord
  2
DEFAULT_1
 70
0
 62
7
  6
CENTER
370
-3
390
F
  0
LAYER
  5
1FB
100
AcDbSymbolTableRecord
100
AcDbLayerTableRecord
  2
DEFAULT_2
 70
0
 62
8
  6
HIDDEN
370
-3
390
F
  0
LAYER
  5
1FC
100
AcDbSymbolTableRecord
100
AcDbLayerTableRecord
  2
DEFAULT_3
 70
0
 62
7
  6
PHANTOM
370
-3
390
F
  0
LAYER
  5
1FD
100
AcDbSymbolTableRecord
100
AcDbLayerTableRecord
  2
01_ALL_DTM_PLN
 70
0
 62
7
  6
CONTINUOUS
370
-3
390
F
  0
LAYER
  5
1FE
100
AcDbSymbolTableRecord
100
AcDbLayerTableRecord
  2
01__ASM_ALL_DTM_PLN
 70
0
 62
7
  6
CONTINUOUS
370
-3
390
F
  0
LAYER
  5
1FF
100
AcDbSymbolTableRecord
100
AcDbLayerTableRecord
  2
01__ASM_DEF_DTM_PLN
 70
0
 62
7
  6
CONTINUOUS
370
-3
390
F
  0
LAYER
  5
200
100
AcDbSymbolTableRecord
100
AcDbLayerTableRecord
  2
01___PRT_ALL_DTM_PLN
 70
0
 62
7
  6
CONTINUOUS
370
-3
390
F
  0
LAYER
  5
201
100
AcDbSymbolTableRecord
100
AcDbLayerTableRecord
  2
01___PRT_DEF_DTM_PLN
 70
0
 62
7
  6
CONTINUOUS
370
-3
390
F
  0
LAYER
  5
202
100
AcDbSymbolTableRecord
100
AcDbLayerTableRecord
  2
02_ALL_AXES
 70
0
 62
7
  6
CONTINUOUS
370
-3
390
F
  0
LAYER
  5
203
100
AcDbSymbolTableRecord
100
AcDbLayerTableRecord
  2
02__ASM_ALL_AXES
 70
0
 62
7
  6
CONTINUOUS
370
-3
390
F
  0
LAYER
  5
204
100
AcDbSymbolTableRecord
100
AcDbLayerTableRecord
  2
02___PRT_ALL_AXES
 70
0
 62
7
  6
CONTINUOUS
370
-3
390
F
  0
LAYER
  5
205
100
AcDbSymbolTableRecord
100
AcDbLayerTableRecord
  2
03_ALL_CURVES
 70
0
 62
7
  6
CONTINUOUS
370
-3
390
F
  0
LAYER
  5
206
100
AcDbSymbolTableRecord
100
AcDbLayerTableRecord
  2
03__ASM_ALL_CURVES
 70
0
 62
7
  6
CONTINUOUS
370
-3
390
F
  0
LAYER
  5
207
100
AcDbSymbolTableRecord
100
AcDbLayerTableRecord
  2
03___PRT_ALL_CURVES
 70
0
 62
7
  6
CONTINUOUS
370
-3
390
F
  0
LAYER
  5
208
100
AcDbSymbolTableRecord
100
AcDbLayerTableRecord
  2
04_ALL_DTM_PNT
 70
0
 62
7
  6
CONTINUOUS
370
-3
390
F
  0
LAYER
  5
209
100
AcDbSymbolTableRecord
100
AcDbLayerTableRecord
  2
04__ASM_ALL_DTM_PNT
 70
0
 62
7
  6
CONTINUOUS
370
-3
390
F
  0
LAYER
  5
20A
100
AcDbSymbolTableRecord
100
AcDbLayerTableRecord
  2
04___PRT_ALL_DTM_PNT
 70
0
 62
7
  6
CONTINUOUS
370
-3
390
F
  0
LAYER
  5
20B
100
AcDbSymbolTableRecord
100
AcDbLayerTableRecord
  2
05_ALL_DTM_CSYS
 70
0
 62
7
  6
CONTINUOUS
370
-3
390
F
  0
LAYER
  5
20C
100
AcDbSymbolTableRecord
100
AcDbLayerTableRecord
  2
05__ASM_ALL_DTM_CSYS
 70
0
 62
7
  6
CONTINUOUS
370
-3
390
F
  0
LAYER
  5
20D
100
AcDbSymbolTableRecord
100
AcDbLayerTableRecord
  2
05__ASM_DEF_DTM_CSYS
 70
0
 62
7
  6
CONTINUOUS
370
-3
390
F
  0
LAYER
  5
20E
100
AcDbSymbolTableRecord
100
AcDbLayerTableRecord
  2
05___PRT_ALL_DTM_CSYS
 70
0
 62
7
  6
CONTINUOUS
370
-3
390
F
  0
LAYER
  5
20F
100
AcDbSymbolTableRecord
100
AcDbLayerTableRecord
  2
05___PRT_DEF_DTM_CSYS
 70
0
 62
7
  6
CONTINUOUS
370
-3
390
F
  0
LAYER
  5
210
100
AcDbSymbolTableRecord
100
AcDbLayerTableRecord
  2
06_ALL_SURFS
 70
0
 62
7
  6
CONTINUOUS
370
-3
390
F
  0
LAYER
  5
211
100
AcDbSymbolTableRecord
100
AcDbLayerTableRecord
  2
06__ASM_ALL_SURFS
 70
0
 62
7
  6
CONTINUOUS
370
-3
390
F
  0
LAYER
  5
212
100
AcDbSymbolTableRecord
100
AcDbLayerTableRecord
  2
06___PRT_ALL_SURFS
 70
0
 62
7
  6
CONTINUOUS
370
-3
390
F
  0
LAYER
  5
213
100
AcDbSymbolTableRecord
100
AcDbLayerTableRecord
  2
07__ASM_ALL_SKELETONS
 70
0
 62
7
  6
CONTINUOUS
370
-3
390
F
  0
LAYER
  5
214
100
AcDbSymbolTableRecord
100
AcDbLayerTableRecord
  2
DRAWING
 70
0
 62
7
  6
CONTINUOUS
370
-3
390
F
  0
LAYER
  5
215
100
AcDbSymbolTableRecord
100
AcDbLayerTableRecord
  2
SHELL
 70
0
 62
7
  6
CONTINUOUS
370
-3
390
F
  0
ENDTAB
  0
TABLE
  2
STYLE
  5
3
100
AcDbSymbolTable
 70
1
  0
STYLE
  5
11
100
AcDbSymbolTableRecord
100
AcDbTextStyleTableRecord
  2
STANDARD
 70
0
 40
0.0
 41
0.8
 50
0.0
 71
0
 42
0.2
  3
txt
  4

  0
STYLE
  5
216
100
AcDbSymbolTableRecord
100
AcDbTextStyleTableRecord
  2
TEXTSTYLE_1
 70
0
 40
0.0
 41
0.8
 50
0.0
 71
0
 42
0.2
  3
gdt
  4

  0
ENDTAB
  0
TABLE
  2
VIEW
  5
6
100
AcDbSymbolTable
 70
0
  0
ENDTAB
  0
TABLE
  2
UCS
  5
7
100
AcDbSymbolTable
 70
0
  0
ENDTAB
  0
TABLE
  2
APPID
  5
9
100
AcDbSymbolTable
 70
1
  0
APPID
  5
217
100
AcDbSymbolTableRecord
100
AcDbRegAppTableRecord
  2
ACAD
 70
0
  0
ENDTAB
  0
TABLE
  2
BLOCK_RECORD
  5
1
100
AcDbSymbolTable
 70
0
  0
BLOCK_RECORD
  5
218
100
AcDbSymbolTableRecord
100
AcDbBlockTableRecord
  2
*Model_Space
  0
BLOCK_RECORD
  5
219
100
AcDbSymbolTableRecord
100
AcDbBlockTableRecord
  2
*Paper_Space
  0
ENDTAB
  0
TABLE
  2
DIMSTYLE
  5
A
100
AcDbSymbolTable
 70
1
100
AcDbDimStyleTable
 71
0
  0
DIMSTYLE
105
21A
100
AcDbSymbolTableRecord
100
AcDbDimStyleTableRecord
  2
STANDARD
 70
0
  3

  4

 40
1.0
 41
0.1875
 42
0.0625
 43
0.38
 44
0.125
 45
0.0
 46
0.0
 47
0.0001
 48
0.0001
140
0.15625
141
0.09
142
0.0
143
25.4
144
1.0
145
0.0
146
1.0
147
0.09
 71
0.0
 72
0.0
 73
1
 74
1
 75
0
 76
0
 77
0
 78
4
 79
1
170
0
171
3
172
0
173
0
174
0
175
0
176
0
177
0
178
0
270
2
179
4
271
4
272
4
273
2
274
2
275
0
280
0
281
0
282
0
283
1
284
4
285
0
286
0
287
3
288
0
340
11
278
46
  0
ENDTAB
  0
ENDSEC
  0
SECTION
  2
BLOCKS
  0
BLOCK
  5
20
100
AcDbEntity
  8
0
100
AcDbBlockBegin
  2
*Model_Space
 70
0
 10
0.0
 20
0.0
 30
0.0
  3
*Model_Space
  1

  0
ENDBLK
  5
21
100
AcDbEntity
  8
0
100
AcDbBlockEnd
  0
BLOCK
  5
1C
100
AcDbEntity
  8
0
100
AcDbBlockBegin
  2
*Paper_Space
 70
0
 10
0.0
 20
0.0
 30
0.0
  3
*Paper_Space
  1

  0
ENDBLK
  5
1D
100
AcDbEntity
  8
0
100
AcDbBlockEnd
  0
ENDSEC
  0
SECTION
  2
ENTITIES
  0
MTEXT
  5
21B
100
AcDbEntity
  8
0
100
AcDbMText
 62
7
  6
CONTINUOUS
  7
STANDARD
 71
1
 72
1
 10
15.9560215477
 20
0.9479130325
 30
0.0
 11
1.0
 21
0.0
 31
0.0
 44
0.9
  1
SCALE: 1:0.200
 40
0.3
 41
3.36
  0
LINE
  5
21C
100
AcDbEntity
  8
0
100
AcDbLine
 62
7
  6
CONTINUOUS
 10
0.0
 20
0.0
 11
0.0
 21
17.0
  0
LINE
  5
21D
100
AcDbEntity
  8
0
100
AcDbLine
 62
7
  6
CONTINUOUS
 10
0.0
 20
0.0
 11
22.0
 21
0.0
  0
LINE
  5
21E
100
AcDbEntity
  8
0
100
AcDbLine
 62
7
  6
CONTINUOUS
 10
0.0
 20
17.0
 11
22.0
 21
17.0
  0
LINE
  5
21F
100
AcDbEntity
  8
0
100
AcDbLine
 62
7
  6
CONTINUOUS
 10
22.0
 20
0.0
 11
22.0
 21
17.0
  0
LINE
  5
220
100
AcDbEntity
  8
02___PRT_ALL_AXES
100
AcDbLine
 62
7
  6
CONTINUOUS
 10
6.1053672762
 20
8.3061198968
 11
6.1093672762
 21
8.3101198968
  0
LINE
  5
221
100
AcDbEntity
  8
02___PRT_ALL_AXES
100
AcDbLine
 62
7
  6
CONTINUOUS
 10
6.1513672762
 20
8.2101198968
 11
6.1553672762
 21
8.2141198968
  0
LINE
  5
222
100
AcDbEntity
  8
02___PRT_ALL_AXES
100
AcDbLine
 62
7
  6
CONTINUOUS
 10
6.1053672762
 20
8.2141198968
 11
6.1053672762
 21
8.3061198968
  0
LINE
  5
223
100
AcDbEntity
  8
02___PRT_ALL_AXES
100
AcDbLine
 62
7
  6
CONTINUOUS
 10
6.1553672762
 20
8.2141198968
 11
6.1553672762
 21
8.3061198968
  0
LINE
  5
224
100
AcDbEntity
  8
02___PRT_ALL_AXES
100
AcDbLine
 62
7
  6
CONTINUOUS
 10
6.1093672762
 20
8.2101198968
 11
6.1053672762
 21
8.2141198968
  0
LINE
  5
225
100
AcDbEntity
  8
02___PRT_ALL_AXES
100
AcDbLine
 62
7
  6
CONTINUOUS
 10
6.1553672762
 20
8.3061198968
 11
6.1513672762
 21
8.3101198968
  0
LINE
  5
226
100
AcDbEntity
  8
02___PRT_ALL_AXES
100
AcDbLine
 62
7
  6
CONTINUOUS
 10
6.1094415023
 20
8.2101198968
 11
6.1512930501
 21
8.2101198968
  0
LINE
  5
227
100
AcDbEntity
  8
02___PRT_ALL_AXES
100
AcDbLine
 62
7
  6
CONTINUOUS
 10
6.1053672762
 20
8.2141198968
 11
6.1553672762
 21
8.2141198968
  0
LINE
  5
228
100
AcDbEntity
  8
02___PRT_ALL_AXES
100
AcDbLine
 62
7
  6
CONTINUOUS
 10
6.1053672762
 20
8.3061198968
 11
6.1553672762
 21
8.3061198968
  0
LINE
  5
229
100
AcDbEntity
  8
02___PRT_ALL_AXES
100
AcDbLine
 62
7
  6
CONTINUOUS
 10
6.1094415023
 20
8.3101198968
 11
6.1512930501
 21
8.3101198968
  0
LINE
  5
22A
100
AcDbEntity
  8
DRAWING
100
AcDbLine
 62
7
  6
CONTINUOUS
 10
5.6158720839
 20
12.6100477814
 11
5.6158720839
 21
12.5900477814
  0
LINE
  5
22B
100
AcDbEntity
  8
0
100
AcDbLine
 62
7
  6
CONTINUOUS
 10
6.0648720839
 20
12.6104400862
 11
6.0588720839
 21
12.6000477814
  0
LINE
  5
22C
100
AcDbEntity
  8
0
100
AcDbLine
 62
7
  6
CONTINUOUS
 10
6.0648720839
 20
12.5896554765
 11
6.0768720839
 21
12.5896554765
  0
LINE
  5
22D
100
AcDbEntity
  8
DRAWING
100
AcDbLine
 62
7
  6
CONTINUOUS
 10
6.5258720839
 20
12.5900477814
 11
6.0931925919
 21
12.5900477814
  0
LINE
  5
22E
100
AcDbEntity
  8
DRAWING
100
AcDbLine
 62
7
  6
CONTINUOUS
 10
6.0485515758
 20
12.5900477814
 11
5.6158720839
 21
12.5900477814
  0
LINE
  5
22F
100
AcDbEntity
  8
0
100
AcDbLine
 62
7
  6
CONTINUOUS
 10
6.0588720839
 20
12.6000477814
 11
6.0648720839
 21
12.5896554765
  0
LINE
  5
230
100
AcDbEntity
  8
0
100
AcDbLine
 62
7
  6
CONTINUOUS
 10
6.0768720839
 20
12.5896554765
 11
6.0828720839
 21
12.6000477814
  0
LINE
  5
231
100
AcDbEntity
  8
DRAWING
100
AcDbLine
 62
7
  6
CONTINUOUS
 10
6.5258720839
 20
12.6100477814
 11
6.0931925919
 21
12.6100477814
  0
LINE
  5
232
100
AcDbEntity
  8
DRAWING
100
AcDbLine
 62
7
  6
CONTINUOUS
 10
6.0485515758
 20
12.6100477814
 11
5.6158720839
 21
12.6100477814
  0
LINE
  5
233
100
AcDbEntity
  8
0
100
AcDbLine
 62
7
  6
CONTINUOUS
 10
6.0768720839
 20
12.6104400862
 11
6.0648720839
 21
12.6104400862
  0
LINE
  5
234
100
AcDbEntity
  8
0
100
AcDbLine
 62
7
  6
CONTINUOUS
 10
6.0828720839
 20
12.6000477814
 11
6.0768720839
 21
12.6104400862
  0
LINE
  5
235
100
AcDbEntity
  8
DRAWING
100
AcDbLine
 62
7
  6
CONTINUOUS
 10
6.5258720839
 20
12.6100477814
 11
6.5258720839
 21
12.5900477814
  0
LINE
  5
236
100
AcDbEntity
  8
DRAWING
100
AcDbLine
 62
7
  6
CONTINUOUS
 10
15.5703552569
 20
2.6706247044
 11
15.5503552569
 21
2.6706247044
  0
LINE
  5
237
100
AcDbEntity
  8
02___PRT_ALL_AXES
100
AcDbLine
 62
7
  6
CONTINUOUS
 10
15.5393552569
 20
8.2506247044
 11
15.5353552569
 21
8.2466247044
  0
LINE
  5
238
100
AcDbEntity
  8
02___PRT_ALL_AXES
100
AcDbLine
 62
7
  6
CONTINUOUS
 10
15.5853552569
 20
8.1546247044
 11
15.5813552569
 21
8.1506247044
  0
LINE
  5
239
100
AcDbEntity
  8
DRAWING
100
AcDbLine
 62
7
  6
CONTINUOUS
 10
15.5703552569
 20
3.5806247044
 11
15.5503552569
 21
3.5806247044
  0
LINE
  5
23A
100
AcDbEntity
  8
02___PRT_ALL_AXES
100
AcDbLine
 62
7
  6
CONTINUOUS
 10
15.5353552569
 20
8.2466247044
 11
15.5353552569
 21
8.1546247044
  0
LINE
  5
23B
100
AcDbEntity
  8
DRAWING
100
AcDbLine
 62
7
  6
CONTINUOUS
 10
15.5503552569
 20
2.6706300358
 11
15.5503552569
 21
3.5806193731
  0
LINE
  5
23C
100
AcDbEntity
  8
DRAWING
100
AcDbLine
 62
7
  6
CONTINUOUS
 10
15.5703552569
 20
2.6706300358
 11
15.5703552569
 21
3.5806193731
  0
LINE
  5
23D
100
AcDbEntity
  8
02___PRT_ALL_AXES
100
AcDbLine
 62
7
  6
CONTINUOUS
 10
15.5853552569
 20
8.2466247044
 11
15.5853552569
 21
8.1546247044
  0
LINE
  5
23E
100
AcDbEntity
  8
02___PRT_ALL_AXES
100
AcDbLine
 62
7
  6
CONTINUOUS
 10
15.5353552569
 20
8.1546247044
 11
15.5393552569
 21
8.1506247044
  0
LINE
  5
23F
100
AcDbEntity
  8
02___PRT_ALL_AXES
100
AcDbLine
 62
7
  6
CONTINUOUS
 10
15.5813552569
 20
8.2506247044
 11
15.5853552569
 21
8.2466247044
  0
LINE
  5
240
100
AcDbEntity
  8
02___PRT_ALL_AXES
100
AcDbLine
 62
7
  6
CONTINUOUS
 10
15.5393552569
 20
8.1506247044
 11
15.5813552569
 21
8.1506247044
  0
LINE
  5
241
100
AcDbEntity
  8
02___PRT_ALL_AXES
100
AcDbLine
 62
7
  6
CONTINUOUS
 10
15.5353552569
 20
8.1546247044
 11
15.5853552569
 21
8.1546247044
  0
LINE
  5
242
100
AcDbEntity
  8
02___PRT_ALL_AXES
100
AcDbLine
 62
7
  6
CONTINUOUS
 10
15.5353552569
 20
8.2466247044
 11
15.5853552569
 21
8.2466247044
  0
LINE
  5
243
100
AcDbEntity
  8
02___PRT_ALL_AXES
100
AcDbLine
 62
7
  6
CONTINUOUS
 10
15.5393552569
 20
8.2506247044
 11
15.5813552569
 21
8.2506247044
  0
LINE
  5
244
100
AcDbEntity
  8
0
100
AcDbLine
 62
7
  6
CONTINUOUS
 10
14.4754376205
 20
14.248210216
 11
14.4673956275
 21
14.2400696439
  0
LINE
  5
245
100
AcDbEntity
  8
0
100
AcDbLine
 62
7
  6
CONTINUOUS
 10
14.4815384579
 20
14.2357780166
 11
14.4777361223
 21
14.2319290719
  0
LINE
  5
246
100
AcDbEntity
  8
0
100
AcDbLine
 62
7
  6
CONTINUOUS
 10
14.4814590984
 20
14.2319290719
 11
14.4895010914
 21
14.2400696439
  0
LINE
  5
247
100
AcDbEntity
  8
0
100
AcDbLine
 62
7
  6
CONTINUOUS
 10
14.4673956275
 20
14.2400696439
 11
14.4704063665
 21
14.2319290719
  0
LINE
  5
248
100
AcDbEntity
  8
0
100
AcDbLine
 62
7
  6
CONTINUOUS
 10
14.4895010914
 20
14.2400696439
 11
14.4864903525
 21
14.248210216
  0
LINE
  5
249
100
AcDbEntity
  8
02___PRT_ALL_AXES
100
AcDbLine
 62
7
  6
CONTINUOUS
 10
14.4852890873
 20
14.1693815193
 11
14.4572252356
 21
14.2265696363
  0
LINE
  5
24A
100
AcDbEntity
  8
0
100
AcDbLine
 62
7
  6
CONTINUOUS
 10
14.4673956275
 20
14.2400696439
 11
14.4713904401
 21
14.2319290719
  0
LINE
  5
24B
100
AcDbEntity
  8
0
100
AcDbLine
 62
7
  6
CONTINUOUS
 10
14.4754376205
 20
14.248210216
 11
14.4815384579
 21
14.2357780166
  0
LINE
  5
24C
100
AcDbEntity
  8
02___PRT_ALL_AXES
100
AcDbLine
 62
7
  6
CONTINUOUS
 10
14.53017567
 20
14.1914086547
 11
14.5021118183
 21
14.2485967718
  0
LINE
  5
24D
100
AcDbEntity
  8
DRAWING
100
AcDbLine
 62
7
  6
CONTINUOUS
 10
15.6094921051
 20
11.1964893797
 11
15.6046507786
 21
11.1808228415
  0
LINE
  5
24E
100
AcDbEntity
  8
DRAWING
100
AcDbLine
 62
7
  6
CONTINUOUS
 10
16.4789250733
 20
10.9278142716
 11
16.4740837469
 21
10.9121477334
  0
LINE
  5
24F
100
AcDbEntity
  8
0
100
AcDbLine
 62
7
  6
CONTINUOUS
 10
14.4704063665
 20
14.2319290719
 11
14.4814590984
 21
14.2319290719
  0
LINE
  5
250
100
AcDbEntity
  8
0
100
AcDbLine
 62
7
  6
CONTINUOUS
 10
14.485261434
 20
14.2357780166
 11
14.4815384579
 21
14.2357780166
  0
LINE
  5
251
100
AcDbEntity
  8
0
100
AcDbLine
 62
7
  6
CONTINUOUS
 10
14.4864903525
 20
14.248210216
 11
14.4754376205
 21
14.248210216
  0
CIRCLE
  5
252
100
AcDbEntity
  8
DRAWING
100
AcDbCircle
 62
7
  6
CONTINUOUS
 10
6.1303672762
 20
3.1851198968
 40
0.455
  0
CIRCLE
  5
253
100
AcDbEntity
  8
DRAWING
100
AcDbCircle
 62
7
  6
CONTINUOUS
 10
6.1303672762
 20
3.1851198968
 40
0.4524
  0
CIRCLE
  5
254
100
AcDbEntity
  8
02___PRT_ALL_AXES
100
AcDbCircle
 62
7
  6
CONTINUOUS
 10
6.0708720839
 20
12.6000477814
 40
0.025
  0
CIRCLE
  5
255
100
AcDbEntity
  8
02___PRT_ALL_AXES
100
AcDbCircle
 62
7
  6
CONTINUOUS
 10
6.0708720839
 20
12.6000477814
 40
0.021
  0
ARC
  5
256
100
AcDbEntity
  8
DRAWING
100
AcDbCircle
 62
7
  6
CONTINUOUS
 10
15.7479118551
 20
11.1365231838
 40
0.1499536398
100
AcDbArc
 50
156.5821770369
 51
162.8171747268
  0
ARC
  5
257
100
AcDbEntity
  8
DRAWING
100
AcDbCircle
 62
7
  6
CONTINUOUS
 10
16.3313159431
 20
10.956268955
 40
0.1494296715
100
AcDbArc
 50
342.8266640257
 51
349.022715561
  0
ARC
  5
258
100
AcDbEntity
  8
DRAWING
100
AcDbCircle
 62
7
  6
CONTINUOUS
 10
15.7547219738
 20
11.1516779241
 40
0.149388322
100
AcDbArc
 50
167.2162820036
 51
169.0496607114
  0
ARC
  5
259
100
AcDbEntity
  8
DRAWING
100
AcDbCircle
 62
7
  6
CONTINUOUS
 10
16.3339998567
 20
10.9726326174
 40
0.1490972245
100
AcDbArc
 50
336.5445478785
 51
340.8799540304
  0
ARC
  5
25A
100
AcDbEntity
  8
DRAWING
100
AcDbCircle
 62
7
  6
CONTINUOUS
 10
16.3296921347
 20
10.9567694011
 40
0.1485288493
100
AcDbArc
 50
342.827155243
 51
347.2161282325
  0
ARC
  5
25B
100
AcDbEntity
  8
DRAWING
100
AcDbCircle
 62
7
  6
CONTINUOUS
 10
15.7489757059
 20
11.1362163943
 40
0.1484606434
100
AcDbArc
 50
160.8813377006
 51
162.8251688065
  0
ARC
  5
25C
100
AcDbEntity
  8
02___PRT_ALL_AXES
100
AcDbCircle
 62
7
  6
CONTINUOUS
 10
14.4841319725
 20
14.2283322189
 40
0.0281909042
100
AcDbArc
 50
115.7526980405
 51
121.9599477631
  0
SPLINE
  5
25D
100
AcDbEntity
  8
02___PRT_ALL_AXES
100
AcDbSpline
 62
7
  6
CONTINUOUS
 70
0
 71
3
 72
13
 73
9
 74
0
 42
0.0000001
 43
0.0000001
 44
0.0000000001
 40
0.0
 40
0.0
 40
0.0
 40
0.0
 40
0.2703600349
 40
0.5445159415
 40
0.6724975544
 40
0.7902995281
 40
0.8982514842
 40
1.0
 40
1.0
 40
1.0
 40
1.0
 10
14.5016807206
 20
14.1608119142
 30
0.0
 10
14.5060316423
 20
14.1608119142
 30
0.0
 10
14.5148316736
 20
14.162885211
 30
0.0
 10
14.5239854753
 20
14.1691940718
 30
0.0
 10
14.5290544932
 20
14.1759352922
 30
0.0
 10
14.5312897208
 20
14.18125113
 30
0.0
 10
14.5317896678
 20
14.1865889524
 30
0.0
 10
14.5308977928
 20
14.1899390402
 30
0.0
 10
14.5301758024
 20
14.1914087197
 30
0.0
  0
SPLINE
  5
25E
100
AcDbEntity
  8
02___PRT_ALL_AXES
100
AcDbSpline
 62
7
  6
CONTINUOUS
 70
0
 71
3
 72
11
 73
7
 74
0
 42
0.0000001
 43
0.0000001
 44
0.0000000001
 40
0.0
 40
0.0
 40
0.0
 40
0.0
 40
0.2767533297
 40
0.5347606944
 40
0.7732281591
 40
1.0
 40
1.0
 40
1.0
 40
1.0
 10
14.5016807206
 20
14.1608119142
 30
0.0
 10
14.4998881828
 20
14.1608119142
 30
0.0
 10
14.4964117868
 20
14.1611706927
 30
0.0
 10
14.4916262435
 20
14.162821028
 30
0.0
 10
14.4877468683
 20
14.1655716668
 30
0.0
 10
14.4859365882
 20
14.1680631357
 30
0.0
 10
14.4852889549
 20
14.1693814542
 30
0.0
  0
SPLINE
  5
25F
100
AcDbEntity
  8
02___PRT_ALL_AXES
100
AcDbSpline
 62
7
  6
CONTINUOUS
 70
0
 71
3
 72
11
 73
7
 74
0
 42
0.0000001
 43
0.0000001
 44
0.0000000001
 40
0.0
 40
0.0
 40
0.0
 40
0.0
 40
0.2267718409
 40
0.4652393056
 40
0.7232466703
 40
1.0
 40
1.0
 40
1.0
 40
1.0
 10
14.5021119507
 20
14.2485968368
 30
0.0
 10
14.5014643174
 20
14.2499151553
 30
0.0
 10
14.4996540373
 20
14.2524066242
 30
0.0
 10
14.4957746621
 20
14.2551572631
 30
0.0
 10
14.4909891188
 20
14.2568075984
 30
0.0
 10
14.4875127228
 20
14.2571663768
 30
0.0
 10
14.485720185
 20
14.2571663768
 30
0.0
  0
SPLINE
  5
260
100
AcDbEntity
  8
02___PRT_ALL_AXES
100
AcDbSpline
 62
7
  6
CONTINUOUS
 70
0
 71
3
 72
14
 73
10
 74
0
 42
0.0000001
 43
0.0000001
 44
0.0000000001
 40
0.0
 40
0.0
 40
0.0
 40
0.0
 40
0.1322548567
 40
0.2535787353
 40
0.3649211417
 40
0.4739864768
 40
0.7131451414
 40
0.8521330201
 40
1.0
 40
1.0
 40
1.0
 40
1.0
 10
14.4733649667
 20
14.2236197788
 30
0.0
 10
14.4715270335
 20
14.2236197788
 30
0.0
 10
14.4679839228
 20
14.2240740772
 30
0.0
 10
14.4632578813
 20
14.2261593369
 30
0.0
 10
14.4598579443
 20
14.2296662567
 30
0.0
 10
14.4576322223
 20
14.235860738
 30
0.0
 10
14.4596985046
 20
14.2429705474
 30
0.0
 10
14.4642945192
 20
14.2486673336
 30
0.0
 10
14.4674663659
 20
14.2511622056
 30
0.0
 10
14.4692097851
 20
14.2522498987
 30
0.0
  0
SPLINE
  5
261
100
AcDbEntity
  8
02___PRT_ALL_AXES
100
AcDbSpline
 62
7
  6
CONTINUOUS
 70
0
 71
3
 72
9
 73
5
 74
0
 42
0.0000001
 43
0.0000001
 44
0.0000000001
 40
0.0
 40
0.0
 40
0.0
 40
0.0
 40
0.258562323
 40
1.0
 40
1.0
 40
1.0
 40
1.0
 10
14.4718833722
 20
14.25372314
 30
0.0
 10
14.4728174766
 20
14.2541736504
 30
0.0
 10
14.4765199252
 20
14.2557150461
 30
0.0
 10
14.4805579178
 20
14.256519509
 30
0.0
 10
14.4835317523
 20
14.256519509
 30
0.0
  0
SPLINE
  5
262
100
AcDbEntity
  8
02___PRT_ALL_AXES
100
AcDbSpline
 62
7
  6
CONTINUOUS
 70
0
 71
3
 72
11
 73
7
 74
0
 42
0.0000001
 43
0.0000001
 44
0.0000000001
 40
0.0
 40
0.0
 40
0.0
 40
0.0
 40
0.2767533297
 40
0.5347606944
 40
0.7732281591
 40
1.0
 40
1.0
 40
1.0
 40
1.0
 10
14.4736168689
 20
14.2180000313
 30
0.0
 10
14.471824331
 20
14.2180000313
 30
0.0
 10
14.4683479351
 20
14.2183588097
 30
0.0
 10
14.4635623918
 20
14.220009145
 30
0.0
 10
14.4596830166
 20
14.2227597839
 30
0.0
 10
14.4578727365
 20
14.2252512528
 30
0.0
 10
14.4572251032
 20
14.2265695713
 30
0.0
  0
SPLINE
  5
263
100
AcDbEntity
  8
02___PRT_ALL_AXES
100
AcDbSpline
 62
7
  6
CONTINUOUS
 70
0
 71
3
 72
14
 73
10
 74
0
 42
0.0000001
 43
0.0000001
 44
0.0000000001
 40
0.0
 40
0.0
 40
0.0
 40
0.0
 40
0.2811687202
 40
0.4209051804
 40
0.5472885508
 40
0.6587930594
 40
0.7632009825
 40
0.8745903991
 40
1.0
 40
1.0
 40
1.0
 40
1.0
 10
14.4733649667
 20
14.2236197788
 30
0.0
 10
14.4786707382
 20
14.2236197788
 30
0.0
 10
14.486763363
 20
14.226353975
 30
0.0
 10
14.4945245254
 20
14.2333097433
 30
0.0
 10
14.4981340884
 20
14.2396354978
 30
0.0
 10
14.4988641786
 20
14.2463120745
 30
0.0
 10
14.4960675782
 20
14.2522003587
 30
0.0
 10
14.4904202106
 20
14.2558042681
 30
0.0
 10
14.485898284
 20
14.256519509
 30
0.0
 10
14.4835317523
 20
14.256519509
 30
0.0
  0
SPLINE
  5
264
100
AcDbEntity
  8
02___PRT_ALL_AXES
100
AcDbSpline
 62
7
  6
CONTINUOUS
 70
0
 71
3
 72
13
 73
9
 74
0
 42
0.0000001
 43
0.0000001
 44
0.0000000001
 40
0.0
 40
0.0
 40
0.0
 40
0.0
 40
0.2703600349
 40
0.5445159415
 40
0.6724975544
 40
0.7902995281
 40
0.8982514842
 40
1.0
 40
1.0
 40
1.0
 40
1.0
 10
14.4736168689
 20
14.2180000313
 30
0.0
 10
14.4779677906
 20
14.2180000313
 30
0.0
 10
14.4867678218
 20
14.2200733281
 30
0.0
 10
14.4959216235
 20
14.2263821889
 30
0.0
 10
14.5009906415
 20
14.2331234093
 30
0.0
 10
14.5032258691
 20
14.2384392471
 30
0.0
 10
14.5037258161
 20
14.2437770694
 30
0.0
 10
14.5028339411
 20
14.2471271573
 30
0.0
 10
14.5021119507
 20
14.2485968368
 30
0.0
  0
SPLINE
  5
265
100
AcDbEntity
  8
DRAWING
100
AcDbSpline
 62
7
  6
CONTINUOUS
 70
0
 71
3
 72
13
 73
9
 74
0
 42
0.0000001
 43
0.0000001
 44
0.0000000001
 40
0.0
 40
0.0
 40
0.0
 40
0.0
 40
0.2699151183
 40
0.5242591494
 40
0.6465690918
 40
0.7662391894
 40
0.8838435092
 40
1.0
 40
1.0
 40
1.0
 40
1.0
 10
15.6275205955
 20
11.0621518256
 30
0.0
 10
15.6227024064
 20
11.0719702628
 30
0.0
 10
15.6145214568
 20
11.091655261
 30
0.0
 10
15.6080716498
 20
11.1171651073
 30
0.0
 10
15.6055976118
 20
11.1371448776
 30
0.0
 10
15.6050525514
 20
11.1517243832
 30
0.0
 10
15.6057980259
 20
11.166044533
 30
0.0
 10
15.6071595339
 20
11.1754345087
 30
0.0
 10
15.608053685
 20
11.1800554467
 30
0.0
  0
SPLINE
  5
266
100
AcDbEntity
  8
DRAWING
100
AcDbSpline
 62
7
  6
CONTINUOUS
 70
0
 71
3
 72
35
 73
31
 74
0
 42
0.0000001
 43
0.0000001
 44
0.0000000001
 40
0.0
 40
0.0
 40
0.0
 40
0.0
 40
0.0265280232
 40
0.0543764442
 40
0.0835387105
 40
0.1139968938
 40
0.1457027654
 40
0.178575459
 40
0.2125133287
 40
0.2473974379
 40
0.3194278427
 40
0.3934783583
 40
0.4682185587
 40
0.5422799801
 40
0.5786478743
 40
0.6143548898
 40
0.6492527992
 40
0.6832070352
 40
0.7160970239
 40
0.7478220015
 40
0.7783023059
 40
0.8074849253
 40
0.8353473434
 40
0.8619018474
 40
0.8872021959
 40
0.9113457986
 40
0.9344801692
 40
0.9568005242
 40
0.9785483431
 40
1.0
 40
1.0
 40
1.0
 40
1.0
 10
16.4632913415
 20
11.0621518256
 30
0.0
 10
16.4593729178
 20
11.0701367336
 30
0.0
 10
16.450508331
 20
11.0861051386
 30
0.0
 10
16.4347671178
 20
11.1093111182
 30
0.0
 10
16.4163652053
 20
11.1321853642
 30
0.0
 10
16.3954362517
 20
11.1545722229
 30
0.0
 10
16.3721202573
 20
11.1763251865
 30
0.0
 10
16.3465747495
 20
11.1972977611
 30
0.0
 10
16.3189730745
 20
11.217349492
 30
0.0
 10
16.2792592305
 20
11.2429430235
 30
0.0
 10
16.2256901898
 20
11.2716820499
 30
0.0
 10
16.1572370094
 20
11.3001811645
 30
0.0
 10
16.0857533774
 20
11.3223006704
 30
0.0
 10
16.0248741671
 20
11.3350034579
 30
0.0
 10
15.9762829696
 20
11.3414358037
 30
0.0
 10
15.9405165765
 20
11.3443316336
 30
0.0
 10
15.9054555872
 20
11.3453052847
 30
0.0
 10
15.8713371875
 20
11.3443537171
 30
0.0
 10
15.8383927355
 20
11.3414790525
 30
0.0
 10
15.8068449256
 20
11.3367036036
 30
0.0
 10
15.776907028
 20
11.3300557834
 30
0.0
 10
15.748780772
 20
11.3215800308
 30
0.0
 10
15.7226556638
 20
11.3113304412
 30
0.0
 10
15.6987090133
 20
11.2993702227
 30
0.0
 10
15.6771027352
 20
11.2857767693
 30
0.0
 10
15.6579895213
 20
11.270630471
 30
0.0
 10
15.6415037193
 20
11.2540309486
 30
0.0
 10
15.6277737536
 20
11.2360797091
 30
0.0
 10
15.6169061475
 20
11.2169087922
 30
0.0
 10
15.6116162491
 20
11.2033610559
 30
0.0
 10
15.6094924286
 20
11.1964892792
 30
0.0
  0
SPLINE
  5
267
100
AcDbEntity
  8
DRAWING
100
AcDbSpline
 62
7
  6
CONTINUOUS
 70
0
 71
3
 72
15
 73
11
 74
0
 42
0.0000001
 43
0.0000001
 44
0.0000000001
 40
0.0
 40
0.0
 40
0.0
 40
0.0
 40
0.1164334051
 40
0.2337742699
 40
0.3528865338
 40
0.4745754596
 40
0.5995740645
 40
0.7285227927
 40
0.861900504
 40
1.0
 40
1.0
 40
1.0
 40
1.0
 10
16.4789247498
 20
10.927814372
 30
0.0
 10
16.480512384
 20
10.9329512788
 30
0.0
 10
16.4831427237
 20
10.9434468161
 30
0.0
 10
16.4853858577
 20
10.9596167937
 30
0.0
 10
16.4859323133
 20
10.9761758092
 30
0.0
 10
16.484776855
 20
10.9930556436
 30
0.0
 10
16.4819298341
 20
11.0101921664
 30
0.0
 10
16.4774021115
 20
11.0275195729
 30
0.0
 10
16.4712167551
 20
11.0449663383
 30
0.0
 10
16.4661007474
 20
11.0564268583
 30
0.0
 10
16.4632913415
 20
11.0621518256
 30
0.0
  0
SPLINE
  5
268
100
AcDbEntity
  8
DRAWING
100
AcDbSpline
 62
7
  6
CONTINUOUS
 70
0
 71
3
 72
14
 73
10
 74
0
 42
0.0000001
 43
0.0000001
 44
0.0000000001
 40
0.0
 40
0.0
 40
0.0
 40
0.0
 40
0.2703502299
 40
0.3993984087
 40
0.5247334212
 40
0.6468556719
 40
0.7663409277
 40
0.8838272025
 40
1.0
 40
1.0
 40
1.0
 40
1.0
 10
16.4560552564
 20
11.0464852874
 30
0.0
 10
16.4610716156
 20
11.0362630221
 30
0.0
 10
16.4675148595
 20
11.0206396203
 30
0.0
 10
16.4735158708
 20
10.999350229
 30
0.0
 10
16.4765643296
 20
10.983768225
 30
0.0
 10
16.4782202851
 20
10.9683822521
 30
0.0
 10
16.4784744508
 20
10.9532380028
 30
0.0
 10
16.4773266405
 20
10.938386985
 30
0.0
 10
16.4756219886
 20
10.9286755552
 30
0.0
 10
16.4745392032
 20
10.9239038295
 30
0.0
  0
SPLINE
  5
269
100
AcDbEntity
  8
DRAWING
100
AcDbSpline
 62
7
  6
CONTINUOUS
 70
0
 71
3
 72
35
 73
31
 74
0
 42
0.0000001
 43
0.0000001
 44
0.0000000001
 40
0.0
 40
0.0
 40
0.0
 40
0.0
 40
0.0265280232
 40
0.0543764442
 40
0.0835387105
 40
0.1139968938
 40
0.1457027654
 40
0.178575459
 40
0.2125133287
 40
0.2473974379
 40
0.3194278427
 40
0.3934783583
 40
0.4682185587
 40
0.5422799801
 40
0.5786478743
 40
0.6143548898
 40
0.6492527992
 40
0.6832070352
 40
0.7160970239
 40
0.7478220015
 40
0.7783023059
 40
0.8074849253
 40
0.8353473434
 40
0.8619018474
 40
0.8872021959
 40
0.9113457986
 40
0.9344801692
 40
0.9568005242
 40
0.9785483431
 40
1.0
 40
1.0
 40
1.0
 40
1.0
 10
15.6202845105
 20
11.0464852874
 30
0.0
 10
15.6242029342
 20
11.0385003794
 30
0.0
 10
15.6330675209
 20
11.0225319745
 30
0.0
 10
15.6488087342
 20
10.9993259949
 30
0.0
 10
15.6672106466
 20
10.9764517489
 30
0.0
 10
15.6881396003
 20
10.9540648902
 30
0.0
 10
15.7114555946
 20
10.9323119265
 30
0.0
 10
15.7370011024
 20
10.911339352
 30
0.0
 10
15.7646027774
 20
10.8912876211
 30
0.0
 10
15.8043166214
 20
10.8656940896
 30
0.0
 10
15.8578856621
 20
10.8369550632
 30
0.0
 10
15.9263388425
 20
10.8084559486
 30
0.0
 10
15.9978224745
 20
10.7863364427
 30
0.0
 10
16.0587016848
 20
10.7736336552
 30
0.0
 10
16.1072928824
 20
10.7672013094
 30
0.0
 10
16.1430592754
 20
10.7643054795
 30
0.0
 10
16.1781202647
 20
10.7633318283
 30
0.0
 10
16.2122386645
 20
10.764283396
 30
0.0
 10
16.2451831165
 20
10.7671580606
 30
0.0
 10
16.2767309263
 20
10.7719335095
 30
0.0
 10
16.3066688239
 20
10.7785813296
 30
0.0
 10
16.3347950799
 20
10.7870570823
 30
0.0
 10
16.3609201882
 20
10.7973066719
 30
0.0
 10
16.3848668386
 20
10.8092668904
 30
0.0
 10
16.4064731167
 20
10.8228603438
 30
0.0
 10
16.4255863306
 20
10.8380066421
 30
0.0
 10
16.4420721327
 20
10.8546061645
 30
0.0
 10
16.4558020983
 20
10.872557404
 30
0.0
 10
16.4666697045
 20
10.8917283209
 30
0.0
 10
16.4719596028
 20
10.9052760572
 30
0.0
 10
16.4740834233
 20
10.9121478338
 30
0.0
  0
SPLINE
  5
26A
100
AcDbEntity
  8
DRAWING
100
AcDbSpline
 62
7
  6
CONTINUOUS
 70
0
 71
3
 72
34
 73
30
 74
0
 42
0.0000001
 43
0.0000001
 44
0.0000000001
 40
0.0
 40
0.0
 40
0.0
 40
0.0
 40
0.0214822908
 40
0.0434518588
 40
0.066147103
 40
0.0897665095
 40
0.1144643731
 40
0.1403485358
 40
0.1674853596
 40
0.1959003547
 40
0.2255864813
 40
0.2565046635
 40
0.2885917567
 40
0.3217609722
 40
0.3559079959
 40
0.390912007
 40
0.4629257981
 40
0.5366480607
 40
0.6108079547
 40
0.6841117437
 40
0.7553107857
 40
0.7897725512
 40
0.8232973946
 40
0.8557749331
 40
0.8871116635
 40
0.9172333627
 40
0.9460975397
 40
0.9736883906
 40
1.0
 40
1.0
 40
1.0
 40
1.0
 10
16.4707771518
 20
10.9132865653
 30
0.0
 10
16.4679737378
 20
10.9068235723
 30
0.0
 10
16.4613689687
 20
10.8941364218
 30
0.0
 10
16.4488027649
 20
10.876381349
 30
0.0
 10
16.4335931178
 20
10.8598673029
 30
0.0
 10
16.4158552309
 20
10.8447007536
 30
0.0
 10
16.3957092342
 20
10.8309749011
 30
0.0
 10
16.3732924853
 20
10.8187678133
 30
0.0
 10
16.3487492332
 20
10.808156639
 30
0.0
 10
16.322239998
 20
10.7992002697
 30
0.0
 10
16.2939339273
 20
10.7919579181
 30
0.0
 10
16.2640139513
 20
10.7864697656
 30
0.0
 10
16.2326720373
 20
10.7827734772
 30
0.0
 10
16.2001106312
 20
10.7808894
 30
0.0
 10
16.166539027
 20
10.780830794
 30
0.0
 10
16.1202892263
 20
10.7832091508
 30
0.0
 10
16.0613989439
 20
10.7907877521
 30
0.0
 10
15.990969405
 20
10.8067319015
 30
0.0
 10
15.9218954222
 20
10.8292088719
 30
0.0
 10
15.8559547195
 20
10.8576400244
 30
0.0
 10
15.8044490977
 20
10.8860009555
 30
0.0
 10
15.7663096604
 20
10.9111103835
 30
0.0
 10
15.73981438
 20
10.9307221039
 30
0.0
 10
15.7152928768
 20
10.9511883334
 30
0.0
 10
15.692902664
 20
10.9723768468
 30
0.0
 10
15.6727889173
 20
10.9941530303
 30
0.0
 10
15.655079196
 20
11.0163802383
 30
0.0
 10
15.6398968788
 20
11.0389143887
 30
0.0
 10
15.6313218276
 20
11.054405729
 30
0.0
 10
15.6275205955
 20
11.0621518256
 30
0.0
  0
SPLINE
  5
26B
100
AcDbEntity
  8
DRAWING
100
AcDbSpline
 62
7
  6
CONTINUOUS
 70
0
 71
3
 72
15
 73
11
 74
0
 42
0.0000001
 43
0.0000001
 44
0.0000000001
 40
0.0
 40
0.0
 40
0.0
 40
0.0
 40
0.1164334051
 40
0.2337742699
 40
0.3528865338
 40
0.4745754596
 40
0.5995740645
 40
0.7285227927
 40
0.861900504
 40
1.0
 40
1.0
 40
1.0
 40
1.0
 10
15.6046511022
 20
11.1808227411
 30
0.0
 10
15.6030634679
 20
11.1756858342
 30
0.0
 10
15.6004331282
 20
11.165190297
 30
0.0
 10
15.5981899942
 20
11.1490203194
 30
0.0
 10
15.5976435386
 20
11.1324613039
 30
0.0
 10
15.5987989969
 20
11.1155814695
 30
0.0
 10
15.6016460178
 20
11.0984449467
 30
0.0
 10
15.6061737405
 20
11.0811175402
 30
0.0
 10
15.6123590969
 20
11.0636707748
 30
0.0
 10
15.6174751045
 20
11.0522102548
 30
0.0
 10
15.6202845105
 20
11.0464852874
 30
0.0
  0
SPLINE
  5
26C
100
AcDbEntity
  8
DRAWING
100
AcDbSpline
 62
7
  6
CONTINUOUS
 70
0
 71
3
 72
35
 73
31
 74
0
 42
0.0000001
 43
0.0000001
 44
0.0000000001
 40
0.0
 40
0.0
 40
0.0
 40
0.0
 40
0.0214441722
 40
0.0432465277
 40
0.0656718755
 40
0.0889487266
 40
0.1132590603
 40
0.1387378614
 40
0.1654723362
 40
0.1935070004
 40
0.2228478769
 40
0.2534667609
 40
0.2853074904
 40
0.3182876961
 40
0.3523055864
 40
0.3872401792
 40
0.4229573527
 40
0.4593100878
 40
0.5332726259
 40
0.6078379929
 40
0.6816608894
 40
0.7534363868
 40
0.7881906544
 40
0.8220013951
 40
0.854752368
 40
0.8863444853
 40
0.9166989631
 40
0.9457693889
 40
0.9735385182
 40
1.0
 40
1.0
 40
1.0
 40
1.0
 10
15.6087038129
 20
11.1848410659
 30
0.0
 10
15.611033469
 20
11.1915617001
 30
0.0
 10
15.6167177534
 20
11.2047949955
 30
0.0
 10
15.6280840965
 20
11.2234548447
 30
0.0
 10
15.6422323434
 20
11.2408926049
 30
0.0
 10
15.6590554455
 20
11.2569832336
 30
0.0
 10
15.6784267493
 20
11.2716298475
 30
0.0
 10
15.7002119584
 20
11.2847393426
 30
0.0
 10
15.7242615578
 20
11.2962328845
 30
0.0
 10
15.7504144133
 20
11.3060396434
 30
0.0
 10
15.7784967186
 20
11.3140970492
 30
0.0
 10
15.808321367
 20
11.3203568414
 30
0.0
 10
15.8396906172
 20
11.3247755105
 30
0.0
 10
15.872395268
 20
11.3273287622
 30
0.0
 10
15.9062174098
 20
11.32799594
 30
0.0
 10
15.9409309858
 20
11.3267768492
 30
0.0
 10
15.9763045494
 20
11.3236766458
 30
0.0
 10
16.0243013496
 20
11.3170275606
 30
0.0
 10
16.0843659006
 20
11.3041657358
 30
0.0
 10
16.1548247287
 20
11.2820168183
 30
0.0
 10
16.2222323559
 20
11.2536458371
 30
0.0
 10
16.2749515953
 20
11.225133765
 30
0.0
 10
16.3140210343
 20
11.1997888757
 30
0.0
 10
16.3411707597
 20
11.1799511654
 30
0.0
 10
16.3662978641
 20
11.1592170455
 30
0.0
 10
16.3892346518
 20
11.1377238301
 30
0.0
 10
16.4098281159
 20
11.1156137191
 30
0.0
 10
16.4279427247
 20
11.093029552
 30
0.0
 10
16.4434485781
 20
11.0701227349
 30
0.0
 10
16.4521885309
 20
11.0543648457
 30
0.0
 10
16.4560552564
 20
11.0464852874
 30
0.0
  0
SPLINE
  5
26D
100
AcDbEntity
  8
DRAWING
100
AcDbSpline
 62
7
  6
CONTINUOUS
 70
0
 71
3
 72
15
 73
11
 74
0
 42
0.0000001
 43
0.0000001
 44
0.0000000001
 40
0.0
 40
0.0
 40
0.0
 40
0.0
 40
0.138099496
 40
0.2714772073
 40
0.4004259355
 40
0.5254245404
 40
0.6471134662
 40
0.7662257301
 40
0.8835665949
 40
1.0
 40
1.0
 40
1.0
 40
1.0
 10
15.622679269
 20
11.0464852874
 30
0.0
 10
15.6198859169
 20
11.0521775407
 30
0.0
 10
15.6147991435
 20
11.063572572
 30
0.0
 10
15.608649132
 20
11.0809196416
 30
0.0
 10
15.6041472821
 20
11.0981480344
 30
0.0
 10
15.6013165298
 20
11.1151866342
 30
0.0
 10
15.6001676742
 20
11.1319700123
 30
0.0
 10
15.6007110072
 20
11.1484344049
 30
0.0
 10
15.6029413233
 20
11.1645119826
 30
0.0
 10
15.6055566325
 20
11.1749475454
 30
0.0
 10
15.6071351945
 20
11.1800550985
 30
0.0
  0
SPLINE
  5
26E
100
AcDbEntity
  8
DRAWING
100
AcDbSpline
 62
7
  6
CONTINUOUS
 70
0
 71
3
 72
34
 73
30
 74
0
 42
0.0000001
 43
0.0000001
 44
0.0000000001
 40
0.0
 40
0.0
 40
0.0
 40
0.0
 40
0.0263128619
 40
0.0539052001
 40
0.0827710956
 40
0.1128947331
 40
0.14423359
 40
0.1767134058
 40
0.2102406321
 40
0.2447048383
 40
0.3159087035
 40
0.3892168624
 40
0.463380211
 40
0.5371045874
 40
0.6091188028
 40
0.6441223198
 40
0.6782683581
 40
0.7114360908
 40
0.7435212253
 40
0.7744370002
 40
0.8041203301
 40
0.8325322155
 40
0.8596657242
 40
0.8855465092
 40
0.9102410993
 40
0.9338575507
 40
0.9565503801
 40
0.9785183234
 40
1.0
 40
1.0
 40
1.0
 40
1.0
 10
16.458450015
 20
11.0464852874
 30
0.0
 10
16.4546263918
 20
11.0542770122
 30
0.0
 10
16.4460006893
 20
11.0698596008
 30
0.0
 10
16.4307284338
 20
11.0925263608
 30
0.0
 10
16.4129135765
 20
11.1148842857
 30
0.0
 10
16.3926802584
 20
11.1367884054
 30
0.0
 10
16.3701568368
 20
11.1581012382
 30
0.0
 10
16.3454893856
 20
11.1786873345
 30
0.0
 10
16.3188364066
 20
11.1984136674
 30
0.0
 10
16.2804700576
 20
11.223669399
 30
0.0
 10
16.2286583353
 20
11.2521946446
 30
0.0
 10
16.1623264499
 20
11.2807887885
 30
0.0
 10
16.0928438715
 20
11.3033923395
 30
0.0
 10
16.0219993292
 20
11.3194232375
 30
0.0
 10
15.962763387
 20
11.3270394309
 30
0.0
 10
15.916243387
 20
11.3294254529
 30
0.0
 10
15.8824766148
 20
11.3293615278
 30
0.0
 10
15.8497267258
 20
11.3274611297
 30
0.0
 10
15.8182042819
 20
11.3237376687
 30
0.0
 10
15.7881129531
 20
11.3182116168
 30
0.0
 10
15.7596458538
 20
11.310920933
 30
0.0
 10
15.7329870098
 20
11.3019060605
 30
0.0
 10
15.7083065693
 20
11.2912266143
 30
0.0
 10
15.6857659947
 20
11.2789418904
 30
0.0
 10
15.6655103937
 20
11.2651295183
 30
0.0
 10
15.6476779011
 20
11.2498681202
 30
0.0
 10
15.6323893856
 20
11.2332514625
 30
0.0
 10
15.619760649
 20
11.2153867807
 30
0.0
 10
15.613125402
 20
11.2026220857
 30
0.0
 10
15.6103097405
 20
11.1961197623
 30
0.0
  0
SPLINE
  5
26F
100
AcDbEntity
  8
DRAWING
100
AcDbSpline
 62
7
  6
CONTINUOUS
 70
0
 71
3
 72
35
 73
31
 74
0
 42
0.0000001
 43
0.0000001
 44
0.0000000001
 40
0.0
 40
0.0
 40
0.0
 40
0.0
 40
0.0214516569
 40
0.0431994758
 40
0.0655198308
 40
0.0886542014
 40
0.1127978041
 40
0.1380981526
 40
0.1646526566
 40
0.1925150747
 40
0.2216976941
 40
0.2521779985
 40
0.2839029761
 40
0.3167929648
 40
0.3507472008
 40
0.3856451102
 40
0.4213521257
 40
0.4577200199
 40
0.5317814413
 40
0.6065216417
 40
0.6805721573
 40
0.7526025621
 40
0.7874866713
 40
0.821424541
 40
0.8542972346
 40
0.8860031062
 40
0.9164612895
 40
0.9456235558
 40
0.9734719768
 40
1.0
 40
1.0
 40
1.0
 40
1.0
 10
16.471599331
 20
10.9129154764
 30
0.0
 10
16.4694876466
 20
10.9060829671
 30
0.0
 10
16.4642279762
 20
10.8926126464
 30
0.0
 10
16.4534224707
 20
10.8735512776
 30
0.0
 10
16.439770962
 20
10.8557026166
 30
0.0
 10
16.4233793645
 20
10.8391979487
 30
0.0
 10
16.404375369
 20
10.8241382006
 30
0.0
 10
16.3828925553
 20
10.8106224241
 30
0.0
 10
16.3590827429
 20
10.7987305497
 30
0.0
 10
16.333106921
 20
10.7885395292
 30
0.0
 10
16.3051413864
 20
10.7801122094
 30
0.0
 10
16.2753745625
 20
10.7735023768
 30
0.0
 10
16.2440070259
 20
10.7687542162
 30
0.0
 10
16.2112508279
 20
10.7658959782
 30
0.0
 10
16.1773273905
 20
10.7649498481
 30
0.0
 10
16.1424667496
 20
10.7659179355
 30
0.0
 10
16.106904736
 20
10.7687972178
 30
0.0
 10
16.0585912024
 20
10.7751928074
 30
0.0
 10
15.9980598733
 20
10.7878230075
 30
0.0
 10
15.9269847192
 20
10.8098161162
 30
0.0
 10
15.8589226998
 20
10.8381523788
 30
0.0
 10
15.8056597679
 20
10.8667271822
 30
0.0
 10
15.7661728602
 20
10.8921744649
 30
0.0
 10
15.738728909
 20
10.9121116145
 30
0.0
 10
15.7133293756
 20
10.9329643457
 30
0.0
 10
15.6901466155
 20
10.9545930067
 30
0.0
 10
15.6693372558
 20
10.9768519405
 30
0.0
 10
15.6510404972
 20
10.9995954765
 30
0.0
 10
15.6353892337
 20
11.0226688505
 30
0.0
 10
15.6265753018
 20
11.0385460075
 30
0.0
 10
15.622679269
 20
11.0464852874
 30
0.0
  0
SPLINE
  5
270
100
AcDbEntity
  8
DRAWING
100
AcDbSpline
 62
7
  6
CONTINUOUS
 70
0
 71
3
 72
13
 73
9
 74
0
 42
0.0000001
 43
0.0000001
 44
0.0000000001
 40
0.0
 40
0.0
 40
0.0
 40
0.0
 40
0.1161568298
 40
0.2337591423
 40
0.3534261297
 40
0.4757330407
 40
0.7300751453
 40
1.0
 40
1.0
 40
1.0
 40
1.0
 10
16.4780114633
 20
10.9278145863
 30
0.0
 10
16.4789142354
 20
10.9324650073
 30
0.0
 10
16.48028989
 20
10.9419151646
 30
0.0
 10
16.48104703
 20
10.956327811
 30
0.0
 10
16.4805041307
 20
10.9710019312
 30
0.0
 10
16.4780201381
 20
10.9911119429
 30
0.0
 10
16.4715329864
 20
11.0167890579
 30
0.0
 10
16.4632996744
 20
11.0366027207
 30
0.0
 10
16.458450015
 20
11.0464852874
 30
0.0
  0
ENDSEC
  0
SECTION
  2
OBJECTS
  0
DICTIONARY
  5
C
100
AcDbDictionary
280
0
281
1
  3
ACAD_GROUP
350
D
  3
ACAD_MLINESTYLE
350
17
  3
ACAD_LAYOUT
350
1A
  3
ACAD_PLOTSETTINGS
350
19
  3
ACAD_PLOTSTYLENAME
350
E
  0
DICTIONARY
  5
D
102
{ACAD_REACTORS
330
C
102
}
100
AcDbDictionary
280
0
281
1
  0
ACDBDICTIONARYWDFLT
  5
E
102
{ACAD_REACTORS
330
C
102
}
100
AcDbDictionary
281
1
  3
Normal
350
F
100
AcDbDictionaryWithDefault
340
F
  0
DICTIONARY
  5
17
102
{ACAD_REACTORS
330
C
102
}
100
AcDbDictionary
280
0
281
1
  3
Standard
350
18
  0
DICTIONARY
  5
19
102
{ACAD_REACTORS
330
C
102
}
100
AcDbDictionary
281
1
  0
DICTIONARY
  5
1A
102
{ACAD_REACTORS
330
C
102
}
100
AcDbDictionary
281
1
  3
Model
350
271
  3
Layout1
350
272
  0
ACDBPLACEHOLDER
  5
F
102
{ACAD_REACTORS
330
E
102
}
  0
MLINESTYLE
  5
18
102
{ACAD_REACTORS
330
17
102
}
100
AcDbMlineStyle
  2
STANDARD
 70
0
  3

 62
256
 51
90.0
 52
90.0
 71
2
 49
0.5
 62
256
  6
BYLAYER
 49
-0.5
 62
256
  6
BYLAYER
  0
LAYOUT
  5
271
102
{ACAD_REACTORS
330
1A
102
}
100
AcDbPlotSettings
  1

  2
none_device
  4
ANSI_C_(22.00_x_17.00_Inches)
  6

 40
0.0
 41
0.0
 42
0.0
 43
0.0
 44
558.8
 45
431.8
 46
0.0
 47
0.0
 48
0.0
 49
0.0
140
0.0
141
0.0
142
1.0
143
1.0
 70
1024
 72
0
 73
0
 74
0
  7

 75
0
147
1.0
148
0.0
149
0.0
100
AcDbLayout
  1
Model
 70
0
 71
0
 10
0.0
 20
0.0
 11
22.0
 21
17.0
 12
0.0
 22
0.0
 32
0.0
 14
0.0
 24
0.0
 34
0.0
 15
0.0
 25
0.0
 35
0.0
146
0.0
 13
0.0
 23
0.0
 33
0.0
 16
1.0
 26
0.0
 36
0.0
 17
0.0
 27
1.0
 37
0.0
 76
0
330
218
345
0
346
0
  0
LAYOUT
  5
272
102
{ACAD_REACTORS
330
1A
102
}
100
AcDbPlotSettings
  1

  2
none_device
  4
ANSI_C_(22.00_x_17.00_Inches)
  6

 40
0.0
 41
0.0
 42
0.0
 43
0.0
 44
558.8
 45
431.8
 46
0.0
 47
0.0
 48
0.0
 49
0.0
140
0.0
141
0.0
142
1.0
143
1.0
 70
0
 72
0
 73
0
 74
0
  7

 75
0
147
1.0
148
0.0
149
0.0
100
AcDbLayout
  1
Layout1
 70
0
 71
1
 10
0.0
 20
0.0
 11
22.0
 21
17.0
 12
0.0
 22
0.0
 32
0.0
 14
0.0
 24
0.0
 34
0.0
 15
0.0
 25
0.0
 35
0.0
146
0.0
 13
0.0
 23
0.0
 33
0.0
 16
1.0
 26
0.0
 36
0.0
 17
0.0
 27
1.0
 37
0.0
 76
0
330
219
345
0
346
0
  0
ENDSEC
  0
EOF