999
DXF file: _cgs_temp_output.dxf
999
Pro/ENGINEER 2016360 by Parametric Technology Corporation
  0
SECTION
  2
HEADER
  9
$ACADVER
  1
AC1021
  9
$DWGCODEPAGE
  3
ANSI_1252
  9
$EXTMAX
 10
22.0
 20
17.0
 30
0.0
  9
$EXTMIN
 10
0.0
 20
0.0
 30
0.0
  9
$LIMMIN
 10
0.0
 20
0.0
  9
$LIMMAX
 10
22.0
 20
17.0
  9
$VIEWCTR
 10
11.0
 20
8.5
  9
$VIEWSIZE
 40
17.0
  9
$CLAYER
  8
0
  9
$LTSCALE
 40
1.21
  9
$CELTYPE
  6
BYLAYER
  9
$DIMSCALE
 40
1.0
  9
$DIMASZ
 40
0.1875
  9
$DIMEXO
 40
0.0625
  9
$DIMDLI
 40
0.836
  9
$DIMEXE
 40
0.125
  9
$DIMCEN
 40
0.198
  9
$DIMLFAC
 40
1.0
  9
$DIMBLK
  1
_CLOSED
  9
$DIMALT
 70
0
  9
$DIMALTF
 40
25.4
  9
$DIMTXT
 40
0.15625
  9
$DIMTOL
 70
0
  9
$DIMLIM
 70
0
  9
$DIMTFAC
 40
1.0
  9
$DIMGAP
 40
0.09
  9
$DIMDSEP
 70
46
  9
$AUNITS
 70
0
  9
$PDMODE
 70
3
  9
$PDSIZE
 40
0.3125
  9
$HANDSEED
  5
27A
  9
$TILEMODE
 70
1
  9
$MEASUREMENT
 70
0
  9
$INSUNITS
 70
1
  0
ENDSEC
  0
SECTION
  2
CLASSES
  0
CLASS
  1
ACDBDICTIONARYWDFLT
  2
AcDbDictionaryWithDefault
  3
AutoCAD 2000
 90
0
 91
1
280
0
281
0
  0
CLASS
  1
ACDBPLACEHOLDER
  2
AcDbPlaceHolder
  3
AutoCAD 2000
 90
0
 91
1
280
0
281
0
  0
CLASS
  1
LAYOUT
  2
AcDbLayout
  3
AutoCAD 2000
 90
0
 91
0
280
0
281
0
  0
ENDSEC
  0
SECTION
  2
TABLES
  0
TABLE
  2
VPORT
  5
8
100
AcDbSymbolTable
 70
2
  0
VPORT
  5
1F4
100
AcDbSymbolTableRecord
100
AcDbViewportTableRecord
  2
*ACTIVE
 70
0
 10
0.0
 20
0.0
 11
1.0
 21
1.0
 12
11.0
 22
8.5
 13
0.0
 23
0.0
 14
1.0
 24
1.0
 15
0.0
 25
0.0
 16
0.0
 26
0.0
 36
1.0
 17
0.0
 27
0.0
 37
0.0
 40
17.0
 41
1.2941176471
 42
50.0
 43
0.0
 44
0.0
 50
0.0
 51
0.0
 71
0
 72
100
 73
1
 74
1
 75
0
 76
0
 77
0
 78
0
  0
ENDTAB
  0
TABLE
  2
LTYPE
  5
5
100
AcDbSymbolTable
 70
6
  0
LTYPE
  5
14
100
AcDbSymbolTableRecord
100
AcDbLinetypeTableRecord
  2
BYBLOCK
 70
0
  3

 72
65
 73
0
 40
0.0
  0
LTYPE
  5
15
100
AcDbSymbolTableRecord
100
AcDbLinetypeTableRecord
  2
BYLAYER
 70
0
  3

 72
65
 73
0
 40
0.0
  0
LTYPE
  5
16
100
AcDbSymbolTableRecord
100
AcDbLinetypeTableRecord
  2
CONTINUOUS
 70
64
  3
Solid line
 72
65
 73
0
 40
0.0
  0
LTYPE
  5
1F5
100
AcDbSymbolTableRecord
100
AcDbLinetypeTableRecord
  2
CENTER
 70
64
  3
____ _ ____ _ ____ _ ____ _ ____ _ ____ _ ____
 72
65
 73
4
 40
0.6
 49
0.375
 74
0
 49
-0.075
 74
0
 49
0.075
 74
0
 49
-0.075
 74
0
  0
LTYPE
  5
1F6
100
AcDbSymbolTableRecord
100
AcDbLinetypeTableRecord
  2
HIDDEN
 70
64
  3
- - - - - - - - - - - - - - - - - - - -
 72
65
 73
2
 40
0.2
 49
0.1
 74
0
 49
-0.1
 74
0
  0
LTYPE
  5
1F7
100
AcDbSymbolTableRecord
100
AcDbLinetypeTableRecord
  2
PHANTOM
 70
64
  3
_____ _ _ _____ _ _ _____ _ _ _____
 72
65
 73
6
 40
0.8
 49
0.45
 74
0
 49
-0.05
 74
0
 49
0.1
 74
0
 49
-0.05
 74
0
 49
0.1
 74
0
 49
-0.05
 74
0
  0
LTYPE
  5
1F8
100
AcDbSymbolTableRecord
100
AcDbLinetypeTableRecord
  2
DOT
 70
64
  3
. . . . . . . . . . . . . . . . . . . .
 72
65
 73
2
 40
0.2
 49
0.1
 74
0
 49
-0.1
 74
0
  0
LTYPE
  5
1F9
100
AcDbSymbolTableRecord
100
AcDbLinetypeTableRecord
  2
DASHED
 70
64
  3
- - - - - - - - - - - - - - - - - - - -
 72
65
 73
2
 40
0.2
 49
0.1
 74
0
 49
-0.1
 74
0
  0
ENDTAB
  0
TABLE
  2
LAYER
  5
2
100
AcDbSymbolTable
 70
36
  0
LAYER
  5
10
100
AcDbSymbolTableRecord
100
AcDbLayerTableRecord
  2
0
 70
0
 62
7
  6
CONTINUOUS
370
-3
390
F
  0
LAYER
  5
1FA
100
AcDbSymbolTableRecord
100
AcDbLayerTableRecord
  2
DEFAULT_1
 70
0
 62
7
  6
CENTER
370
-3
390
F
  0
LAYER
  5
1FB
100
AcDbSymbolTableRecord
100
AcDbLayerTableRecord
  2
DEFAULT_2
 70
0
 62
8
  6
HIDDEN
370
-3
390
F
  0
LAYER
  5
1FC
100
AcDbSymbolTableRecord
100
AcDbLayerTableRecord
  2
DEFAULT_3
 70
0
 62
7
  6
PHANTOM
370
-3
390
F
  0
LAYER
  5
1FD
100
AcDbSymbolTableRecord
100
AcDbLayerTableRecord
  2
01_ALL_DTM_PLN
 70
0
 62
7
  6
CONTINUOUS
370
-3
390
F
  0
LAYER
  5
1FE
100
AcDbSymbolTableRecord
100
AcDbLayerTableRecord
  2
01__ASM_ALL_DTM_PLN
 70
0
 62
7
  6
CONTINUOUS
370
-3
390
F
  0
LAYER
  5
1FF
100
AcDbSymbolTableRecord
100
AcDbLayerTableRecord
  2
01__ASM_DEF_DTM_PLN
 70
0
 62
7
  6
CONTINUOUS
370
-3
390
F
  0
LAYER
  5
200
100
AcDbSymbolTableRecord
100
AcDbLayerTableRecord
  2
01___PRT_ALL_DTM_PLN
 70
0
 62
7
  6
CONTINUOUS
370
-3
390
F
  0
LAYER
  5
201
100
AcDbSymbolTableRecord
100
AcDbLayerTableRecord
  2
01___PRT_DEF_DTM_PLN
 70
0
 62
7
  6
CONTINUOUS
370
-3
390
F
  0
LAYER
  5
202
100
AcDbSymbolTableRecord
100
AcDbLayerTableRecord
  2
02_ALL_AXES
 70
0
 62
7
  6
CONTINUOUS
370
-3
390
F
  0
LAYER
  5
203
100
AcDbSymbolTableRecord
100
AcDbLayerTableRecord
  2
02__ASM_ALL_AXES
 70
0
 62
7
  6
CONTINUOUS
370
-3
390
F
  0
LAYER
  5
204
100
AcDbSymbolTableRecord
100
AcDbLayerTableRecord
  2
02___PRT_ALL_AXES
 70
0
 62
7
  6
CONTINUOUS
370
-3
390
F
  0
LAYER
  5
205
100
AcDbSymbolTableRecord
100
AcDbLayerTableRecord
  2
03_ALL_CURVES
 70
0
 62
7
  6
CONTINUOUS
370
-3
390
F
  0
LAYER
  5
206
100
AcDbSymbolTableRecord
100
AcDbLayerTableRecord
  2
03__ASM_ALL_CURVES
 70
0
 62
7
  6
CONTINUOUS
370
-3
390
F
  0
LAYER
  5
207
100
AcDbSymbolTableRecord
100
AcDbLayerTableRecord
  2
03___PRT_ALL_CURVES
 70
0
 62
7
  6
CONTINUOUS
370
-3
390
F
  0
LAYER
  5
208
100
AcDbSymbolTableRecord
100
AcDbLayerTableRecord
  2
04_ALL_DTM_PNT
 70
0
 62
7
  6
CONTINUOUS
370
-3
390
F
  0
LAYER
  5
209
100
AcDbSymbolTableRecord
100
AcDbLayerTableRecord
  2
04__ASM_ALL_DTM_PNT
 70
0
 62
7
  6
CONTINUOUS
370
-3
390
F
  0
LAYER
  5
20A
100
AcDbSymbolTableRecord
100
AcDbLayerTableRecord
  2
04___PRT_ALL_DTM_PNT
 70
0
 62
7
  6
CONTINUOUS
370
-3
390
F
  0
LAYER
  5
20B
100
AcDbSymbolTableRecord
100
AcDbLayerTableRecord
  2
05_ALL_DTM_CSYS
 70
0
 62
7
  6
CONTINUOUS
370
-3
390
F
  0
LAYER
  5
20C
100
AcDbSymbolTableRecord
100
AcDbLayerTableRecord
  2
05__ASM_ALL_DTM_CSYS
 70
0
 62
7
  6
CONTINUOUS
370
-3
390
F
  0
LAYER
  5
20D
100
AcDbSymbolTableRecord
100
AcDbLayerTableRecord
  2
05__ASM_DEF_DTM_CSYS
 70
0
 62
7
  6
CONTINUOUS
370
-3
390
F
  0
LAYER
  5
20E
100
AcDbSymbolTableRecord
100
AcDbLayerTableRecord
  2
05___PRT_ALL_DTM_CSYS
 70
0
 62
7
  6
CONTINUOUS
370
-3
390
F
  0
LAYER
  5
20F
100
AcDbSymbolTableRecord
100
AcDbLayerTableRecord
  2
05___PRT_DEF_DTM_CSYS
 70
0
 62
7
  6
CONTINUOUS
370
-3
390
F
  0
LAYER
  5
210
100
AcDbSymbolTableRecord
100
AcDbLayerTableRecord
  2
06_ALL_SURFS
 70
0
 62
7
  6
CONTINUOUS
370
-3
390
F
  0
LAYER
  5
211
100
AcDbSymbolTableRecord
100
AcDbLayerTableRecord
  2
06__ASM_ALL_SURFS
 70
0
 62
7
  6
CONTINUOUS
370
-3
390
F
  0
LAYER
  5
212
100
AcDbSymbolTableRecord
100
AcDbLayerTableRecord
  2
06___PRT_ALL_SURFS
 70
0
 62
7
  6
CONTINUOUS
370
-3
390
F
  0
LAYER
  5
213
100
AcDbSymbolTableRecord
100
AcDbLayerTableRecord
  2
07__ASM_ALL_SKELETONS
 70
0
 62
7
  6
CONTINUOUS
370
-3
390
F
  0
LAYER
  5
214
100
AcDbSymbolTableRecord
100
AcDbLayerTableRecord
  2
DRAWING
 70
0
 62
7
  6
CONTINUOUS
370
-3
390
F
  0
LAYER
  5
215
100
AcDbSymbolTableRecord
100
AcDbLayerTableRecord
  2
SHELL
 70
0
 62
7
  6
CONTINUOUS
370
-3
390
F
  0
ENDTAB
  0
TABLE
  2
STYLE
  5
3
100
AcDbSymbolTable
 70
1
  0
STYLE
  5
11
100
AcDbSymbolTableRecord
100
AcDbTextStyleTableRecord
  2
STANDARD
 70
0
 40
0.0
 41
0.8
 50
0.0
 71
0
 42
0.2
  3
txt
  4

  0
STYLE
  5
216
100
AcDbSymbolTableRecord
100
AcDbTextStyleTableRecord
  2
TEXTSTYLE_1
 70
0
 40
0.0
 41
0.8
 50
0.0
 71
0
 42
0.2
  3
gdt
  4

  0
ENDTAB
  0
TABLE
  2
VIEW
  5
6
100
AcDbSymbolTable
 70
0
  0
ENDTAB
  0
TABLE
  2
UCS
  5
7
100
AcDbSymbolTable
 70
0
  0
ENDTAB
  0
TABLE
  2
APPID
  5
9
100
AcDbSymbolTable
 70
1
  0
APPID
  5
217
100
AcDbSymbolTableRecord
100
AcDbRegAppTableRecord
  2
ACAD
 70
0
  0
ENDTAB
  0
TABLE
  2
BLOCK_RECORD
  5
1
100
AcDbSymbolTable
 70
0
  0
BLOCK_RECORD
  5
218
100
AcDbSymbolTableRecord
100
AcDbBlockTableRecord
  2
*Model_Space
  0
BLOCK_RECORD
  5
219
100
AcDbSymbolTableRecord
100
AcDbBlockTableRecord
  2
*Paper_Space
  0
ENDTAB
  0
TABLE
  2
DIMSTYLE
  5
A
100
AcDbSymbolTable
 70
1
100
AcDbDimStyleTable
 71
0
  0
DIMSTYLE
105
21A
100
AcDbSymbolTableRecord
100
AcDbDimStyleTableRecord
  2
STANDARD
 70
0
  3

  4

 40
1.0
 41
0.1875
 42
0.0625
 43
0.38
 44
0.125
 45
0.0
 46
0.0
 47
0.0001
 48
0.0001
140
0.15625
141
0.09
142
0.0
143
25.4
144
1.0
145
0.0
146
1.0
147
0.09
 71
0.0
 72
0.0
 73
1
 74
1
 75
0
 76
0
 77
0
 78
4
 79
1
170
0
171
3
172
0
173
0
174
0
175
0
176
0
177
0
178
0
270
2
179
4
271
4
272
4
273
2
274
2
275
0
280
0
281
0
282
0
283
1
284
4
285
0
286
0
287
3
288
0
340
11
278
46
  0
ENDTAB
  0
ENDSEC
  0
SECTION
  2
BLOCKS
  0
BLOCK
  5
20
100
AcDbEntity
  8
0
100
AcDbBlockBegin
  2
*Model_Space
 70
0
 10
0.0
 20
0.0
 30
0.0
  3
*Model_Space
  1

  0
ENDBLK
  5
21
100
AcDbEntity
  8
0
100
AcDbBlockEnd
  0
BLOCK
  5
1C
100
AcDbEntity
  8
0
100
AcDbBlockBegin
  2
*Paper_Space
 70
0
 10
0.0
 20
0.0
 30
0.0
  3
*Paper_Space
  1

  0
ENDBLK
  5
1D
100
AcDbEntity
  8
0
100
AcDbBlockEnd
  0
ENDSEC
  0
SECTION
  2
ENTITIES
  0
MTEXT
  5
21B
100
AcDbEntity
  8
0
100
AcDbMText
 62
7
  6
CONTINUOUS
  7
STANDARD
 71
1
 72
1
 10
15.9560215477
 20
0.9479130325
 30
0.0
 11
1.0
 21
0.0
 31
0.0
 44
0.9
  1
SCALE: 1:0.167
 40
0.3
 41
3.36
  0
LINE
  5
21C
100
AcDbEntity
  8
0
100
AcDbLine
 62
7
  6
CONTINUOUS
 10
0.0
 20
0.0
 11
0.0
 21
17.0
  0
LINE
  5
21D
100
AcDbEntity
  8
0
100
AcDbLine
 62
7
  6
CONTINUOUS
 10
0.0
 20
0.0
 11
22.0
 21
0.0
  0
LINE
  5
21E
100
AcDbEntity
  8
0
100
AcDbLine
 62
7
  6
CONTINUOUS
 10
0.0
 20
17.0
 11
22.0
 21
17.0
  0
LINE
  5
21F
100
AcDbEntity
  8
0
100
AcDbLine
 62
7
  6
CONTINUOUS
 10
22.0
 20
0.0
 11
22.0
 21
17.0
  0
LINE
  5
220
100
AcDbEntity
  8
02___PRT_ALL_AXES
100
AcDbLine
 62
7
  6
CONTINUOUS
 10
6.1095339428
 20
8.7263698968
 11
6.1128672762
 21
8.7297032301
  0
LINE
  5
221
100
AcDbEntity
  8
02___PRT_ALL_AXES
100
AcDbLine
 62
7
  6
CONTINUOUS
 10
6.1478672762
 20
8.6463698968
 11
6.1512006095
 21
8.6497032301
  0
LINE
  5
222
100
AcDbEntity
  8
02___PRT_ALL_AXES
100
AcDbLine
 62
7
  6
CONTINUOUS
 10
6.1095339428
 20
8.6497032301
 11
6.1095339428
 21
8.7263698968
  0
LINE
  5
223
100
AcDbEntity
  8
02___PRT_ALL_AXES
100
AcDbLine
 62
7
  6
CONTINUOUS
 10
6.1512006095
 20
8.6497032301
 11
6.1512006095
 21
8.7263698968
  0
LINE
  5
224
100
AcDbEntity
  8
02___PRT_ALL_AXES
100
AcDbLine
 62
7
  6
CONTINUOUS
 10
6.1128672762
 20
8.6463698968
 11
6.1095339428
 21
8.6497032301
  0
LINE
  5
225
100
AcDbEntity
  8
02___PRT_ALL_AXES
100
AcDbLine
 62
7
  6
CONTINUOUS
 10
6.1512006095
 20
8.7263698968
 11
6.1478672762
 21
8.7297032301
  0
LINE
  5
226
100
AcDbEntity
  8
02___PRT_ALL_AXES
100
AcDbLine
 62
7
  6
CONTINUOUS
 10
6.1129291312
 20
8.6463698968
 11
6.1478054211
 21
8.6463698968
  0
LINE
  5
227
100
AcDbEntity
  8
02___PRT_ALL_AXES
100
AcDbLine
 62
7
  6
CONTINUOUS
 10
6.1095339428
 20
8.6497032301
 11
6.1512006095
 21
8.6497032301
  0
LINE
  5
228
100
AcDbEntity
  8
02___PRT_ALL_AXES
100
AcDbLine
 62
7
  6
CONTINUOUS
 10
6.1095339428
 20
8.7263698968
 11
6.1512006095
 21
8.7263698968
  0
LINE
  5
229
100
AcDbEntity
  8
02___PRT_ALL_AXES
100
AcDbLine
 62
7
  6
CONTINUOUS
 10
6.1129291312
 20
8.7297032301
 11
6.1478054211
 21
8.7297032301
  0
LINE
  5
22A
100
AcDbEntity
  8
DRAWING
100
AcDbLine
 62
7
  6
CONTINUOUS
 10
5.5892054172
 20
12.6083811147
 11
5.5892054172
 21
12.591714448
  0
LINE
  5
22B
100
AcDbEntity
  8
0
100
AcDbLine
 62
7
  6
CONTINUOUS
 10
6.0650387505
 20
12.6101514111
 11
6.0592054172
 21
12.6000477814
  0
LINE
  5
22C
100
AcDbEntity
  8
0
100
AcDbLine
 62
7
  6
CONTINUOUS
 10
6.0650387505
 20
12.5899441517
 11
6.0767054172
 21
12.5899441517
  0
LINE
  5
22D
100
AcDbEntity
  8
DRAWING
100
AcDbLine
 62
7
  6
CONTINUOUS
 10
6.5525387505
 20
12.591714448
 11
6.089308615
 21
12.591714448
  0
LINE
  5
22E
100
AcDbEntity
  8
DRAWING
100
AcDbLine
 62
7
  6
CONTINUOUS
 10
6.0524355527
 20
12.591714448
 11
5.5892054172
 21
12.591714448
  0
LINE
  5
22F
100
AcDbEntity
  8
0
100
AcDbLine
 62
7
  6
CONTINUOUS
 10
6.0592054172
 20
12.6000477814
 11
6.0650387505
 21
12.5899441517
  0
LINE
  5
230
100
AcDbEntity
  8
0
100
AcDbLine
 62
7
  6
CONTINUOUS
 10
6.0767054172
 20
12.5899441517
 11
6.0825387505
 21
12.6000477814
  0
LINE
  5
231
100
AcDbEntity
  8
DRAWING
100
AcDbLine
 62
7
  6
CONTINUOUS
 10
6.5525387505
 20
12.6083811147
 11
6.089308615
 21
12.6083811147
  0
LINE
  5
232
100
AcDbEntity
  8
DRAWING
100
AcDbLine
 62
7
  6
CONTINUOUS
 10
6.0524355527
 20
12.6083811147
 11
5.5892054172
 21
12.6083811147
  0
LINE
  5
233
100
AcDbEntity
  8
0
100
AcDbLine
 62
7
  6
CONTINUOUS
 10
6.0767054172
 20
12.6101514111
 11
6.0650387505
 21
12.6101514111
  0
LINE
  5
234
100
AcDbEntity
  8
0
100
AcDbLine
 62
7
  6
CONTINUOUS
 10
6.0825387505
 20
12.6000477814
 11
6.0767054172
 21
12.6101514111
  0
LINE
  5
235
100
AcDbEntity
  8
DRAWING
100
AcDbLine
 62
7
  6
CONTINUOUS
 10
6.5525387505
 20
12.6083811147
 11
6.5525387505
 21
12.591714448
  0
LINE
  5
236
100
AcDbEntity
  8
DRAWING
100
AcDbLine
 62
7
  6
CONTINUOUS
 10
15.5686885903
 20
2.2510413711
 11
15.5520219236
 21
2.2510413711
  0
LINE
  5
237
100
AcDbEntity
  8
02___PRT_ALL_AXES
100
AcDbLine
 62
7
  6
CONTINUOUS
 10
15.5428552569
 20
8.6702080378
 11
15.5395219236
 21
8.6668747044
  0
LINE
  5
238
100
AcDbEntity
  8
02___PRT_ALL_AXES
100
AcDbLine
 62
7
  6
CONTINUOUS
 10
15.5811885903
 20
8.5902080378
 11
15.5778552569
 21
8.5868747044
  0
LINE
  5
239
100
AcDbEntity
  8
DRAWING
100
AcDbLine
 62
7
  6
CONTINUOUS
 10
15.5686885903
 20
3.2143747044
 11
15.5520219236
 21
3.2143747044
  0
LINE
  5
23A
100
AcDbEntity
  8
02___PRT_ALL_AXES
100
AcDbLine
 62
7
  6
CONTINUOUS
 10
15.5395219236
 20
8.6668747044
 11
15.5395219236
 21
8.5902080378
  0
LINE
  5
23B
100
AcDbEntity
  8
DRAWING
100
AcDbLine
 62
7
  6
CONTINUOUS
 10
15.5520219236
 20
2.2510470149
 11
15.5520219236
 21
3.2143690607
  0
LINE
  5
23C
100
AcDbEntity
  8
DRAWING
100
AcDbLine
 62
7
  6
CONTINUOUS
 10
15.5686885903
 20
2.2510470149
 11
15.5686885903
 21
3.2143690607
  0
LINE
  5
23D
100
AcDbEntity
  8
02___PRT_ALL_AXES
100
AcDbLine
 62
7
  6
CONTINUOUS
 10
15.5811885903
 20
8.6668747044
 11
15.5811885903
 21
8.5902080378
  0
LINE
  5
23E
100
AcDbEntity
  8
02___PRT_ALL_AXES
100
AcDbLine
 62
7
  6
CONTINUOUS
 10
15.5395219236
 20
8.5902080378
 11
15.5428552569
 21
8.5868747044
  0
LINE
  5
23F
100
AcDbEntity
  8
02___PRT_ALL_AXES
100
AcDbLine
 62
7
  6
CONTINUOUS
 10
15.5778552569
 20
8.6702080378
 11
15.5811885903
 21
8.6668747044
  0
LINE
  5
240
100
AcDbEntity
  8
02___PRT_ALL_AXES
100
AcDbLine
 62
7
  6
CONTINUOUS
 10
15.5428552569
 20
8.5868747044
 11
15.5778552569
 21
8.5868747044
  0
LINE
  5
241
100
AcDbEntity
  8
02___PRT_ALL_AXES
100
AcDbLine
 62
7
  6
CONTINUOUS
 10
15.5395219236
 20
8.5902080378
 11
15.5811885903
 21
8.5902080378
  0
LINE
  5
242
100
AcDbEntity
  8
02___PRT_ALL_AXES
100
AcDbLine
 62
7
  6
CONTINUOUS
 10
15.5395219236
 20
8.6668747044
 11
15.5811885903
 21
8.6668747044
  0
LINE
  5
243
100
AcDbEntity
  8
02___PRT_ALL_AXES
100
AcDbLine
 62
7
  6
CONTINUOUS
 10
15.5428552569
 20
8.6702080378
 11
15.5778552569
 21
8.6702080378
  0
LINE
  5
244
100
AcDbEntity
  8
0
100
AcDbLine
 62
7
  6
CONTINUOUS
 10
14.3373580838
 20
14.5095500515
 11
14.3295394795
 21
14.5016356065
  0
LINE
  5
245
100
AcDbEntity
  8
0
100
AcDbLine
 62
7
  6
CONTINUOUS
 10
14.3424421149
 20
14.4991898854
 11
14.337039615
 21
14.4937211614
  0
LINE
  5
246
100
AcDbEntity
  8
0
100
AcDbLine
 62
7
  6
CONTINUOUS
 10
14.3432122984
 20
14.4937211614
 11
14.3510309027
 21
14.5016356065
  0
LINE
  5
247
100
AcDbEntity
  8
0
100
AcDbLine
 62
7
  6
CONTINUOUS
 10
14.3295394795
 20
14.5016356065
 11
14.3324665868
 21
14.4937211614
  0
LINE
  5
248
100
AcDbEntity
  8
0
100
AcDbLine
 62
7
  6
CONTINUOUS
 10
14.3510309027
 20
14.5016356065
 11
14.3481037954
 21
14.5095500515
  0
LINE
  5
249
100
AcDbEntity
  8
02___PRT_ALL_AXES
100
AcDbLine
 62
7
  6
CONTINUOUS
 10
14.3459857976
 20
14.4427288359
 11
14.3225992545
 21
14.4903856001
  0
LINE
  5
24A
100
AcDbEntity
  8
0
100
AcDbLine
 62
7
  6
CONTINUOUS
 10
14.3295394795
 20
14.5016356065
 11
14.333423325
 21
14.4937211614
  0
LINE
  5
24B
100
AcDbEntity
  8
0
100
AcDbLine
 62
7
  6
CONTINUOUS
 10
14.3373580838
 20
14.5095500515
 11
14.3424421149
 21
14.4991898854
  0
LINE
  5
24C
100
AcDbEntity
  8
02___PRT_ALL_AXES
100
AcDbLine
 62
7
  6
CONTINUOUS
 10
14.3833912832
 20
14.4610847821
 11
14.3600047401
 21
14.5087415463
  0
LINE
  5
24D
100
AcDbEntity
  8
DRAWING
100
AcDbLine
 62
7
  6
CONTINUOUS
 10
15.691634351
 20
10.9459281654
 11
15.6917126833
 21
10.9467907681
  0
LINE
  5
24E
100
AcDbEntity
  8
DRAWING
100
AcDbLine
 62
7
  6
CONTINUOUS
 10
15.6915293482
 20
10.9459573959
 11
15.6917126833
 21
10.9467907681
  0
LINE
  5
24F
100
AcDbEntity
  8
DRAWING
100
AcDbLine
 62
7
  6
CONTINUOUS
 10
15.6932941202
 20
10.9595649614
 11
15.6892596815
 21
10.9465095129
  0
LINE
  5
250
100
AcDbEntity
  8
DRAWING
100
AcDbLine
 62
7
  6
CONTINUOUS
 10
16.6112753368
 20
10.6753628104
 11
16.6112298651
 21
10.6748620716
  0
LINE
  5
251
100
AcDbEntity
  8
DRAWING
100
AcDbLine
 62
7
  6
CONTINUOUS
 10
16.6113368214
 20
10.675345645
 11
16.6112298651
 21
10.6748620716
  0
LINE
  5
252
100
AcDbEntity
  8
DRAWING
100
AcDbLine
 62
7
  6
CONTINUOUS
 10
16.6136828669
 20
10.6751433268
 11
16.6096484282
 21
10.6620878783
  0
LINE
  5
253
100
AcDbEntity
  8
DRAWING
100
AcDbLine
 62
7
  6
CONTINUOUS
 10
16.6075027881
 20
10.6630118702
 11
16.6074435701
 21
10.6628658823
  0
LINE
  5
254
100
AcDbEntity
  8
DRAWING
100
AcDbLine
 62
7
  6
CONTINUOUS
 10
16.6068956621
 20
10.6632182571
 11
16.6068358654
 21
10.6630726881
  0
LINE
  5
255
100
AcDbEntity
  8
0
100
AcDbLine
 62
7
  6
CONTINUOUS
 10
14.3324665868
 20
14.4937211614
 11
14.3432122984
 21
14.4937211614
  0
LINE
  5
256
100
AcDbEntity
  8
0
100
AcDbLine
 62
7
  6
CONTINUOUS
 10
14.3486147983
 20
14.4991898854
 11
14.3424421149
 21
14.4991898854
  0
LINE
  5
257
100
AcDbEntity
  8
0
100
AcDbLine
 62
7
  6
CONTINUOUS
 10
14.3481037954
 20
14.5095500515
 11
14.3373580838
 21
14.5095500515
  0
CIRCLE
  5
258
100
AcDbEntity
  8
DRAWING
100
AcDbCircle
 62
7
  6
CONTINUOUS
 10
6.1303672762
 20
2.7922032301
 40
0.4816666667
  0
CIRCLE
  5
259
100
AcDbEntity
  8
DRAWING
100
AcDbCircle
 62
7
  6
CONTINUOUS
 10
6.1303672762
 20
2.7922032301
 40
0.4799166667
  0
CIRCLE
  5
25A
100
AcDbEntity
  8
02___PRT_ALL_AXES
100
AcDbCircle
 62
7
  6
CONTINUOUS
 10
6.0708720839
 20
12.6000477814
 40
0.0208333333
  0
CIRCLE
  5
25B
100
AcDbEntity
  8
02___PRT_ALL_AXES
100
AcDbCircle
 62
7
  6
CONTINUOUS
 10
6.0708720839
 20
12.6000477814
 40
0.0175
  0
ARC
  5
25C
100
AcDbEntity
  8
DRAWING
100
AcDbCircle
 62
7
  6
CONTINUOUS
 10
16.4580206606
 20
10.7089037272
 40
0.1586916816
100
AcDbArc
 50
347.4384271343
 51
347.7302923963
  0
ARC
  5
25D
100
AcDbEntity
  8
DRAWING
100
AcDbCircle
 62
7
  6
CONTINUOUS
 10
15.8406624341
 20
10.8997040138
 40
0.1584721886
100
AcDbArc
 50
157.9081291981
 51
162.8212348105
  0
ARC
  5
25E
100
AcDbEntity
  8
DRAWING
100
AcDbCircle
 62
7
  6
CONTINUOUS
 10
16.4610058318
 20
10.7223547435
 40
0.1580599089
100
AcDbArc
 50
337.9481531243
 51
341.2958611808
  0
ARC
  5
25F
100
AcDbEntity
  8
DRAWING
100
AcDbCircle
 62
7
  6
CONTINUOUS
 10
15.8419367166
 20
10.8992980962
 40
0.1580599089
100
AcDbArc
 50
157.9481531243
 51
161.2958611808
  0
ARC
  5
260
100
AcDbEntity
  8
DRAWING
100
AcDbCircle
 62
7
  6
CONTINUOUS
 10
16.4586406547
 20
10.7087578454
 40
0.158054801
100
AcDbArc
 50
342.8258846614
 51
347.4411633899
  0
ARC
  5
261
100
AcDbEntity
  8
DRAWING
100
AcDbCircle
 62
7
  6
CONTINUOUS
 10
15.8457948748
 20
10.9124582541
 40
0.1578608352
100
AcDbArc
 50
166.274930346
 51
167.4385863611
  0
ARC
  5
262
100
AcDbEntity
  8
DRAWING
100
AcDbCircle
 62
7
  6
CONTINUOUS
 10
16.4571476736
 20
10.7091945857
 40
0.1578608351
100
AcDbArc
 50
346.2749303459
 51
347.4385863612
  0
ARC
  5
263
100
AcDbEntity
  8
DRAWING
100
AcDbCircle
 62
7
  6
CONTINUOUS
 10
16.4575007355
 20
10.7091084171
 40
0.1574974101
100
AcDbArc
 50
342.8264658836
 51
346.2749083267
  0
ARC
  5
264
100
AcDbEntity
  8
DRAWING
100
AcDbCircle
 62
7
  6
CONTINUOUS
 10
15.8413676634
 20
10.8994979572
 40
0.1574568175
100
AcDbArc
 50
161.298343176
 51
162.8253222764
  0
SPLINE
  5
265
100
AcDbEntity
  8
02___PRT_ALL_AXES
100
AcDbSpline
 62
7
  6
CONTINUOUS
 70
0
 71
3
 72
13
 73
9
 74
0
 42
0.0000001
 43
0.0000001
 44
0.0000000001
 40
0.0
 40
0.0
 40
0.0
 40
0.0
 40
0.2702212121
 40
0.5446798886
 40
0.6725193792
 40
0.7902972373
 40
0.8982922355
 40
1.0
 40
1.0
 40
1.0
 40
1.0
 10
14.359645492
 20
14.4355874984
 30
0.0
 10
14.3632690265
 20
14.4355874984
 30
0.0
 10
14.3706023698
 20
14.4373232678
 30
0.0
 10
14.3782301412
 20
14.442573163
 30
0.0
 10
14.3824638326
 20
14.4481905602
 30
0.0
 10
14.3842981805
 20
14.4526256557
 30
0.0
 10
14.3847514891
 20
14.4570706123
 30
0.0
 10
14.3839903516
 20
14.4598595426
 30
0.0
 10
14.3833895118
 20
14.4610839128
 30
0.0
  0
SPLINE
  5
266
100
AcDbEntity
  8
02___PRT_ALL_AXES
100
AcDbSpline
 62
7
  6
CONTINUOUS
 70
0
 71
3
 72
10
 73
6
 74
0
 42
0.0000001
 43
0.0000001
 44
0.0000000001
 40
0.0
 40
0.0
 40
0.0
 40
0.0
 40
0.5322509602
 40
0.7722120775
 40
1.0
 40
1.0
 40
1.0
 40
1.0
 10
14.359645492
 20
14.4355874984
 30
0.0
 10
14.3567839166
 20
14.4355874984
 30
0.0
 10
14.352497151
 20
14.4364204172
 30
0.0
 10
14.3480326194
 20
14.4395433993
 30
0.0
 10
14.3465270934
 20
14.4416302814
 30
0.0
 10
14.345987569
 20
14.4427297052
 30
0.0
  0
SPLINE
  5
267
100
AcDbEntity
  8
02___PRT_ALL_AXES
100
AcDbSpline
 62
7
  6
CONTINUOUS
 70
0
 71
3
 72
10
 73
6
 74
0
 42
0.0000001
 43
0.0000001
 44
0.0000000001
 40
0.0
 40
0.0
 40
0.0
 40
0.0
 40
0.2277879225
 40
0.4677490398
 40
1.0
 40
1.0
 40
1.0
 40
1.0
 10
14.3600029687
 20
14.5087406771
 30
0.0
 10
14.3594634443
 20
14.5098401008
 30
0.0
 10
14.3579579182
 20
14.5119269829
 30
0.0
 10
14.3534933867
 20
14.5150499651
 30
0.0
 10
14.3492066211
 20
14.5158828839
 30
0.0
 10
14.3463450457
 20
14.5158828839
 30
0.0
  0
SPLINE
  5
268
100
AcDbEntity
  8
02___PRT_ALL_AXES
100
AcDbSpline
 62
7
  6
CONTINUOUS
 70
0
 71
3
 72
14
 73
10
 74
0
 42
0.0000001
 43
0.0000001
 44
0.0000000001
 40
0.0
 40
0.0
 40
0.0
 40
0.0
 40
0.1254096009
 40
0.2367990175
 40
0.3412069406
 40
0.4527114492
 40
0.5790948196
 40
0.7188312798
 40
1.0
 40
1.0
 40
1.0
 40
1.0
 10
14.3360490304
 20
14.4879273855
 30
0.0
 10
14.3340769207
 20
14.4879273855
 30
0.0
 10
14.3303086485
 20
14.4885234197
 30
0.0
 10
14.3256025088
 20
14.4915266775
 30
0.0
 10
14.3232720085
 20
14.496433581
 30
0.0
 10
14.3238804169
 20
14.5019973949
 30
0.0
 10
14.3268883862
 20
14.507268857
 30
0.0
 10
14.3333560214
 20
14.5130653306
 30
0.0
 10
14.3400998755
 20
14.5153438274
 30
0.0
 10
14.3445213517
 20
14.5153438274
 30
0.0
  0
SPLINE
  5
269
100
AcDbEntity
  8
02___PRT_ALL_AXES
100
AcDbSpline
 62
7
  6
CONTINUOUS
 70
0
 71
3
 72
10
 73
6
 74
0
 42
0.0000001
 43
0.0000001
 44
0.0000000001
 40
0.0
 40
0.0
 40
0.0
 40
0.0
 40
0.5322509602
 40
0.7722120775
 40
1.0
 40
1.0
 40
1.0
 40
1.0
 10
14.3362589489
 20
14.4832442626
 30
0.0
 10
14.3333973735
 20
14.4832442626
 30
0.0
 10
14.3291106079
 20
14.4840771814
 30
0.0
 10
14.3246460763
 20
14.4872001635
 30
0.0
 10
14.3231405502
 20
14.4892870457
 30
0.0
 10
14.3226010259
 20
14.4903864694
 30
0.0
  0
SPLINE
  5
26A
100
AcDbEntity
  8
02___PRT_ALL_AXES
100
AcDbSpline
 62
7
  6
CONTINUOUS
 70
0
 71
3
 72
14
 73
10
 74
0
 42
0.0000001
 43
0.0000001
 44
0.0000000001
 40
0.0
 40
0.0
 40
0.0
 40
0.0
 40
0.2811687202
 40
0.4209051804
 40
0.5472885508
 40
0.6587930594
 40
0.7632009825
 40
0.8745903991
 40
1.0
 40
1.0
 40
1.0
 40
1.0
 10
14.3360490304
 20
14.4879273855
 30
0.0
 10
14.3404705067
 20
14.4879273855
 30
0.0
 10
14.3472143607
 20
14.4902058824
 30
0.0
 10
14.353681996
 20
14.496002356
 30
0.0
 10
14.3566899652
 20
14.501273818
 30
0.0
 10
14.3572983737
 20
14.5068376319
 30
0.0
 10
14.3549678734
 20
14.5117445355
 30
0.0
 10
14.3502617337
 20
14.5147477932
 30
0.0
 10
14.3464934615
 20
14.5153438274
 30
0.0
 10
14.3445213517
 20
14.5153438274
 30
0.0
  0
SPLINE
  5
26B
100
AcDbEntity
  8
02___PRT_ALL_AXES
100
AcDbSpline
 62
7
  6
CONTINUOUS
 70
0
 71
3
 72
13
 73
9
 74
0
 42
0.0000001
 43
0.0000001
 44
0.0000000001
 40
0.0
 40
0.0
 40
0.0
 40
0.0
 40
0.2702212121
 40
0.5446798886
 40
0.6725193792
 40
0.7902972373
 40
0.8982922355
 40
1.0
 40
1.0
 40
1.0
 40
1.0
 10
14.3362589489
 20
14.4832442626
 30
0.0
 10
14.3398824834
 20
14.4832442626
 30
0.0
 10
14.3472158267
 20
14.484980032
 30
0.0
 10
14.3548435981
 20
14.4902299272
 30
0.0
 10
14.3590772895
 20
14.4958473244
 30
0.0
 10
14.3609116374
 20
14.5002824199
 30
0.0
 10
14.361364946
 20
14.5047273765
 30
0.0
 10
14.3606038084
 20
14.5075163069
 30
0.0
 10
14.3600029687
 20
14.5087406771
 30
0.0
  0
SPLINE
  5
26C
100
AcDbEntity
  8
DRAWING
100
AcDbSpline
 62
7
  6
CONTINUOUS
 70
0
 71
3
 72
13
 73
9
 74
0
 42
0.0000001
 43
0.0000001
 44
0.0000000001
 40
0.0
 40
0.0
 40
0.0
 40
0.0
 40
0.2702692467
 40
0.5245328549
 40
0.6467281954
 40
0.76628396
 40
0.8838193625
 40
1.0
 40
1.0
 40
1.0
 40
1.0
 10
15.7114559715
 20
10.8173541441
 30
0.0
 10
15.7061953801
 20
10.8280741023
 30
0.0
 10
15.6973067218
 20
10.8495703894
 30
0.0
 10
15.6904595328
 20
10.8774488865
 30
0.0
 10
15.6880111535
 20
10.8992520595
 30
0.0
 10
15.6876490528
 20
10.915144768
 30
0.0
 10
15.6887396927
 20
10.9307367888
 30
0.0
 10
15.6904399989
 20
10.9409411709
 30
0.0
 10
15.6915293482
 20
10.9459573959
 30
0.0
  0
SPLINE
  5
26D
100
AcDbEntity
  8
DRAWING
100
AcDbSpline
 62
7
  6
CONTINUOUS
 70
0
 71
3
 72
35
 73
31
 74
0
 42
0.0000001
 43
0.0000001
 44
0.0000000001
 40
0.0
 40
0.0
 40
0.0
 40
0.0
 40
0.0265280232
 40
0.0543764442
 40
0.0835387105
 40
0.1139968938
 40
0.1457027654
 40
0.178575459
 40
0.2125133287
 40
0.2473974379
 40
0.3194278427
 40
0.3934783583
 40
0.4682185587
 40
0.5422799801
 40
0.5786478743
 40
0.6143548898
 40
0.6492527992
 40
0.6832070352
 40
0.7160970239
 40
0.7478220015
 40
0.7783023059
 40
0.8074849253
 40
0.8353473434
 40
0.8619018474
 40
0.8872021959
 40
0.9113457986
 40
0.9344801692
 40
0.9568005242
 40
0.9785483431
 40
1.0
 40
1.0
 40
1.0
 40
1.0
 10
16.5971328723
 20
10.8173541441
 30
0.0
 10
16.5929847974
 20
10.8258070321
 30
0.0
 10
16.5836006745
 20
10.8427113142
 30
0.0
 10
16.5669368993
 20
10.8672773513
 30
0.0
 10
16.5474564865
 20
10.8914922124
 30
0.0
 10
16.5253009274
 20
10.9151911214
 30
0.0
 10
16.5006184279
 20
10.938218984
 30
0.0
 10
16.4735757475
 20
10.9604207205
 30
0.0
 10
16.4443563919
 20
10.9816476444
 30
0.0
 10
16.4023149966
 20
11.008741163
 30
0.0
 10
16.3456063785
 20
11.039164528
 30
0.0
 10
16.27314129
 20
11.0693339204
 30
0.0
 10
16.1974681411
 20
11.0927498076
 30
0.0
 10
16.1330209185
 20
11.1061970808
 30
0.0
 10
16.0815818852
 20
11.1130064139
 30
0.0
 10
16.0437192933
 20
11.1160719628
 30
0.0
 10
16.0066034475
 20
11.1171026777
 30
0.0
 10
15.9704854346
 20
11.1160953406
 30
0.0
 10
15.9356101722
 20
11.1130521974
 30
0.0
 10
15.9022134064
 20
11.1079968687
 30
0.0
 10
15.8705209068
 20
11.1009594328
 30
0.0
 10
15.8407462255
 20
11.0919869327
 30
0.0
 10
15.8130899754
 20
11.0811366345
 30
0.0
 10
15.7877398583
 20
11.0684754509
 30
0.0
 10
15.7648672782
 20
11.0540853116
 30
0.0
 10
15.7446338759
 20
11.0380513181
 30
0.0
 10
15.727181873
 20
11.02047893
 30
0.0
 10
15.7126472207
 20
11.0014756031
 30
0.0
 10
15.7011426853
 20
10.981181116
 30
0.0
 10
15.6955427562
 20
10.9668393732
 30
0.0
 10
15.6932944628
 20
10.9595648551
 30
0.0
  0
SPLINE
  5
26E
100
AcDbEntity
  8
DRAWING
100
AcDbSpline
 62
7
  6
CONTINUOUS
 70
0
 71
3
 72
14
 73
10
 74
0
 42
0.0000001
 43
0.0000001
 44
0.0000000001
 40
0.0
 40
0.0
 40
0.0
 40
0.0
 40
0.116458251
 40
0.2338241554
 40
0.3529618368
 40
0.47467673
 40
0.5997020086
 40
0.7286782534
 40
1.0
 40
1.0
 40
1.0
 40
1.0
 10
16.6136825244
 20
10.6751434331
 30
0.0
 10
16.6153632067
 20
10.6805814041
 30
0.0
 10
16.618147704
 20
10.6916920696
 30
0.0
 10
16.6205223109
 20
10.7088097147
 30
0.0
 10
16.6211007661
 20
10.7263393099
 30
0.0
 10
16.6198776931
 20
10.7442081001
 30
0.0
 10
16.616863408
 20
10.7623502769
 30
0.0
 10
16.6103661584
 20
10.7872162403
 30
0.0
 10
16.6029747107
 20
10.8054497291
 30
0.0
 10
16.5971328723
 20
10.8173541441
 30
0.0
  0
SPLINE
  5
26F
100
AcDbEntity
  8
DRAWING
100
AcDbSpline
 62
7
  6
CONTINUOUS
 70
0
 71
3
 72
13
 73
9
 74
0
 42
0.0000001
 43
0.0000001
 44
0.0000000001
 40
0.0
 40
0.0
 40
0.0
 40
0.0
 40
0.2703032311
 40
0.5245579147
 40
0.6467417508
 40
0.7662864014
 40
0.8838156675
 40
1.0
 40
1.0
 40
1.0
 40
1.0
 10
16.5914865769
 20
10.8042986956
 30
0.0
 10
16.5967620087
 20
10.7935484959
 30
0.0
 10
16.6056714224
 20
10.771991171
 30
0.0
 10
16.6125184572
 20
10.7440314065
 30
0.0
 10
16.614948471
 20
10.7221679088
 30
0.0
 10
16.6152883159
 20
10.706232973
 30
0.0
 10
16.6141669631
 20
10.690601351
 30
0.0
 10
16.6124405241
 20
10.680373063
 30
0.0
 10
16.6113368214
 20
10.675345645
 30
0.0
  0
SPLINE
  5
270
100
AcDbEntity
  8
DRAWING
100
AcDbSpline
 62
7
  6
CONTINUOUS
 70
0
 71
3
 72
35
 73
31
 74
0
 42
0.0000001
 43
0.0000001
 44
0.0000000001
 40
0.0
 40
0.0
 40
0.0
 40
0.0
 40
0.0265280232
 40
0.0543764442
 40
0.0835387105
 40
0.1139968938
 40
0.1457027654
 40
0.178575459
 40
0.2125133287
 40
0.2473974379
 40
0.3194278427
 40
0.3934783583
 40
0.4682185587
 40
0.5422799801
 40
0.5786478743
 40
0.6143548898
 40
0.6492527992
 40
0.6832070352
 40
0.7160970239
 40
0.7478220015
 40
0.7783023059
 40
0.8074849253
 40
0.8353473434
 40
0.8619018474
 40
0.8872021959
 40
0.9113457986
 40
0.9344801692
 40
0.9568005242
 40
0.9785483431
 40
1.0
 40
1.0
 40
1.0
 40
1.0
 10
15.7058096761
 20
10.8042986956
 30
0.0
 10
15.709957751
 20
10.7958458077
 30
0.0
 10
15.7193418739
 20
10.7789415255
 30
0.0
 10
15.7360056492
 20
10.7543754884
 30
0.0
 10
15.755486062
 20
10.7301606273
 30
0.0
 10
15.777641621
 20
10.7064617183
 30
0.0
 10
15.8023241205
 20
10.6834338557
 30
0.0
 10
15.8293668009
 20
10.6612321192
 30
0.0
 10
15.8585861565
 20
10.6400051953
 30
0.0
 10
15.9006275518
 20
10.6129116767
 30
0.0
 10
15.9573361699
 20
10.5824883117
 30
0.0
 10
16.0298012584
 20
10.5523189193
 30
0.0
 10
16.1054744073
 20
10.5289030321
 30
0.0
 10
16.1699216299
 20
10.5154557589
 30
0.0
 10
16.2213606632
 20
10.5086464258
 30
0.0
 10
16.2592232551
 20
10.5055808769
 30
0.0
 10
16.2963391009
 20
10.504550162
 30
0.0
 10
16.3324571138
 20
10.5055574991
 30
0.0
 10
16.3673323762
 20
10.5086006423
 30
0.0
 10
16.400729142
 20
10.513655971
 30
0.0
 10
16.4324216416
 20
10.5206934069
 30
0.0
 10
16.4621963229
 20
10.529665907
 30
0.0
 10
16.489852573
 20
10.5405162052
 30
0.0
 10
16.5152026901
 20
10.5531773888
 30
0.0
 10
16.5380752702
 20
10.5675675281
 30
0.0
 10
16.5583086725
 20
10.5836015216
 30
0.0
 10
16.5757606754
 20
10.6011739098
 30
0.0
 10
16.5902953277
 20
10.6201772366
 30
0.0
 10
16.6017998631
 20
10.6404717237
 30
0.0
 10
16.6073997922
 20
10.6548134665
 30
0.0
 10
16.6096480856
 20
10.6620879847
 30
0.0
  0
SPLINE
  5
271
100
AcDbEntity
  8
DRAWING
100
AcDbSpline
 62
7
  6
CONTINUOUS
 70
0
 71
3
 72
33
 73
29
 74
0
 42
0.0000001
 43
0.0000001
 44
0.0000000001
 40
0.0
 40
0.0
 40
0.0
 40
0.0
 40
0.0214640577
 40
0.0433768242
 40
0.0659849639
 40
0.0894963708
 40
0.1397682934
 40
0.1667823083
 40
0.1950820475
 40
0.2246644908
 40
0.2554935922
 40
0.2875084077
 40
0.3206232658
 40
0.3547346511
 40
0.3897215512
 40
0.461754417
 40
0.5355595554
 40
0.6098529802
 40
0.6833248822
 40
0.7547091537
 40
0.789264621
 40
0.8228809675
 40
0.8554460066
 40
0.8868645144
 40
0.917060859
 40
0.9459913496
 40
0.9736397462
 40
1.0
 40
1.0
 40
1.0
 40
1.0
 10
16.6074435701
 20
10.6628658823
 30
0.0
 10
16.6046235674
 20
10.6559237305
 30
0.0
 10
16.5979154075
 20
10.6422825288
 30
0.0
 10
16.5849721902
 20
10.6231486429
 30
0.0
 10
16.5691780396
 20
10.6053243217
 30
0.0
 10
16.5439290667
 20
10.5829782745
 30
0.0
 10
16.513760964
 20
10.5643038399
 30
0.0
 10
16.480076767
 20
10.5492785616
 30
0.0
 10
16.4520618236
 20
10.5394960544
 30
0.0
 10
16.4221032598
 20
10.5315474013
 30
0.0
 10
16.3903891732
 20
10.5254727422
 30
0.0
 10
16.357127155
 20
10.521315969
 30
0.0
 10
16.322533724
 20
10.5190988946
 30
0.0
 10
16.2868336431
 20
10.5188384893
 30
0.0
 10
16.2375985725
 20
10.5211224535
 30
0.0
 10
16.1748426372
 20
10.5289243218
 30
0.0
 10
16.0997254731
 20
10.5456431836
 30
0.0
 10
16.0259908957
 20
10.5693829948
 30
0.0
 10
15.9555561112
 20
10.5995261858
 30
0.0
 10
15.900518101
 20
10.6296636683
 30
0.0
 10
15.859753046
 20
10.6563789365
 30
0.0
 10
15.8314311473
 20
10.67725854
 30
0.0
 10
15.8052191909
 20
10.6990582818
 30
0.0
 10
15.7812875812
 20
10.7216362368
 30
0.0
 10
15.7597928663
 20
10.7448471287
 30
0.0
 10
15.7408729534
 20
10.7685439802
 30
0.0
 10
15.7246608476
 20
10.7925715619
 30
0.0
 10
15.7155099809
 20
10.8090929416
 30
0.0
 10
15.7114559715
 20
10.8173541441
 30
0.0
  0
SPLINE
  5
272
100
AcDbEntity
  8
DRAWING
100
AcDbSpline
 62
7
  6
CONTINUOUS
 70
0
 71
3
 72
14
 73
10
 74
0
 42
0.0000001
 43
0.0000001
 44
0.0000000001
 40
0.0
 40
0.0
 40
0.0
 40
0.0
 40
0.116458251
 40
0.2338241554
 40
0.3529618368
 40
0.47467673
 40
0.5997020086
 40
0.7286782534
 40
1.0
 40
1.0
 40
1.0
 40
1.0
 10
15.689260024
 20
10.9465094066
 30
0.0
 10
15.6875793417
 20
10.9410714356
 30
0.0
 10
15.6847948444
 20
10.9299607702
 30
0.0
 10
15.6824202375
 20
10.912843125
 30
0.0
 10
15.6818417823
 20
10.8953135298
 30
0.0
 10
15.6830648553
 20
10.8774447396
 30
0.0
 10
15.6860791404
 20
10.8593025628
 30
0.0
 10
15.69257639
 20
10.8344365995
 30
0.0
 10
15.6999678377
 20
10.8162031106
 30
0.0
 10
15.7058096761
 20
10.8042986956
 30
0.0
  0
SPLINE
  5
273
100
AcDbEntity
  8
DRAWING
100
AcDbSpline
 62
7
  6
CONTINUOUS
 70
0
 71
3
 72
33
 73
29
 74
0
 42
0.0000001
 43
0.0000001
 44
0.0000000001
 40
0.0
 40
0.0
 40
0.0
 40
0.0
 40
0.0214633845
 40
0.0433738126
 40
0.0659782971
 40
0.08948513
 40
0.1397464883
 40
0.1667552234
 40
0.1950499879
 40
0.2246279315
 40
0.2554531441
 40
0.2874647744
 40
0.320577203
 40
0.3546869484
 40
0.3896729927
 40
0.4617064057
 40
0.5355148019
 40
0.6098136428
 40
0.6832924409
 40
0.7546843502
 40
0.7892436884
 40
0.8228638169
 40
0.8554324722
 40
0.8868543575
 40
0.9170537812
 40
0.9459870012
 40
0.973637759
 40
1.0
 40
1.0
 40
1.0
 40
1.0
 10
15.6954397603
 20
10.9586409695
 30
0.0
 10
15.6982531994
 20
10.9655867433
 30
0.0
 10
15.7049486179
 20
10.9792356231
 30
0.0
 10
15.7178752783
 20
10.9983821599
 30
0.0
 10
15.7336547949
 20
11.0162193867
 30
0.0
 10
15.7588864309
 20
11.0385828825
 30
0.0
 10
15.7890421807
 20
11.0572745711
 30
0.0
 10
15.8227174266
 20
11.0723157253
 30
0.0
 10
15.8507275376
 20
11.0821100816
 30
0.0
 10
15.8806831092
 20
11.0900700625
 30
0.0
 10
15.9123959848
 20
11.0961554534
 30
0.0
 10
15.9456584947
 20
11.1003222568
 30
0.0
 10
15.9802540209
 20
11.1025486241
 30
0.0
 10
16.015957692
 20
11.1028174729
 30
0.0
 10
16.0651999726
 20
11.1005436978
 30
0.0
 10
16.1279678498
 20
11.0927519725
 30
0.0
 10
16.203102058
 20
11.0760414516
 30
0.0
 10
16.2768560581
 20
11.0523061251
 30
0.0
 10
16.347311309
 20
11.0221637182
 30
0.0
 10
16.4023662539
 20
10.9920240868
 30
0.0
 10
16.4431442753
 20
10.9653055096
 30
0.0
 10
16.4714752957
 20
10.9444227393
 30
0.0
 10
16.4976956914
 20
10.9226192493
 30
0.0
 10
16.5216349173
 20
10.9000370353
 30
0.0
 10
16.5431363166
 20
10.8768214789
 30
0.0
 10
16.5620618718
 20
10.8531196434
 30
0.0
 10
16.5782784873
 20
10.8290868598
 30
0.0
 10
16.5874316536
 20
10.8125617605
 30
0.0
 10
16.5914865769
 20
10.8042986956
 30
0.0
  0
SPLINE
  5
274
100
AcDbEntity
  8
DRAWING
100
AcDbSpline
 62
7
  6
CONTINUOUS
 70
0
 71
3
 72
14
 73
10
 74
0
 42
0.0000001
 43
0.0000001
 44
0.0000000001
 40
0.0
 40
0.0
 40
0.0
 40
0.0
 40
0.2713217466
 40
0.4002979914
 40
0.52532327
 40
0.6470381632
 40
0.7661758446
 40
0.883541749
 40
1.0
 40
1.0
 40
1.0
 40
1.0
 10
15.7074215328
 20
10.8042986956
 30
0.0
 10
15.7016009191
 20
10.8161598592
 30
0.0
 10
15.6942363261
 20
10.8343271019
 30
0.0
 10
15.6877626825
 20
10.8591027217
 30
0.0
 10
15.684759349
 20
10.8771789841
 30
0.0
 10
15.6835407196
 20
10.8949828531
 30
0.0
 10
15.6841170731
 20
10.9124487594
 30
0.0
 10
15.6864830526
 20
10.9295042124
 30
0.0
 10
15.6892574332
 20
10.9405745104
 30
0.0
 10
15.6909320093
 20
10.9459927241
 30
0.0
  0
SPLINE
  5
275
100
AcDbEntity
  8
DRAWING
100
AcDbSpline
 62
7
  6
CONTINUOUS
 70
0
 71
3
 72
33
 73
29
 74
0
 42
0.0000001
 43
0.0000001
 44
0.0000000001
 40
0.0
 40
0.0
 40
0.0
 40
0.0
 40
0.0263608782
 40
0.0540100167
 40
0.0829413648
 40
0.113138677
 40
0.144558246
 40
0.1771244213
 40
0.2107419562
 40
0.2452986397
 40
0.3166853112
 40
0.3901593801
 40
0.464454507
 40
0.5382606695
 40
0.6102937079
 40
0.6452803394
 40
0.6793912097
 40
0.7125053049
 40
0.74451912
 40
0.7753469998
 40
0.8049280296
 40
0.8332262059
 40
0.860238562
 40
0.9105071649
 40
0.9340171341
 40
0.9566241245
 40
0.9785361552
 40
1.0
 40
1.0
 40
1.0
 40
1.0
 10
16.5930984336
 20
10.8042986956
 30
0.0
 10
16.5890293532
 20
10.8125906096
 30
0.0
 10
16.5798443931
 20
10.8291734069
 30
0.0
 10
16.5635717484
 20
10.8532902447
 30
0.0
 10
16.5445810654
 20
10.8770750777
 30
0.0
 10
16.523005863
 20
10.9003720783
 30
0.0
 10
16.4989845859
 20
10.923033706
 30
0.0
 10
16.4726743873
 20
10.9449141219
 30
0.0
 10
16.4442463374
 20
10.9658708609
 30
0.0
 10
16.4033285453
 20
10.9926845891
 30
0.0
 10
16.3480845007
 20
11.0229326448
 30
0.0
 10
16.2773864242
 20
11.0531855052
 30
0.0
 10
16.2033768511
 20
11.0770104692
 30
0.0
 10
16.1279803996
 20
11.0937876663
 30
0.0
 10
16.0649918604
 20
11.1016147859
 30
0.0
 10
16.0155749814
 20
11.1039038661
 30
0.0
 10
15.9797435886
 20
11.103639849
 30
0.0
 10
15.9450233524
 20
11.1014117601
 30
0.0
 10
15.9116398894
 20
11.0972366668
 30
0.0
 10
15.8798105394
 20
11.0911364729
 30
0.0
 10
15.8497436753
 20
11.0831552635
 30
0.0
 10
15.8216280991
 20
11.0733333484
 30
0.0
 10
15.787823895
 20
11.058248275
 30
0.0
 10
15.7575496791
 20
11.0395003042
 30
0.0
 10
15.7322141017
 20
11.0170672705
 30
0.0
 10
15.7163669716
 20
10.9991738838
 30
0.0
 10
15.7033817769
 20
10.9799662373
 30
0.0
 10
15.6966531729
 20
10.9662728718
 30
0.0
 10
15.6938249565
 20
10.9593042633
 30
0.0
  0
SPLINE
  5
276
100
AcDbEntity
  8
DRAWING
100
AcDbSpline
 62
7
  6
CONTINUOUS
 70
0
 71
3
 72
35
 73
31
 74
0
 42
0.0000001
 43
0.0000001
 44
0.0000000001
 40
0.0
 40
0.0
 40
0.0
 40
0.0
 40
0.0214516569
 40
0.0431994758
 40
0.0655198308
 40
0.0886542014
 40
0.1127978041
 40
0.1380981526
 40
0.1646526566
 40
0.1925150747
 40
0.2216976941
 40
0.2521779985
 40
0.2839029761
 40
0.3167929648
 40
0.3507472008
 40
0.3856451102
 40
0.4213521257
 40
0.4577200199
 40
0.5317814413
 40
0.6065216417
 40
0.6805721573
 40
0.7526025621
 40
0.7874866713
 40
0.821424541
 40
0.8542972346
 40
0.8860031062
 40
0.9164612895
 40
0.9456235558
 40
0.9734719768
 40
1.0
 40
1.0
 40
1.0
 40
1.0
 10
16.6079761004
 20
10.6626046672
 30
0.0
 10
16.6057359755
 20
10.6553565789
 30
0.0
 10
16.6001563922
 20
10.6410669428
 30
0.0
 10
16.5886936552
 20
10.62084619
 30
0.0
 10
16.5742118105
 20
10.6019119064
 30
0.0
 10
16.5568232146
 20
10.5844033626
 30
0.0
 10
16.5366633247
 20
10.5684276241
 30
0.0
 10
16.5138738456
 20
10.5540897673
 30
0.0
 10
16.4886158309
 20
10.5414745845
 30
0.0
 10
16.461060062
 20
10.5306637078
 30
0.0
 10
16.4313935586
 20
10.5217238068
 30
0.0
 10
16.3998162048
 20
10.5147119394
 30
0.0
 10
16.3665407767
 20
10.5096749778
 30
0.0
 10
16.3317922238
 20
10.506642891
 30
0.0
 10
16.2958054355
 20
10.5056392137
 30
0.0
 10
16.2588244397
 20
10.5066661839
 30
0.0
 10
16.2210994108
 20
10.5097205949
 30
0.0
 10
16.1698472667
 20
10.5165051883
 30
0.0
 10
16.1056341949
 20
10.5299036046
 30
0.0
 10
16.030235983
 20
10.5532344168
 30
0.0
 10
15.9580341761
 20
10.5832941972
 30
0.0
 10
15.9015315927
 20
10.6136070274
 30
0.0
 10
15.859642943
 20
10.6406021094
 30
0.0
 10
15.8305297476
 20
10.6617519113
 30
0.0
 10
15.8035853192
 20
10.683872984
 30
0.0
 10
15.7789924966
 20
10.7068171813
 30
0.0
 10
15.7569174336
 20
10.7304299871
 30
0.0
 10
15.7375077973
 20
10.7545568703
 30
0.0
 10
15.7209045652
 20
10.7790336536
 30
0.0
 10
15.7115545369
 20
10.7958765188
 30
0.0
 10
15.7074215328
 20
10.8042986956
 30
0.0
  0
SPLINE
  5
277
100
AcDbEntity
  8
DRAWING
100
AcDbSpline
 62
7
  6
CONTINUOUS
 70
0
 71
3
 72
13
 73
9
 74
0
 42
0.0000001
 43
0.0000001
 44
0.0000000001
 40
0.0
 40
0.0
 40
0.0
 40
0.0
 40
0.1161811178
 40
0.2337156925
 40
0.3532699687
 40
0.4754637725
 40
0.7297261976
 40
1.0
 40
1.0
 40
1.0
 40
1.0
 10
16.6130875175
 20
10.6751795565
 30
0.0
 10
16.614182761
 20
10.6802155764
 30
0.0
 10
16.6158927662
 20
10.6904603786
 30
0.0
 10
16.6169914941
 20
10.7061145709
 30
0.0
 10
16.6166310507
 20
10.7220708986
 30
0.0
 10
16.6141761985
 20
10.7439616709
 30
0.0
 10
16.6073040551
 20
10.7719527285
 30
0.0
 10
16.5983801987
 20
10.79353559
 30
0.0
 10
16.5930984336
 20
10.8042986956
 30
0.0
  0
ENDSEC
  0
SECTION
  2
OBJECTS
  0
DICTIONARY
  5
C
100
AcDbDictionary
280
0
281
1
  3
ACAD_GROUP
350
D
  3
ACAD_MLINESTYLE
350
17
  3
ACAD_LAYOUT
350
1A
  3
ACAD_PLOTSETTINGS
350
19
  3
ACAD_PLOTSTYLENAME
350
E
  0
DICTIONARY
  5
D
102
{ACAD_REACTORS
330
C
102
}
100
AcDbDictionary
280
0
281
1
  0
ACDBDICTIONARYWDFLT
  5
E
102
{ACAD_REACTORS
330
C
102
}
100
AcDbDictionary
281
1
  3
Normal
350
F
100
AcDbDictionaryWithDefault
340
F
  0
DICTIONARY
  5
17
102
{ACAD_REACTORS
330
C
102
}
100
AcDbDictionary
280
0
281
1
  3
Standard
350
18
  0
DICTIONARY
  5
19
102
{ACAD_REACTORS
330
C
102
}
100
AcDbDictionary
281
1
  0
DICTIONARY
  5
1A
102
{ACAD_REACTORS
330
C
102
}
100
AcDbDictionary
281
1
  3
Model
350
278
  3
Layout1
350
279
  0
ACDBPLACEHOLDER
  5
F
102
{ACAD_REACTORS
330
E
102
}
  0
MLINESTYLE
  5
18
102
{ACAD_REACTORS
330
17
102
}
100
AcDbMlineStyle
  2
STANDARD
 70
0
  3

 62
256
 51
90.0
 52
90.0
 71
2
 49
0.5
 62
256
  6
BYLAYER
 49
-0.5
 62
256
  6
BYLAYER
  0
LAYOUT
  5
278
102
{ACAD_REACTORS
330
1A
102
}
100
AcDbPlotSettings
  1

  2
none_device
  4
ANSI_C_(22.00_x_17.00_Inches)
  6

 40
0.0
 41
0.0
 42
0.0
 43
0.0
 44
558.8
 45
431.8
 46
0.0
 47
0.0
 48
0.0
 49
0.0
140
0.0
141
0.0
142
1.0
143
1.0
 70
1024
 72
0
 73
0
 74
0
  7

 75
0
147
1.0
148
0.0
149
0.0
100
AcDbLayout
  1
Model
 70
0
 71
0
 10
0.0
 20
0.0
 11
22.0
 21
17.0
 12
0.0
 22
0.0
 32
0.0
 14
0.0
 24
0.0
 34
0.0
 15
0.0
 25
0.0
 35
0.0
146
0.0
 13
0.0
 23
0.0
 33
0.0
 16
1.0
 26
0.0
 36
0.0
 17
0.0
 27
1.0
 37
0.0
 76
0
330
218
345
0
346
0
  0
LAYOUT
  5
279
102
{ACAD_REACTORS
330
1A
102
}
100
AcDbPlotSettings
  1

  2
none_device
  4
ANSI_C_(22.00_x_17.00_Inches)
  6

 40
0.0
 41
0.0
 42
0.0
 43
0.0
 44
558.8
 45
431.8
 46
0.0
 47
0.0
 48
0.0
 49
0.0
140
0.0
141
0.0
142
1.0
143
1.0
 70
0
 72
0
 73
0
 74
0
  7

 75
0
147
1.0
148
0.0
149
0.0
100
AcDbLayout
  1
Layout1
 70
0
 71
1
 10
0.0
 20
0.0
 11
22.0
 21
17.0
 12
0.0
 22
0.0
 32
0.0
 14
0.0
 24
0.0
 34
0.0
 15
0.0
 25
0.0
 35
0.0
146
0.0
 13
0.0
 23
0.0
 33
0.0
 16
1.0
 26
0.0
 36
0.0
 17
0.0
 27
1.0
 37
0.0
 76
0
330
219
345
0
346
0
  0
ENDSEC
  0
EOF