999
DXF file: _cgs_temp_output.dxf
999
Pro/ENGINEER 2016360 by Parametric Technology Corporation
  0
SECTION
  2
HEADER
  9
$ACADVER
  1
AC1021
  9
$DWGCODEPAGE
  3
ANSI_1252
  9
$EXTMAX
 10
22.0
 20
17.0
 30
0.0
  9
$EXTMIN
 10
0.0
 20
0.0
 30
0.0
  9
$LIMMIN
 10
0.0
 20
0.0
  9
$LIMMAX
 10
22.0
 20
17.0
  9
$VIEWCTR
 10
11.0
 20
8.5
  9
$VIEWSIZE
 40
17.0
  9
$CLAYER
  8
0
  9
$LTSCALE
 40
1.21
  9
$CELTYPE
  6
BYLAYER
  9
$DIMSCALE
 40
1.0
  9
$DIMASZ
 40
0.1875
  9
$DIMEXO
 40
0.0625
  9
$DIMDLI
 40
0.836
  9
$DIMEXE
 40
0.125
  9
$DIMCEN
 40
0.198
  9
$DIMLFAC
 40
1.0
  9
$DIMBLK
  1
_CLOSED
  9
$DIMALT
 70
0
  9
$DIMALTF
 40
25.4
  9
$DIMTXT
 40
0.15625
  9
$DIMTOL
 70
0
  9
$DIMLIM
 70
0
  9
$DIMTFAC
 40
1.0
  9
$DIMGAP
 40
0.09
  9
$DIMDSEP
 70
46
  9
$AUNITS
 70
0
  9
$PDMODE
 70
3
  9
$PDSIZE
 40
0.3125
  9
$HANDSEED
  5
243
  9
$TILEMODE
 70
1
  9
$MEASUREMENT
 70
0
  9
$INSUNITS
 70
1
  0
ENDSEC
  0
SECTION
  2
CLASSES
  0
CLASS
  1
ACDBDICTIONARYWDFLT
  2
AcDbDictionaryWithDefault
  3
AutoCAD 2000
 90
0
 91
1
280
0
281
0
  0
CLASS
  1
ACDBPLACEHOLDER
  2
AcDbPlaceHolder
  3
AutoCAD 2000
 90
0
 91
1
280
0
281
0
  0
CLASS
  1
LAYOUT
  2
AcDbLayout
  3
AutoCAD 2000
 90
0
 91
0
280
0
281
0
  0
ENDSEC
  0
SECTION
  2
TABLES
  0
TABLE
  2
VPORT
  5
8
100
AcDbSymbolTable
 70
2
  0
VPORT
  5
1F4
100
AcDbSymbolTableRecord
100
AcDbViewportTableRecord
  2
*ACTIVE
 70
0
 10
0.0
 20
0.0
 11
1.0
 21
1.0
 12
11.0
 22
8.5
 13
0.0
 23
0.0
 14
1.0
 24
1.0
 15
0.0
 25
0.0
 16
0.0
 26
0.0
 36
1.0
 17
0.0
 27
0.0
 37
0.0
 40
17.0
 41
1.2941176471
 42
50.0
 43
0.0
 44
0.0
 50
0.0
 51
0.0
 71
0
 72
100
 73
1
 74
1
 75
0
 76
0
 77
0
 78
0
  0
ENDTAB
  0
TABLE
  2
LTYPE
  5
5
100
AcDbSymbolTable
 70
6
  0
LTYPE
  5
14
100
AcDbSymbolTableRecord
100
AcDbLinetypeTableRecord
  2
BYBLOCK
 70
0
  3

 72
65
 73
0
 40
0.0
  0
LTYPE
  5
15
100
AcDbSymbolTableRecord
100
AcDbLinetypeTableRecord
  2
BYLAYER
 70
0
  3

 72
65
 73
0
 40
0.0
  0
LTYPE
  5
16
100
AcDbSymbolTableRecord
100
AcDbLinetypeTableRecord
  2
CONTINUOUS
 70
64
  3
Solid line
 72
65
 73
0
 40
0.0
  0
LTYPE
  5
1F5
100
AcDbSymbolTableRecord
100
AcDbLinetypeTableRecord
  2
CENTER
 70
64
  3
____ _ ____ _ ____ _ ____ _ ____ _ ____ _ ____
 72
65
 73
4
 40
0.6
 49
0.375
 74
0
 49
-0.075
 74
0
 49
0.075
 74
0
 49
-0.075
 74
0
  0
LTYPE
  5
1F6
100
AcDbSymbolTableRecord
100
AcDbLinetypeTableRecord
  2
HIDDEN
 70
64
  3
- - - - - - - - - - - - - - - - - - - -
 72
65
 73
2
 40
0.2
 49
0.1
 74
0
 49
-0.1
 74
0
  0
LTYPE
  5
1F7
100
AcDbSymbolTableRecord
100
AcDbLinetypeTableRecord
  2
PHANTOM
 70
64
  3
_____ _ _ _____ _ _ _____ _ _ _____
 72
65
 73
6
 40
0.8
 49
0.45
 74
0
 49
-0.05
 74
0
 49
0.1
 74
0
 49
-0.05
 74
0
 49
0.1
 74
0
 49
-0.05
 74
0
  0
LTYPE
  5
1F8
100
AcDbSymbolTableRecord
100
AcDbLinetypeTableRecord
  2
DOT
 70
64
  3
. . . . . . . . . . . . . . . . . . . .
 72
65
 73
2
 40
0.2
 49
0.1
 74
0
 49
-0.1
 74
0
  0
LTYPE
  5
1F9
100
AcDbSymbolTableRecord
100
AcDbLinetypeTableRecord
  2
DASHED
 70
64
  3
- - - - - - - - - - - - - - - - - - - -
 72
65
 73
2
 40
0.2
 49
0.1
 74
0
 49
-0.1
 74
0
  0
ENDTAB
  0
TABLE
  2
LAYER
  5
2
100
AcDbSymbolTable
 70
36
  0
LAYER
  5
10
100
AcDbSymbolTableRecord
100
AcDbLayerTableRecord
  2
0
 70
0
 62
7
  6
CONTINUOUS
370
-3
390
F
  0
LAYER
  5
1FA
100
AcDbSymbolTableRecord
100
AcDbLayerTableRecord
  2
DEFAULT_1
 70
0
 62
7
  6
CENTER
370
-3
390
F
  0
LAYER
  5
1FB
100
AcDbSymbolTableRecord
100
AcDbLayerTableRecord
  2
DEFAULT_2
 70
0
 62
8
  6
HIDDEN
370
-3
390
F
  0
LAYER
  5
1FC
100
AcDbSymbolTableRecord
100
AcDbLayerTableRecord
  2
DEFAULT_3
 70
0
 62
7
  6
PHANTOM
370
-3
390
F
  0
LAYER
  5
1FD
100
AcDbSymbolTableRecord
100
AcDbLayerTableRecord
  2
01_ALL_DTM_PLN
 70
0
 62
7
  6
CONTINUOUS
370
-3
390
F
  0
LAYER
  5
1FE
100
AcDbSymbolTableRecord
100
AcDbLayerTableRecord
  2
01__ASM_ALL_DTM_PLN
 70
0
 62
7
  6
CONTINUOUS
370
-3
390
F
  0
LAYER
  5
1FF
100
AcDbSymbolTableRecord
100
AcDbLayerTableRecord
  2
01__ASM_DEF_DTM_PLN
 70
0
 62
7
  6
CONTINUOUS
370
-3
390
F
  0
LAYER
  5
200
100
AcDbSymbolTableRecord
100
AcDbLayerTableRecord
  2
01___PRT_ALL_DTM_PLN
 70
0
 62
7
  6
CONTINUOUS
370
-3
390
F
  0
LAYER
  5
201
100
AcDbSymbolTableRecord
100
AcDbLayerTableRecord
  2
01___PRT_DEF_DTM_PLN
 70
0
 62
7
  6
CONTINUOUS
370
-3
390
F
  0
LAYER
  5
202
100
AcDbSymbolTableRecord
100
AcDbLayerTableRecord
  2
02_ALL_AXES
 70
0
 62
7
  6
CONTINUOUS
370
-3
390
F
  0
LAYER
  5
203
100
AcDbSymbolTableRecord
100
AcDbLayerTableRecord
  2
02__ASM_ALL_AXES
 70
0
 62
7
  6
CONTINUOUS
370
-3
390
F
  0
LAYER
  5
204
100
AcDbSymbolTableRecord
100
AcDbLayerTableRecord
  2
02___PRT_ALL_AXES
 70
0
 62
7
  6
CONTINUOUS
370
-3
390
F
  0
LAYER
  5
205
100
AcDbSymbolTableRecord
100
AcDbLayerTableRecord
  2
03_ALL_CURVES
 70
0
 62
7
  6
CONTINUOUS
370
-3
390
F
  0
LAYER
  5
206
100
AcDbSymbolTableRecord
100
AcDbLayerTableRecord
  2
03__ASM_ALL_CURVES
 70
0
 62
7
  6
CONTINUOUS
370
-3
390
F
  0
LAYER
  5
207
100
AcDbSymbolTableRecord
100
AcDbLayerTableRecord
  2
03___PRT_ALL_CURVES
 70
0
 62
7
  6
CONTINUOUS
370
-3
390
F
  0
LAYER
  5
208
100
AcDbSymbolTableRecord
100
AcDbLayerTableRecord
  2
04_ALL_DTM_PNT
 70
0
 62
7
  6
CONTINUOUS
370
-3
390
F
  0
LAYER
  5
209
100
AcDbSymbolTableRecord
100
AcDbLayerTableRecord
  2
04__ASM_ALL_DTM_PNT
 70
0
 62
7
  6
CONTINUOUS
370
-3
390
F
  0
LAYER
  5
20A
100
AcDbSymbolTableRecord
100
AcDbLayerTableRecord
  2
04___PRT_ALL_DTM_PNT
 70
0
 62
7
  6
CONTINUOUS
370
-3
390
F
  0
LAYER
  5
20B
100
AcDbSymbolTableRecord
100
AcDbLayerTableRecord
  2
05_ALL_DTM_CSYS
 70
0
 62
7
  6
CONTINUOUS
370
-3
390
F
  0
LAYER
  5
20C
100
AcDbSymbolTableRecord
100
AcDbLayerTableRecord
  2
05__ASM_ALL_DTM_CSYS
 70
0
 62
7
  6
CONTINUOUS
370
-3
390
F
  0
LAYER
  5
20D
100
AcDbSymbolTableRecord
100
AcDbLayerTableRecord
  2
05__ASM_DEF_DTM_CSYS
 70
0
 62
7
  6
CONTINUOUS
370
-3
390
F
  0
LAYER
  5
20E
100
AcDbSymbolTableRecord
100
AcDbLayerTableRecord
  2
05___PRT_ALL_DTM_CSYS
 70
0
 62
7
  6
CONTINUOUS
370
-3
390
F
  0
LAYER
  5
20F
100
AcDbSymbolTableRecord
100
AcDbLayerTableRecord
  2
05___PRT_DEF_DTM_CSYS
 70
0
 62
7
  6
CONTINUOUS
370
-3
390
F
  0
LAYER
  5
210
100
AcDbSymbolTableRecord
100
AcDbLayerTableRecord
  2
06_ALL_SURFS
 70
0
 62
7
  6
CONTINUOUS
370
-3
390
F
  0
LAYER
  5
211
100
AcDbSymbolTableRecord
100
AcDbLayerTableRecord
  2
06__ASM_ALL_SURFS
 70
0
 62
7
  6
CONTINUOUS
370
-3
390
F
  0
LAYER
  5
212
100
AcDbSymbolTableRecord
100
AcDbLayerTableRecord
  2
06___PRT_ALL_SURFS
 70
0
 62
7
  6
CONTINUOUS
370
-3
390
F
  0
LAYER
  5
213
100
AcDbSymbolTableRecord
100
AcDbLayerTableRecord
  2
07__ASM_ALL_SKELETONS
 70
0
 62
7
  6
CONTINUOUS
370
-3
390
F
  0
LAYER
  5
214
100
AcDbSymbolTableRecord
100
AcDbLayerTableRecord
  2
DRAWING
 70
0
 62
7
  6
CONTINUOUS
370
-3
390
F
  0
LAYER
  5
215
100
AcDbSymbolTableRecord
100
AcDbLayerTableRecord
  2
SHELL
 70
0
 62
7
  6
CONTINUOUS
370
-3
390
F
  0
ENDTAB
  0
TABLE
  2
STYLE
  5
3
100
AcDbSymbolTable
 70
1
  0
STYLE
  5
11
100
AcDbSymbolTableRecord
100
AcDbTextStyleTableRecord
  2
STANDARD
 70
0
 40
0.0
 41
0.8
 50
0.0
 71
0
 42
0.2
  3
txt
  4

  0
STYLE
  5
216
100
AcDbSymbolTableRecord
100
AcDbTextStyleTableRecord
  2
TEXTSTYLE_1
 70
0
 40
0.0
 41
0.8
 50
0.0
 71
0
 42
0.2
  3
gdt
  4

  0
ENDTAB
  0
TABLE
  2
VIEW
  5
6
100
AcDbSymbolTable
 70
0
  0
ENDTAB
  0
TABLE
  2
UCS
  5
7
100
AcDbSymbolTable
 70
0
  0
ENDTAB
  0
TABLE
  2
APPID
  5
9
100
AcDbSymbolTable
 70
1
  0
APPID
  5
217
100
AcDbSymbolTableRecord
100
AcDbRegAppTableRecord
  2
ACAD
 70
0
  0
ENDTAB
  0
TABLE
  2
BLOCK_RECORD
  5
1
100
AcDbSymbolTable
 70
0
  0
BLOCK_RECORD
  5
218
100
AcDbSymbolTableRecord
100
AcDbBlockTableRecord
  2
*Model_Space
  0
BLOCK_RECORD
  5
219
100
AcDbSymbolTableRecord
100
AcDbBlockTableRecord
  2
*Paper_Space
  0
ENDTAB
  0
TABLE
  2
DIMSTYLE
  5
A
100
AcDbSymbolTable
 70
1
100
AcDbDimStyleTable
 71
0
  0
DIMSTYLE
105
21A
100
AcDbSymbolTableRecord
100
AcDbDimStyleTableRecord
  2
STANDARD
 70
0
  3

  4

 40
1.0
 41
0.1875
 42
0.0625
 43
0.38
 44
0.125
 45
0.0
 46
0.0
 47
0.0001
 48
0.0001
140
0.15625
141
0.09
142
0.0
143
25.4
144
1.0
145
0.0
146
1.0
147
0.09
 71
0.0
 72
0.0
 73
1
 74
1
 75
0
 76
0
 77
0
 78
4
 79
1
170
0
171
3
172
0
173
0
174
0
175
0
176
0
177
0
178
0
270
2
179
4
271
4
272
4
273
2
274
2
275
0
280
0
281
0
282
0
283
1
284
4
285
0
286
0
287
3
288
0
340
11
278
46
  0
ENDTAB
  0
ENDSEC
  0
SECTION
  2
BLOCKS
  0
BLOCK
  5
20
100
AcDbEntity
  8
0
100
AcDbBlockBegin
  2
*Model_Space
 70
0
 10
0.0
 20
0.0
 30
0.0
  3
*Model_Space
  1

  0
ENDBLK
  5
21
100
AcDbEntity
  8
0
100
AcDbBlockEnd
  0
BLOCK
  5
1C
100
AcDbEntity
  8
0
100
AcDbBlockBegin
  2
*Paper_Space
 70
0
 10
0.0
 20
0.0
 30
0.0
  3
*Paper_Space
  1

  0
ENDBLK
  5
1D
100
AcDbEntity
  8
0
100
AcDbBlockEnd
  0
ENDSEC
  0
SECTION
  2
ENTITIES
  0
MTEXT
  5
21B
100
AcDbEntity
  8
0
100
AcDbMText
 62
7
  6
CONTINUOUS
  7
STANDARD
 71
1
 72
1
 10
15.9560215477
 20
0.9479130325
 30
0.0
 11
1.0
 21
0.0
 31
0.0
 44
0.9
  1
SCALE: 1:1.000
 40
0.3
 41
3.36
  0
LINE
  5
21C
100
AcDbEntity
  8
0
100
AcDbLine
 62
7
  6
CONTINUOUS
 10
0.0
 20
0.0
 11
0.0
 21
17.0
  0
LINE
  5
21D
100
AcDbEntity
  8
0
100
AcDbLine
 62
7
  6
CONTINUOUS
 10
0.0
 20
0.0
 11
22.0
 21
0.0
  0
LINE
  5
21E
100
AcDbEntity
  8
0
100
AcDbLine
 62
7
  6
CONTINUOUS
 10
0.0
 20
17.0
 11
22.0
 21
17.0
  0
LINE
  5
21F
100
AcDbEntity
  8
0
100
AcDbLine
 62
7
  6
CONTINUOUS
 10
22.0
 20
0.0
 11
22.0
 21
17.0
  0
LINE
  5
220
100
AcDbEntity
  8
DRAWING
100
AcDbLine
 62
7
  6
CONTINUOUS
 10
2.7108720839
 20
12.6500477814
 11
2.7108720839
 21
12.5500477814
  0
LINE
  5
221
100
AcDbEntity
  8
DRAWING
100
AcDbLine
 62
7
  6
CONTINUOUS
 10
9.4308720839
 20
12.5500477814
 11
2.7108720839
 21
12.5500477814
  0
LINE
  5
222
100
AcDbEntity
  8
DRAWING
100
AcDbLine
 62
7
  6
CONTINUOUS
 10
9.4308720839
 20
12.6500477814
 11
2.7108720839
 21
12.6500477814
  0
LINE
  5
223
100
AcDbEntity
  8
DRAWING
100
AcDbLine
 62
7
  6
CONTINUOUS
 10
9.4308720839
 20
12.6500477814
 11
9.4308720839
 21
12.5500477814
  0
LINE
  5
224
100
AcDbEntity
  8
DRAWING
100
AcDbLine
 62
7
  6
CONTINUOUS
 10
15.6103552569
 20
2.1006247044
 11
15.5103552569
 21
2.1006247044
  0
LINE
  5
225
100
AcDbEntity
  8
DRAWING
100
AcDbLine
 62
7
  6
CONTINUOUS
 10
15.5103552569
 20
2.1006640742
 11
15.5103552569
 21
8.8205853347
  0
LINE
  5
226
100
AcDbEntity
  8
DRAWING
100
AcDbLine
 62
7
  6
CONTINUOUS
 10
15.6103552569
 20
2.1006640742
 11
15.6103552569
 21
8.8205853347
  0
LINE
  5
227
100
AcDbEntity
  8
DRAWING
100
AcDbLine
 62
7
  6
CONTINUOUS
 10
15.6103552569
 20
8.8206247044
 11
15.5103552569
 21
8.8206247044
  0
LINE
  5
228
100
AcDbEntity
  8
DRAWING
100
AcDbLine
 62
7
  6
CONTINUOUS
 10
12.2730017479
 20
13.5420025066
 11
12.2487951156
 21
13.4636698156
  0
LINE
  5
229
100
AcDbEntity
  8
DRAWING
100
AcDbLine
 62
7
  6
CONTINUOUS
 10
18.6934298213
 20
11.5579401702
 11
18.669223189
 21
11.4796074793
  0
CIRCLE
  5
22A
100
AcDbEntity
  8
DRAWING
100
AcDbCircle
 62
7
  6
CONTINUOUS
 10
6.1303672762
 20
5.5201198968
 40
3.36
  0
CIRCLE
  5
22B
100
AcDbEntity
  8
DRAWING
100
AcDbCircle
 62
7
  6
CONTINUOUS
 10
6.1303672762
 20
5.5201198968
 40
3.355
  0
ARC
  5
22C
100
AcDbEntity
  8
DRAWING
100
AcDbCircle
 62
7
  6
CONTINUOUS
 10
17.6124719223
 20
11.8059683533
 40
1.1060037931
100
AcDbArc
 50
347.082298392
 51
347.4384210565
  0
ARC
  5
22D
100
AcDbEntity
  8
DRAWING
100
AcDbCircle
 62
7
  6
CONTINUOUS
 10
13.3041695272
 20
13.1374347418
 40
1.1046442617
100
AcDbArc
 50
158.5952080807
 51
162.8226873158
  0
ARC
  5
22E
100
AcDbEntity
  8
DRAWING
100
AcDbCircle
 62
7
  6
CONTINUOUS
 10
13.3329533691
 20
13.2146519972
 40
1.1043536459
100
AcDbArc
 50
167.0782566539
 51
167.4384215104
  0
ARC
  5
22F
100
AcDbEntity
  8
DRAWING
100
AcDbCircle
 62
7
  6
CONTINUOUS
 10
17.6092715681
 20
11.8069579885
 40
1.1043536457
100
AcDbArc
 50
347.0782566539
 51
347.4384215104
  0
ARC
  5
230
100
AcDbEntity
  8
DRAWING
100
AcDbCircle
 62
7
  6
CONTINUOUS
 10
17.6348634846
 20
11.8851724288
 40
1.102989123
100
AcDbArc
 50
338.588305109
 51
341.5143900346
  0
ARC
  5
231
100
AcDbEntity
  8
DRAWING
100
AcDbCircle
 62
7
  6
CONTINUOUS
 10
13.3315764956
 20
13.2149697759
 40
1.1029405781
100
AcDbArc
 50
165.7864189567
 51
167.0783519743
  0
ARC
  5
232
100
AcDbEntity
  8
DRAWING
100
AcDbCircle
 62
7
  6
CONTINUOUS
 10
17.6159681472
 20
11.8051250804
 40
1.1024075361
100
AcDbArc
 50
342.8257826975
 51
347.0843953111
  0
ARC
  5
233
100
AcDbEntity
  8
DRAWING
100
AcDbCircle
 62
7
  6
CONTINUOUS
 10
13.3063460403
 20
13.1368042467
 40
1.1019099006
100
AcDbArc
 50
158.6101688617
 51
162.824766452
  0
ARC
  5
234
100
AcDbEntity
  8
DRAWING
100
AcDbCircle
 62
7
  6
CONTINUOUS
 10
17.6121590842
 20
11.8062779849
 40
1.1013871896
100
AcDbArc
 50
342.8269830364
 51
347.0791450275
  0
SPLINE
  5
235
100
AcDbEntity
  8
DRAWING
100
AcDbSpline
 62
7
  6
CONTINUOUS
 70
0
 71
3
 72
15
 73
11
 74
0
 42
0.0000001
 43
0.0000001
 44
0.0000000001
 40
0.0
 40
0.0
 40
0.0
 40
0.0
 40
0.1373454652
 40
0.2704193728
 40
0.3994458975
 40
0.5247730204
 40
0.6468943744
 40
0.7663781976
 40
0.8838544252
 40
1.0
 40
1.0
 40
1.0
 40
1.0
 10
12.3930561498
 20
12.5499713384
 30
0.0
 10
12.3742402563
 20
12.5883140978
 30
0.0
 10
12.339673709
 20
12.6650606947
 30
0.0
 10
12.2968275824
 20
12.781768854
 30
0.0
 10
12.2639931308
 20
12.8978180358
 30
0.0
 10
12.2413241737
 20
13.0128136872
 30
0.0
 10
12.2288755179
 20
13.1263851713
 30
0.0
 10
12.2267185953
 20
13.2381879115
 30
0.0
 10
12.2348560947
 20
13.3478486645
 30
0.0
 10
12.2471795305
 20
13.4195829486
 30
0.0
 10
12.2550348292
 20
13.4548365026
 30
0.0
  0
SPLINE
  5
236
100
AcDbEntity
  8
DRAWING
100
AcDbSpline
 62
7
  6
CONTINUOUS
 70
0
 71
3
 72
48
 73
44
 74
0
 42
0.0000001
 43
0.0000001
 44
0.0000000001
 40
0.0
 40
0.0
 40
0.0
 40
0.0
 40
0.026523778
 40
0.0543677427
 40
0.0687858536
 40
0.0835308724
 40
0.1139841817
 40
0.129685452
 40
0.1456892742
 40
0.1785567073
 40
0.1953987296
 40
0.2124926503
 40
0.2473711772
 40
0.2830604996
 40
0.3194134982
 40
0.3562725655
 40
0.3934737364
 40
0.4308476047
 40
0.4682229495
 40
0.5054280662
 40
0.5422940643
 40
0.5786561387
 40
0.6143574402
 40
0.6492497651
 40
0.6831985676
 40
0.7160832932
 40
0.747803194
 40
0.7632026475
 40
0.7782834569
 40
0.8074614064
 40
0.8215584275
 40
0.835325697
 40
0.8618759517
 40
0.874679874
 40
0.8871807109
 40
0.91132045
 40
0.9344511186
 40
0.9457030841
 40
0.9567802232
 40
0.9677139828
 40
0.978537905
 40
0.9892876183
 40
1.0
 40
1.0
 40
1.0
 40
1.0
 10
18.5779807245
 20
12.5499713384
 30
0.0
 10
18.5490446724
 20
12.6089368129
 30
0.0
 10
18.4835845037
 20
12.7268541816
 30
0.0
 10
18.3878492786
 20
12.8679931018
 30
0.0
 10
18.3016707309
 20
12.97984716
 30
0.0
 10
18.2070666311
 20
13.0932253789
 30
0.0
 10
18.103971244
 20
13.2035029476
 30
0.0
 10
17.9932650371
 20
13.3104794664
 30
0.0
 10
17.8746651576
 20
13.417772893
 30
0.0
 10
17.7487977864
 20
13.5211078156
 30
0.0
 10
17.6164266583
 20
13.6203574815
 30
0.0
 10
17.477188491
 20
13.7186410808
 30
0.0
 10
17.294616967
 20
13.8362999354
 30
0.0
 10
17.0646757122
 20
13.9678076832
 30
0.0
 10
16.823963636
 20
14.0896533736
 30
0.0
 10
16.5741350474
 20
14.2010325601
 30
0.0
 10
16.3168777621
 20
14.3011643511
 30
0.0
 10
16.0539500501
 20
14.3893872115
 30
0.0
 10
15.7871367814
 20
14.4650870829
 30
0.0
 10
15.5182553985
 20
14.5277545909
 30
0.0
 10
15.2491362709
 20
14.5769661845
 30
0.0
 10
14.9816075819
 20
14.6123754869
 30
0.0
 10
14.7174910121
 20
14.6337608532
 30
0.0
 10
14.4585783018
 20
14.6409506695
 30
0.0
 10
14.2066259097
 20
14.6339238439
 30
0.0
 10
13.9633488435
 20
14.6126952391
 30
0.0
 10
13.7673048647
 20
14.5830229027
 30
0.0
 10
13.6163769608
 20
14.5521115819
 30
0.0
 10
13.4727699956
 20
14.5173336992
 30
0.0
 10
13.334239217
 20
14.4755883859
 30
0.0
 10
13.201722677
 20
14.4265600562
 30
0.0
 10
13.0774222049
 20
14.3744545842
 30
0.0
 10
12.9595301212
 20
14.3155714262
 30
0.0
 10
12.8492124695
 20
14.2497517954
 30
0.0
 10
12.7474042426
 20
14.1816432639
 30
0.0
 10
12.6311390419
 20
14.0895116249
 30
0.0
 10
12.5287353913
 20
13.9863910657
 30
0.0
 10
12.457523373
 20
13.8991099045
 30
0.0
 10
12.4097672976
 20
13.8319162726
 30
0.0
 10
12.3672704357
 20
13.7625187579
 30
0.0
 10
12.3301159227
 20
13.6910283605
 30
0.0
 10
12.2983737736
 20
13.6175762024
 30
0.0
 10
12.2808373584
 20
13.5673467255
 30
0.0
 10
12.2730041373
 20
13.542001765
 30
0.0
  0
SPLINE
  5
237
100
AcDbEntity
  8
DRAWING
100
AcDbSpline
 62
7
  6
CONTINUOUS
 70
0
 71
3
 72
16
 73
12
 74
0
 42
0.0000001
 43
0.0000001
 44
0.0000000001
 40
0.0
 40
0.0
 40
0.0
 40
0.0
 40
0.0581782013
 40
0.116470866
 40
0.2338067559
 40
0.3529139697
 40
0.4745977362
 40
0.5995910415
 40
0.7285343026
 40
0.861906359
 40
1.0
 40
1.0
 40
1.0
 40
1.0
 10
18.693427432
 20
11.5579409118
 30
0.0
 10
18.6992858376
 20
11.5768962122
 30
0.0
 10
18.7099909796
 20
11.615170179
 30
0.0
 10
18.7272976219
 20
11.6930333448
 30
0.0
 10
18.7411426371
 20
11.7927964315
 30
0.0
 10
18.7451749291
 20
11.9150696302
 30
0.0
 10
18.7366431633
 20
12.0397231363
 30
0.0
 10
18.7156187724
 20
12.1662690914
 30
0.0
 10
18.6821833482
 20
12.2942255138
 30
0.0
 10
18.6365068513
 20
12.4230631118
 30
0.0
 10
18.5987271068
 20
12.5076946562
 30
0.0
 10
18.5779807245
 20
12.5499713384
 30
0.0
  0
SPLINE
  5
238
100
AcDbEntity
  8
DRAWING
100
AcDbSpline
 62
7
  6
CONTINUOUS
 70
0
 71
3
 72
15
 73
11
 74
0
 42
0.0000001
 43
0.0000001
 44
0.0000000001
 40
0.0
 40
0.0
 40
0.0
 40
0.0
 40
0.1373454652
 40
0.2704193728
 40
0.3994458975
 40
0.5247730204
 40
0.6468943744
 40
0.7663781976
 40
0.8838544252
 40
1.0
 40
1.0
 40
1.0
 40
1.0
 10
18.5491687872
 20
12.4716386474
 30
0.0
 10
18.5679846806
 20
12.433295888
 30
0.0
 10
18.6025512279
 20
12.3565492911
 30
0.0
 10
18.6453973545
 20
12.2398411318
 30
0.0
 10
18.6782318061
 20
12.12379195
 30
0.0
 10
18.7009007633
 20
12.0087962986
 30
0.0
 10
18.7133494191
 20
11.8952248145
 30
0.0
 10
18.7155063416
 20
11.7834220743
 30
0.0
 10
18.7073688422
 20
11.6737613213
 30
0.0
 10
18.6950454064
 20
11.6020270372
 30
0.0
 10
18.6871901077
 20
11.5667734832
 30
0.0
  0
SPLINE
  5
239
100
AcDbEntity
  8
DRAWING
100
AcDbSpline
 62
7
  6
CONTINUOUS
 70
0
 71
3
 72
48
 73
44
 74
0
 42
0.0000001
 43
0.0000001
 44
0.0000000001
 40
0.0
 40
0.0
 40
0.0
 40
0.0
 40
0.026523778
 40
0.0543677427
 40
0.0687858536
 40
0.0835308724
 40
0.1139841817
 40
0.129685452
 40
0.1456892742
 40
0.1785567073
 40
0.1953987296
 40
0.2124926503
 40
0.2473711772
 40
0.2830604996
 40
0.3194134982
 40
0.3562725655
 40
0.3934737364
 40
0.4308476047
 40
0.4682229495
 40
0.5054280662
 40
0.5422940643
 40
0.5786561387
 40
0.6143574402
 40
0.6492497651
 40
0.6831985676
 40
0.7160832932
 40
0.747803194
 40
0.7632026475
 40
0.7782834569
 40
0.8074614064
 40
0.8215584275
 40
0.835325697
 40
0.8618759517
 40
0.874679874
 40
0.8871807109
 40
0.91132045
 40
0.9344511186
 40
0.9457030841
 40
0.9567802232
 40
0.9677139828
 40
0.978537905
 40
0.9892876183
 40
1.0
 40
1.0
 40
1.0
 40
1.0
 10
12.3642442125
 20
12.4716386474
 30
0.0
 10
12.3931802645
 20
12.412673173
 30
0.0
 10
12.4586404333
 20
12.2947558042
 30
0.0
 10
12.5543756583
 20
12.153616884
 30
0.0
 10
12.640554206
 20
12.0417628258
 30
0.0
 10
12.7351583058
 20
11.9283846069
 30
0.0
 10
12.8382536929
 20
11.8181070382
 30
0.0
 10
12.9489598999
 20
11.7111305194
 30
0.0
 10
13.0675597793
 20
11.6038370929
 30
0.0
 10
13.1934271505
 20
11.5005021703
 30
0.0
 10
13.3257982786
 20
11.4012525043
 30
0.0
 10
13.4650364459
 20
11.302968905
 30
0.0
 10
13.64760797
 20
11.1853100504
 30
0.0
 10
13.8775492248
 20
11.0538023026
 30
0.0
 10
14.1182613009
 20
10.9319566122
 30
0.0
 10
14.3680898895
 20
10.8205774257
 30
0.0
 10
14.6253471748
 20
10.7204456347
 30
0.0
 10
14.8882748868
 20
10.6322227743
 30
0.0
 10
15.1550881555
 20
10.5565229029
 30
0.0
 10
15.4239695385
 20
10.4938553949
 30
0.0
 10
15.6930886661
 20
10.4446438013
 30
0.0
 10
15.960617355
 20
10.4092344989
 30
0.0
 10
16.2247339248
 20
10.3878491326
 30
0.0
 10
16.4836466351
 20
10.3806593163
 30
0.0
 10
16.7355990272
 20
10.3876861419
 30
0.0
 10
16.9788760935
 20
10.4089147467
 30
0.0
 10
17.1749200723
 20
10.4385870831
 30
0.0
 10
17.3258479762
 20
10.4694984039
 30
0.0
 10
17.4694549413
 20
10.5042762867
 30
0.0
 10
17.6079857199
 20
10.5460215999
 30
0.0
 10
17.7405022599
 20
10.5950499296
 30
0.0
 10
17.864802732
 20
10.6471554016
 30
0.0
 10
17.9826948157
 20
10.7060385596
 30
0.0
 10
18.0930124675
 20
10.7718581904
 30
0.0
 10
18.1948206944
 20
10.8399667219
 30
0.0
 10
18.311085895
 20
10.9320983609
 30
0.0
 10
18.4134895457
 20
11.0352189201
 30
0.0
 10
18.4847015639
 20
11.1225000813
 30
0.0
 10
18.5324576394
 20
11.1896937133
 30
0.0
 10
18.5749545013
 20
11.2590912279
 30
0.0
 10
18.6121090143
 20
11.3305816253
 30
0.0
 10
18.6438511633
 20
11.4040337834
 30
0.0
 10
18.6613875786
 20
11.4542632603
 30
0.0
 10
18.6692207996
 20
11.4796082208
 30
0.0
  0
SPLINE
  5
23A
100
AcDbEntity
  8
DRAWING
100
AcDbSpline
 62
7
  6
CONTINUOUS
 70
0
 71
3
 72
50
 73
46
 74
0
 42
0.0000001
 43
0.0000001
 44
0.0000000001
 40
0.0
 40
0.0
 40
0.0
 40
0.0
 40
0.010695677
 40
0.021464337
 40
0.0323403001
 40
0.0433559047
 40
0.0545415048
 40
0.0659253123
 40
0.0775324466
 40
0.0893850382
 40
0.1015026854
 40
0.1139022039
 40
0.1265968338
 40
0.1395972094
 40
0.1665395329
 40
0.1804964384
 40
0.1947766944
 40
0.2242962098
 40
0.2550695213
 40
0.2870368311
 40
0.3201131553
 40
0.3370375035
 40
0.3541986999
 40
0.3891658702
 40
0.4248843196
 40
0.4612086758
 40
0.4979855241
 40
0.5350549949
 40
0.5722535067
 40
0.6094155768
 40
0.6463764689
 40
0.682973728
 40
0.7190503169
 40
0.7544558062
 40
0.7890497461
 40
0.8060032398
 40
0.8227071316
 40
0.8553080506
 40
0.8711848267
 40
0.8867639842
 40
0.9169902442
 40
0.9316312364
 40
0.94595205
 40
0.973622222
 40
1.0
 40
1.0
 40
1.0
 40
1.0
 10
18.6617257542
 20
11.4825076987
 30
0.0
 10
18.6521774431
 20
11.4581554767
 30
0.0
 10
18.6312741476
 20
11.4099478076
 30
0.0
 10
18.5947663699
 20
11.3397180417
 30
0.0
 10
18.5530913456
 20
11.2715050162
 30
0.0
 10
18.5063325247
 20
11.2054224286
 30
0.0
 10
18.4545678149
 20
11.1415790149
 30
0.0
 10
18.3978766572
 20
11.0800885403
 30
0.0
 10
18.3363628767
 20
11.0210464257
 30
0.0
 10
18.2701344516
 20
10.9645448748
 30
0.0
 10
18.1992981995
 20
10.9106791264
 30
0.0
 10
18.1239686645
 20
10.8595434243
 30
0.0
 10
18.0442763464
 20
10.8112102408
 30
0.0
 10
17.9310475578
 20
10.7498839498
 30
0.0
 10
17.8108053612
 20
10.6953648332
 30
0.0
 10
17.6846298079
 20
10.6474363738
 30
0.0
 10
17.550633562
 20
10.6026428582
 30
0.0
 10
17.3744002467
 20
10.5550065723
 30
0.0
 10
17.1528091792
 20
10.5116212135
 30
0.0
 10
16.9202433286
 20
10.4817011586
 30
0.0
 10
16.7201129337
 20
10.4682221457
 30
0.0
 10
16.5558952049
 20
10.4641612072
 30
0.0
 10
16.3870022328
 20
10.464666163
 30
0.0
 10
16.1722613496
 20
10.4740626806
 30
0.0
 10
15.9116366252
 20
10.4989495918
 30
0.0
 10
15.6481865044
 20
10.5373541463
 30
0.0
 10
15.3836504141
 20
10.5890179306
 30
0.0
 10
15.1197718419
 20
10.653612019
 30
0.0
 10
14.8582857216
 20
10.7306933573
 30
0.0
 10
14.6009218259
 20
10.8197761954
 30
0.0
 10
14.34936764
 20
10.9202480811
 30
0.0
 10
14.1052910864
 20
11.0314733495
 30
0.0
 10
13.8702875007
 20
11.1526947273
 30
0.0
 10
13.6459203547
 20
11.283135125
 30
0.0
 10
13.4678394238
 20
11.3995634602
 30
0.0
 10
13.3320521994
 20
11.4966675502
 30
0.0
 10
13.2029653389
 20
11.5946417758
 30
0.0
 10
13.0802233059
 20
11.6965350567
 30
0.0
 10
12.9645535535
 20
11.8022202909
 30
0.0
 10
12.8565435053
 20
11.9075540981
 30
0.0
 10
12.7559286307
 20
12.01605671
 30
0.0
 10
12.6635475314
 20
12.1275324382
 30
0.0
 10
12.5793183835
 20
12.2375126841
 30
0.0
 10
12.48564279
 20
12.3762460528
 30
0.0
 10
12.421475215
 20
12.4920593724
 30
0.0
 10
12.3930561498
 20
12.5499713384
 30
0.0
  0
SPLINE
  5
23B
100
AcDbEntity
  8
DRAWING
100
AcDbSpline
 62
7
  6
CONTINUOUS
 70
0
 71
3
 72
16
 73
12
 74
0
 42
0.0000001
 43
0.0000001
 44
0.0000000001
 40
0.0
 40
0.0
 40
0.0
 40
0.0
 40
0.0581782013
 40
0.116470866
 40
0.2338067559
 40
0.3529139697
 40
0.4745977362
 40
0.5995910415
 40
0.7285343026
 40
0.861906359
 40
1.0
 40
1.0
 40
1.0
 40
1.0
 10
12.248797505
 20
13.463669074
 30
0.0
 10
12.2429390993
 20
13.4447137736
 30
0.0
 10
12.2322339574
 20
13.4064398069
 30
0.0
 10
12.2149273151
 20
13.328576641
 30
0.0
 10
12.2010822999
 20
13.2288135544
 30
0.0
 10
12.1970500079
 20
13.1065403556
 30
0.0
 10
12.2055817736
 20
12.9818868495
 30
0.0
 10
12.2266061646
 20
12.8553408944
 30
0.0
 10
12.2600415887
 20
12.7273844721
 30
0.0
 10
12.3057180857
 20
12.598546874
 30
0.0
 10
12.3434978302
 20
12.5139153296
 30
0.0
 10
12.3642442125
 20
12.4716386474
 30
0.0
  0
SPLINE
  5
23C
100
AcDbEntity
  8
DRAWING
100
AcDbSpline
 62
7
  6
CONTINUOUS
 70
0
 71
3
 72
51
 73
47
 74
0
 42
0.0000001
 43
0.0000001
 44
0.0000000001
 40
0.0
 40
0.0
 40
0.0
 40
0.0
 40
0.0106956363
 40
0.0214640655
 40
0.0323396245
 40
0.0433546694
 40
0.0545395712
 40
0.0659225611
 40
0.0775287813
 40
0.0893803804
 40
0.1014969734
 40
0.1138953961
 40
0.1265889071
 40
0.1395881536
 40
0.1665282389
 40
0.1804840663
 40
0.1947632812
 40
0.22428086
 40
0.255052479
 40
0.287018378
 40
0.3200935968
 40
0.3370175121
 40
0.3541783563
 40
0.3891450588
 40
0.4069206306
 40
0.4248662043
 40
0.4611907039
 40
0.4979679742
 40
0.5350381183
 40
0.5722375259
 40
0.6094006804
 40
0.6463628107
 40
0.6829614237
 40
0.7190394454
 40
0.7544464073
 40
0.7890418241
 40
0.8059960461
 40
0.822700654
 40
0.8553029526
 40
0.8711803851
 40
0.8867601726
 40
0.9169876003
 40
0.9316291253
 40
0.9459504355
 40
0.9736214894
 40
1.0
 40
1.0
 40
1.0
 40
1.0
 10
12.280335077
 20
13.5386834977
 30
0.0
 10
12.289874065
 20
13.5630410672
 30
0.0
 10
12.3107590506
 20
13.611259633
 30
0.0
 10
12.3472409185
 20
13.6815067418
 30
0.0
 10
12.3888914168
 20
13.7497373572
 30
0.0
 10
12.4356270542
 20
13.8158377515
 30
0.0
 10
12.4873698994
 20
13.8796991684
 30
0.0
 10
12.544040545
 20
13.9412077949
 30
0.0
 10
12.6055352575
 20
14.0002680817
 30
0.0
 10
12.6717460055
 20
14.0567878261
 30
0.0
 10
12.7425659424
 20
14.1106717914
 30
0.0
 10
12.8178805908
 20
14.1618256171
 30
0.0
 10
12.8975594508
 20
14.2101767805
 30
0.0
 10
13.0107720931
 20
14.2715272164
 30
0.0
 10
13.1310011413
 20
14.3260697635
 30
0.0
 10
13.2571660385
 20
14.3740206597
 30
0.0
 10
13.3911537736
 20
14.4188369646
 30
0.0
 10
13.5673800488
 20
14.4665007167
 30
0.0
 10
13.7889673471
 20
14.5099168298
 30
0.0
 10
14.0215343782
 20
14.539865675
 30
0.0
 10
14.2216688541
 20
14.5533666708
 30
0.0
 10
14.3858923829
 20
14.5574441874
 30
0.0
 10
14.5547919321
 20
14.5569549127
 30
0.0
 10
14.725689011
 20
14.5494937013
 30
0.0
 10
14.8980052557
 20
14.535317305
 30
0.0
 10
15.0732136738
 20
14.5164419211
 30
0.0
 10
15.2936610165
 20
14.4843200681
 30
0.0
 10
15.5582181436
 20
14.4326709503
 30
0.0
 10
15.8221229575
 20
14.3680873622
 30
0.0
 10
16.0836362536
 20
14.2910140391
 30
0.0
 10
16.3410288117
 20
14.2019363574
 30
0.0
 10
16.592612367
 20
14.101466932
 30
0.0
 10
16.836718584
 20
13.9902415026
 30
0.0
 10
17.0717516314
 20
13.8690175023
 30
0.0
 10
17.2961475546
 20
13.7385721415
 30
0.0
 10
17.4742516769
 20
13.6221378846
 30
0.0
 10
17.6100567211
 20
13.5250280277
 30
0.0
 10
17.7391605357
 20
13.4270475282
 30
0.0
 10
17.861918699
 20
13.3251471011
 30
0.0
 10
17.9776035662
 20
13.2194538457
 30
0.0
 10
18.0856275092
 20
13.1141118329
 30
0.0
 10
18.1862551562
 20
13.0056003217
 30
0.0
 10
18.2786476851
 20
12.8941150252
 30
0.0
 10
18.3628868343
 20
12.7841253587
 30
0.0
 10
18.4565729615
 20
12.6453798811
 30
0.0
 10
18.5207471107
 20
12.5295559347
 30
0.0
 10
18.5491687872
 20
12.4716386474
 30
0.0
  0
SPLINE
  5
23D
100
AcDbEntity
  8
DRAWING
100
AcDbSpline
 62
7
  6
CONTINUOUS
 70
0
 71
3
 72
16
 73
12
 74
0
 42
0.0000001
 43
0.0000001
 44
0.0000000001
 40
0.0
 40
0.0
 40
0.0
 40
0.0
 40
0.138093641
 40
0.2714656974
 40
0.4004089585
 40
0.5254022638
 40
0.6470860303
 40
0.7661932441
 40
0.883529134
 40
0.9418217987
 40
1.0
 40
1.0
 40
1.0
 40
1.0
 10
12.3688495174
 20
12.4716386474
 30
0.0
 10
12.3481340077
 20
12.5138524178
 30
0.0
 10
12.3104104831
 20
12.5983580225
 30
0.0
 10
12.2648019571
 20
12.7270038979
 30
0.0
 10
12.2314162881
 20
12.8547699089
 30
0.0
 10
12.2104231834
 20
12.9811275516
 30
0.0
 10
12.2019041138
 20
13.1055955614
 30
0.0
 10
12.2059304053
 20
13.227686806
 30
0.0
 10
12.2197548178
 20
13.3273014357
 30
0.0
 10
12.2370357062
 20
13.4050487337
 30
0.0
 10
12.2477249179
 20
13.4432657451
 30
0.0
 10
12.2535746056
 20
13.4621928383
 30
0.0
  0
SPLINE
  5
23E
100
AcDbEntity
  8
DRAWING
100
AcDbSpline
 62
7
  6
CONTINUOUS
 70
0
 71
3
 72
51
 73
47
 74
0
 42
0.0000001
 43
0.0000001
 44
0.0000000001
 40
0.0
 40
0.0
 40
0.0
 40
0.0
 40
0.0263779211
 40
0.054048274
 40
0.068369192
 40
0.0830102977
 40
0.1132368105
 40
0.1288161058
 40
0.1446930263
 40
0.1772942503
 40
0.193998301
 40
0.2109519562
 40
0.2455462234
 40
0.280952037
 40
0.3170289381
 40
0.353626487
 40
0.3905876369
 40
0.4277499228
 40
0.4649485995
 40
0.5020181752
 40
0.5387950611
 40
0.5751193806
 40
0.5930649447
 40
0.6108405634
 40
0.6458075346
 40
0.6629686002
 40
0.6798927962
 40
0.712968753
 40
0.7449356151
 40
0.7757084053
 40
0.805227336
 40
0.819507281
 40
0.8334638661
 40
0.8604055288
 40
0.8734055722
 40
0.8860998734
 40
0.8984990699
 40
0.910616407
 40
0.9224687057
 40
0.9340755688
 40
0.9454591316
 40
0.9566445196
 40
0.96765995
 40
0.9785357812
 40
0.9893043564
 40
1.0
 40
1.0
 40
1.0
 40
1.0
 10
18.5537740922
 20
12.4716386474
 30
0.0
 10
18.5253119669
 20
12.5296383606
 30
0.0
 10
18.4610469828
 20
12.6456271544
 30
0.0
 10
18.3672289325
 20
12.7845705564
 30
0.0
 10
18.28287155
 20
12.894717257
 30
0.0
 10
18.1903496807
 20
13.0063617085
 30
0.0
 10
18.0895814016
 20
13.1150284319
 30
0.0
 10
17.9814066241
 20
13.2205214403
 30
0.0
 10
17.8655603969
 20
13.3263663495
 30
0.0
 10
17.7426310743
 20
13.4284134174
 30
0.0
 10
17.6133472455
 20
13.5265353534
 30
0.0
 10
17.4773528328
 20
13.6237857197
 30
0.0
 10
17.299000229
 20
13.7403891724
 30
0.0
 10
17.0742909171
 20
13.8710253106
 30
0.0
 10
16.8389291295
 20
13.9924280559
 30
0.0
 10
16.5944807948
 20
14.1038191296
 30
0.0
 10
16.3425437745
 20
14.2044400802
 30
0.0
 10
16.0847885352
 20
14.2936543
 30
0.0
 10
15.822905488
 20
14.3708482861
 30
0.0
 10
15.5586260896
 20
14.4355360158
 30
0.0
 10
15.2936917666
 20
14.4872720246
 30
0.0
 10
15.0729288651
 20
14.5194517508
 30
0.0
 10
14.8974685944
 20
14.5383642928
 30
0.0
 10
14.7249033559
 20
14.5525714663
 30
0.0
 10
14.5537584227
 20
14.5600544373
 30
0.0
 10
14.3846128724
 20
14.5605560767
 30
0.0
 10
14.2201486224
 20
14.556484558
 30
0.0
 10
14.0197189678
 20
14.5429795276
 30
0.0
 10
13.7868061693
 20
14.5130070849
 30
0.0
 10
13.564885889
 20
14.4695487466
 30
0.0
 10
13.3883918335
 20
14.421834034
 30
0.0
 10
13.2541981941
 20
14.3769675944
 30
0.0
 10
13.127837483
 20
14.3289616343
 30
0.0
 10
13.0074196456
 20
14.2743549259
 30
0.0
 10
12.8940264798
 20
14.2129307049
 30
0.0
 10
12.8142190369
 20
14.1645206237
 30
0.0
 10
12.7387812656
 20
14.1133038084
 30
0.0
 10
12.6678438604
 20
14.0593528528
 30
0.0
 10
12.6015215177
 20
14.0027621729
 30
0.0
 10
12.5399212224
 20
13.9436271488
 30
0.0
 10
12.483151128
 20
13.8820401214
 30
0.0
 10
12.4313151894
 20
13.8180966884
 30
0.0
 10
12.3844929571
 20
13.7519107976
 30
0.0
 10
12.3427624611
 20
13.6835913526
 30
0.0
 10
12.3062072871
 20
13.6132522283
 30
0.0
 10
12.2852777942
 20
13.5649697653
 30
0.0
 10
12.2757177762
 20
13.5405798035
 30
0.0
  0
SPLINE
  5
23F
100
AcDbEntity
  8
DRAWING
100
AcDbSpline
 62
7
  6
CONTINUOUS
 70
0
 71
3
 72
48
 73
44
 74
0
 42
0.0000001
 43
0.0000001
 44
0.0000000001
 40
0.0
 40
0.0
 40
0.0
 40
0.0
 40
0.0107123817
 40
0.021462095
 40
0.0322860172
 40
0.0432197768
 40
0.0542969159
 40
0.0655488814
 40
0.08867955
 40
0.1128192891
 40
0.125320126
 40
0.1381240483
 40
0.164674303
 40
0.1784415725
 40
0.1925385936
 40
0.2217165431
 40
0.2367973525
 40
0.252196806
 40
0.2839167068
 40
0.3168014324
 40
0.3507502349
 40
0.3856425598
 40
0.4213438613
 40
0.4577059357
 40
0.4945719338
 40
0.5317770505
 40
0.5691523953
 40
0.6065262636
 40
0.6437274345
 40
0.6805865018
 40
0.7169395004
 40
0.7526288228
 40
0.7875073497
 40
0.8046012704
 40
0.8214432927
 40
0.8543107258
 40
0.870314548
 40
0.8860158183
 40
0.9164691276
 40
0.9312141464
 40
0.9456322573
 40
0.973476222
 40
1.0
 40
1.0
 40
1.0
 40
1.0
 10
18.664443699
 20
11.4810844566
 30
0.0
 10
18.6566221345
 20
11.4557772118
 30
0.0
 10
18.6391118151
 20
11.4056224811
 30
0.0
 10
18.6074169014
 20
11.3322796268
 30
0.0
 10
18.5703176778
 20
11.260895614
 30
0.0
 10
18.5278840553
 20
11.1916013694
 30
0.0
 10
18.4801990455
 20
11.124507728
 30
0.0
 10
18.4090929975
 20
11.0373564495
 30
0.0
 10
18.3068417332
 20
10.9343893435
 30
0.0
 10
18.1907495463
 20
10.8423948051
 30
0.0
 10
18.0890928197
 20
10.7743876256
 30
0.0
 10
17.9789393311
 20
10.7086659406
 30
0.0
 10
17.8612226821
 20
10.6498704065
 30
0.0
 10
17.7371071809
 20
10.5978424723
 30
0.0
 10
17.6047878381
 20
10.5488871015
 30
0.0
 10
17.4664632065
 20
10.5072039092
 30
0.0
 10
17.3230699422
 20
10.4724777793
 30
0.0
 10
17.1723666334
 20
10.4416124575
 30
0.0
 10
16.9766143867
 20
10.4119842763
 30
0.0
 10
16.7336993399
 20
10.3907872617
 30
0.0
 10
16.482121877
 20
10.3837708927
 30
0.0
 10
16.2235944534
 20
10.3909500098
 30
0.0
 10
15.9598709142
 20
10.4123035527
 30
0.0
 10
15.6927403334
 20
10.4476601627
 30
0.0
 10
15.4240216808
 20
10.4967985247
 30
0.0
 10
15.1555404189
 20
10.5593727775
 30
0.0
 10
14.8891241938
 20
10.6349600003
 30
0.0
 10
14.6265877432
 20
10.7230515767
 30
0.0
 10
14.3697132813
 20
10.823034362
 30
0.0
 10
14.1202564614
 20
10.9342478057
 30
0.0
 10
13.8799025877
 20
11.0559121781
 30
0.0
 10
13.6503035074
 20
11.1872242299
 30
0.0
 10
13.4680036672
 20
11.3047079969
 30
0.0
 10
13.3289726996
 20
11.4028453408
 30
0.0
 10
13.1967985523
 20
11.5019473138
 30
0.0
 10
13.0711184837
 20
11.6051284642
 30
0.0
 10
12.9526950922
 20
11.712262228
 30
0.0
 10
12.8421536266
 20
11.8190795555
 30
0.0
 10
12.7392116553
 20
11.9291930207
 30
0.0
 10
12.6447483354
 20
12.042402522
 30
0.0
 10
12.5586980296
 20
12.1540901307
 30
0.0
 10
12.4631052677
 20
12.2950190228
 30
0.0
 10
12.3977425099
 20
12.4127609192
 30
0.0
 10
12.3688495174
 20
12.4716386474
 30
0.0
  0
SPLINE
  5
240
100
AcDbEntity
  8
DRAWING
100
AcDbSpline
 62
7
  6
CONTINUOUS
 70
0
 71
3
 72
15
 73
11
 74
0
 42
0.0000001
 43
0.0000001
 44
0.0000000001
 40
0.0
 40
0.0
 40
0.0
 40
0.0
 40
0.1161455748
 40
0.2336218024
 40
0.3531056256
 40
0.4752269796
 40
0.6005541025
 40
0.7295806272
 40
0.8626545348
 40
1.0
 40
1.0
 40
1.0
 40
1.0
 10
18.6920011077
 20
11.5654249509
 30
0.0
 10
18.6998681132
 20
11.6007310437
 30
0.0
 10
18.7122099148
 20
11.6725722344
 30
0.0
 10
18.7203595416
 20
11.7823964162
 30
0.0
 10
18.7181994045
 20
11.8943657775
 30
0.0
 10
18.7057321964
 20
12.0081065187
 30
0.0
 10
18.6830294554
 20
12.1232735496
 30
0.0
 10
18.6501460702
 20
12.2394956809
 30
0.0
 10
18.6072360894
 20
12.3563777719
 30
0.0
 10
18.5726180271
 20
12.4332387453
 30
0.0
 10
18.5537740922
 20
12.4716386474
 30
0.0
  0
ENDSEC
  0
SECTION
  2
OBJECTS
  0
DICTIONARY
  5
C
100
AcDbDictionary
280
0
281
1
  3
ACAD_GROUP
350
D
  3
ACAD_MLINESTYLE
350
17
  3
ACAD_LAYOUT
350
1A
  3
ACAD_PLOTSETTINGS
350
19
  3
ACAD_PLOTSTYLENAME
350
E
  0
DICTIONARY
  5
D
102
{ACAD_REACTORS
330
C
102
}
100
AcDbDictionary
280
0
281
1
  0
ACDBDICTIONARYWDFLT
  5
E
102
{ACAD_REACTORS
330
C
102
}
100
AcDbDictionary
281
1
  3
Normal
350
F
100
AcDbDictionaryWithDefault
340
F
  0
DICTIONARY
  5
17
102
{ACAD_REACTORS
330
C
102
}
100
AcDbDictionary
280
0
281
1
  3
Standard
350
18
  0
DICTIONARY
  5
19
102
{ACAD_REACTORS
330
C
102
}
100
AcDbDictionary
281
1
  0
DICTIONARY
  5
1A
102
{ACAD_REACTORS
330
C
102
}
100
AcDbDictionary
281
1
  3
Model
350
241
  3
Layout1
350
242
  0
ACDBPLACEHOLDER
  5
F
102
{ACAD_REACTORS
330
E
102
}
  0
MLINESTYLE
  5
18
102
{ACAD_REACTORS
330
17
102
}
100
AcDbMlineStyle
  2
STANDARD
 70
0
  3

 62
256
 51
90.0
 52
90.0
 71
2
 49
0.5
 62
256
  6
BYLAYER
 49
-0.5
 62
256
  6
BYLAYER
  0
LAYOUT
  5
241
102
{ACAD_REACTORS
330
1A
102
}
100
AcDbPlotSettings
  1

  2
none_device
  4
ANSI_C_(22.00_x_17.00_Inches)
  6

 40
0.0
 41
0.0
 42
0.0
 43
0.0
 44
558.8
 45
431.8
 46
0.0
 47
0.0
 48
0.0
 49
0.0
140
0.0
141
0.0
142
1.0
143
1.0
 70
1024
 72
0
 73
0
 74
0
  7

 75
0
147
1.0
148
0.0
149
0.0
100
AcDbLayout
  1
Model
 70
0
 71
0
 10
0.0
 20
0.0
 11
22.0
 21
17.0
 12
0.0
 22
0.0
 32
0.0
 14
0.0
 24
0.0
 34
0.0
 15
0.0
 25
0.0
 35
0.0
146
0.0
 13
0.0
 23
0.0
 33
0.0
 16
1.0
 26
0.0
 36
0.0
 17
0.0
 27
1.0
 37
0.0
 76
0
330
218
345
0
346
0
  0
LAYOUT
  5
242
102
{ACAD_REACTORS
330
1A
102
}
100
AcDbPlotSettings
  1

  2
none_device
  4
ANSI_C_(22.00_x_17.00_Inches)
  6

 40
0.0
 41
0.0
 42
0.0
 43
0.0
 44
558.8
 45
431.8
 46
0.0
 47
0.0
 48
0.0
 49
0.0
140
0.0
141
0.0
142
1.0
143
1.0
 70
0
 72
0
 73
0
 74
0
  7

 75
0
147
1.0
148
0.0
149
0.0
100
AcDbLayout
  1
Layout1
 70
0
 71
1
 10
0.0
 20
0.0
 11
22.0
 21
17.0
 12
0.0
 22
0.0
 32
0.0
 14
0.0
 24
0.0
 34
0.0
 15
0.0
 25
0.0
 35
0.0
146
0.0
 13
0.0
 23
0.0
 33
0.0
 16
1.0
 26
0.0
 36
0.0
 17
0.0
 27
1.0
 37
0.0
 76
0
330
219
345
0
346
0
  0
ENDSEC
  0
EOF