999
DXF file: _cgs_temp_output.dxf
999
Pro/ENGINEER 2015110 by Parametric Technology Corporation
  0
SECTION
  2
HEADER
  9
$ACADVER
  1
AC1021
  9
$DWGCODEPAGE
  3
ANSI_1252
  9
$EXTMAX
 10
22.0
 20
17.0
 30
0.0
  9
$EXTMIN
 10
0.0
 20
0.0
 30
0.0
  9
$LIMMIN
 10
0.0
 20
0.0
  9
$LIMMAX
 10
22.0
 20
17.0
  9
$VIEWCTR
 10
11.0
 20
8.5
  9
$VIEWSIZE
 40
17.0
  9
$CLAYER
  8
0
  9
$LTSCALE
 40
1.21
  9
$CELTYPE
  6
BYLAYER
  9
$DIMSCALE
 40
1.0
  9
$DIMASZ
 40
0.1875
  9
$DIMEXO
 40
0.0625
  9
$DIMDLI
 40
0.836
  9
$DIMEXE
 40
0.125
  9
$DIMCEN
 40
0.198
  9
$DIMLFAC
 40
1.0
  9
$DIMBLK
  1
_CLOSED
  9
$DIMALT
 70
0
  9
$DIMALTF
 40
25.4
  9
$DIMTXT
 40
0.15625
  9
$DIMTOL
 70
0
  9
$DIMLIM
 70
0
  9
$DIMTFAC
 40
1.0
  9
$DIMGAP
 40
0.09
  9
$DIMDSEP
 70
46
  9
$AUNITS
 70
0
  9
$PDMODE
 70
3
  9
$PDSIZE
 40
0.3125
  9
$HANDSEED
  5
290
  9
$TILEMODE
 70
1
  9
$MEASUREMENT
 70
0
  9
$INSUNITS
 70
1
  0
ENDSEC
  0
SECTION
  2
CLASSES
  0
CLASS
  1
ACDBDICTIONARYWDFLT
  2
AcDbDictionaryWithDefault
  3
AutoCAD 2000
 90
0
 91
1
280
0
281
0
  0
CLASS
  1
ACDBPLACEHOLDER
  2
AcDbPlaceHolder
  3
AutoCAD 2000
 90
0
 91
1
280
0
281
0
  0
CLASS
  1
LAYOUT
  2
AcDbLayout
  3
AutoCAD 2000
 90
0
 91
0
280
0
281
0
  0
ENDSEC
  0
SECTION
  2
TABLES
  0
TABLE
  2
VPORT
  5
8
100
AcDbSymbolTable
 70
2
  0
VPORT
  5
1F4
100
AcDbSymbolTableRecord
100
AcDbViewportTableRecord
  2
*ACTIVE
 70
0
 10
0.0
 20
0.0
 11
1.0
 21
1.0
 12
11.0
 22
8.5
 13
0.0
 23
0.0
 14
1.0
 24
1.0
 15
0.0
 25
0.0
 16
0.0
 26
0.0
 36
1.0
 17
0.0
 27
0.0
 37
0.0
 40
17.0
 41
1.2941176471
 42
50.0
 43
0.0
 44
0.0
 50
0.0
 51
0.0
 71
0
 72
100
 73
1
 74
1
 75
0
 76
0
 77
0
 78
0
  0
ENDTAB
  0
TABLE
  2
LTYPE
  5
5
100
AcDbSymbolTable
 70
6
  0
LTYPE
  5
14
100
AcDbSymbolTableRecord
100
AcDbLinetypeTableRecord
  2
BYBLOCK
 70
0
  3

 72
65
 73
0
 40
0.0
  0
LTYPE
  5
15
100
AcDbSymbolTableRecord
100
AcDbLinetypeTableRecord
  2
BYLAYER
 70
0
  3

 72
65
 73
0
 40
0.0
  0
LTYPE
  5
16
100
AcDbSymbolTableRecord
100
AcDbLinetypeTableRecord
  2
CONTINUOUS
 70
64
  3
Solid line
 72
65
 73
0
 40
0.0
  0
LTYPE
  5
1F5
100
AcDbSymbolTableRecord
100
AcDbLinetypeTableRecord
  2
CENTER
 70
64
  3
____ _ ____ _ ____ _ ____ _ ____ _ ____ _ ____
 72
65
 73
4
 40
0.6
 49
0.375
 74
0
 49
-0.075
 74
0
 49
0.075
 74
0
 49
-0.075
 74
0
  0
LTYPE
  5
1F6
100
AcDbSymbolTableRecord
100
AcDbLinetypeTableRecord
  2
HIDDEN
 70
64
  3
- - - - - - - - - - - - - - - - - - - -
 72
65
 73
2
 40
0.2
 49
0.1
 74
0
 49
-0.1
 74
0
  0
LTYPE
  5
1F7
100
AcDbSymbolTableRecord
100
AcDbLinetypeTableRecord
  2
PHANTOM
 70
64
  3
_____ _ _ _____ _ _ _____ _ _ _____
 72
65
 73
6
 40
0.8
 49
0.45
 74
0
 49
-0.05
 74
0
 49
0.1
 74
0
 49
-0.05
 74
0
 49
0.1
 74
0
 49
-0.05
 74
0
  0
LTYPE
  5
1F8
100
AcDbSymbolTableRecord
100
AcDbLinetypeTableRecord
  2
DOT
 70
64
  3
. . . . . . . . . . . . . . . . . . . .
 72
65
 73
2
 40
0.2
 49
0.1
 74
0
 49
-0.1
 74
0
  0
LTYPE
  5
1F9
100
AcDbSymbolTableRecord
100
AcDbLinetypeTableRecord
  2
DASHED
 70
64
  3
- - - - - - - - - - - - - - - - - - - -
 72
65
 73
2
 40
0.2
 49
0.1
 74
0
 49
-0.1
 74
0
  0
ENDTAB
  0
TABLE
  2
LAYER
  5
2
100
AcDbSymbolTable
 70
36
  0
LAYER
  5
10
100
AcDbSymbolTableRecord
100
AcDbLayerTableRecord
  2
0
 70
0
 62
7
  6
CONTINUOUS
370
-3
390
F
  0
LAYER
  5
1FA
100
AcDbSymbolTableRecord
100
AcDbLayerTableRecord
  2
DEFAULT_1
 70
0
 62
7
  6
CENTER
370
-3
390
F
  0
LAYER
  5
1FB
100
AcDbSymbolTableRecord
100
AcDbLayerTableRecord
  2
DEFAULT_2
 70
0
 62
8
  6
HIDDEN
370
-3
390
F
  0
LAYER
  5
1FC
100
AcDbSymbolTableRecord
100
AcDbLayerTableRecord
  2
DEFAULT_3
 70
0
 62
7
  6
PHANTOM
370
-3
390
F
  0
LAYER
  5
1FD
100
AcDbSymbolTableRecord
100
AcDbLayerTableRecord
  2
01_ALL_DTM_PLN
 70
0
 62
7
  6
CONTINUOUS
370
-3
390
F
  0
LAYER
  5
1FE
100
AcDbSymbolTableRecord
100
AcDbLayerTableRecord
  2
01__ASM_ALL_DTM_PLN
 70
0
 62
7
  6
CONTINUOUS
370
-3
390
F
  0
LAYER
  5
1FF
100
AcDbSymbolTableRecord
100
AcDbLayerTableRecord
  2
01__ASM_DEF_DTM_PLN
 70
0
 62
7
  6
CONTINUOUS
370
-3
390
F
  0
LAYER
  5
200
100
AcDbSymbolTableRecord
100
AcDbLayerTableRecord
  2
01___PRT_ALL_DTM_PLN
 70
0
 62
7
  6
CONTINUOUS
370
-3
390
F
  0
LAYER
  5
201
100
AcDbSymbolTableRecord
100
AcDbLayerTableRecord
  2
01___PRT_DEF_DTM_PLN
 70
0
 62
7
  6
CONTINUOUS
370
-3
390
F
  0
LAYER
  5
202
100
AcDbSymbolTableRecord
100
AcDbLayerTableRecord
  2
02_ALL_AXES
 70
0
 62
7
  6
CONTINUOUS
370
-3
390
F
  0
LAYER
  5
203
100
AcDbSymbolTableRecord
100
AcDbLayerTableRecord
  2
02__ASM_ALL_AXES
 70
0
 62
7
  6
CONTINUOUS
370
-3
390
F
  0
LAYER
  5
204
100
AcDbSymbolTableRecord
100
AcDbLayerTableRecord
  2
02___PRT_ALL_AXES
 70
0
 62
7
  6
CONTINUOUS
370
-3
390
F
  0
LAYER
  5
205
100
AcDbSymbolTableRecord
100
AcDbLayerTableRecord
  2
03_ALL_CURVES
 70
0
 62
7
  6
CONTINUOUS
370
-3
390
F
  0
LAYER
  5
206
100
AcDbSymbolTableRecord
100
AcDbLayerTableRecord
  2
03__ASM_ALL_CURVES
 70
0
 62
7
  6
CONTINUOUS
370
-3
390
F
  0
LAYER
  5
207
100
AcDbSymbolTableRecord
100
AcDbLayerTableRecord
  2
03___PRT_ALL_CURVES
 70
0
 62
7
  6
CONTINUOUS
370
-3
390
F
  0
LAYER
  5
208
100
AcDbSymbolTableRecord
100
AcDbLayerTableRecord
  2
04_ALL_DTM_PNT
 70
0
 62
7
  6
CONTINUOUS
370
-3
390
F
  0
LAYER
  5
209
100
AcDbSymbolTableRecord
100
AcDbLayerTableRecord
  2
04__ASM_ALL_DTM_PNT
 70
0
 62
7
  6
CONTINUOUS
370
-3
390
F
  0
LAYER
  5
20A
100
AcDbSymbolTableRecord
100
AcDbLayerTableRecord
  2
04___PRT_ALL_DTM_PNT
 70
0
 62
7
  6
CONTINUOUS
370
-3
390
F
  0
LAYER
  5
20B
100
AcDbSymbolTableRecord
100
AcDbLayerTableRecord
  2
05_ALL_DTM_CSYS
 70
0
 62
7
  6
CONTINUOUS
370
-3
390
F
  0
LAYER
  5
20C
100
AcDbSymbolTableRecord
100
AcDbLayerTableRecord
  2
05__ASM_ALL_DTM_CSYS
 70
0
 62
7
  6
CONTINUOUS
370
-3
390
F
  0
LAYER
  5
20D
100
AcDbSymbolTableRecord
100
AcDbLayerTableRecord
  2
05__ASM_DEF_DTM_CSYS
 70
0
 62
7
  6
CONTINUOUS
370
-3
390
F
  0
LAYER
  5
20E
100
AcDbSymbolTableRecord
100
AcDbLayerTableRecord
  2
05___PRT_ALL_DTM_CSYS
 70
0
 62
7
  6
CONTINUOUS
370
-3
390
F
  0
LAYER
  5
20F
100
AcDbSymbolTableRecord
100
AcDbLayerTableRecord
  2
05___PRT_DEF_DTM_CSYS
 70
0
 62
7
  6
CONTINUOUS
370
-3
390
F
  0
LAYER
  5
210
100
AcDbSymbolTableRecord
100
AcDbLayerTableRecord
  2
06_ALL_SURFS
 70
0
 62
7
  6
CONTINUOUS
370
-3
390
F
  0
LAYER
  5
211
100
AcDbSymbolTableRecord
100
AcDbLayerTableRecord
  2
06__ASM_ALL_SURFS
 70
0
 62
7
  6
CONTINUOUS
370
-3
390
F
  0
LAYER
  5
212
100
AcDbSymbolTableRecord
100
AcDbLayerTableRecord
  2
06___PRT_ALL_SURFS
 70
0
 62
7
  6
CONTINUOUS
370
-3
390
F
  0
LAYER
  5
213
100
AcDbSymbolTableRecord
100
AcDbLayerTableRecord
  2
07__ASM_ALL_SKELETONS
 70
0
 62
7
  6
CONTINUOUS
370
-3
390
F
  0
ENDTAB
  0
TABLE
  2
STYLE
  5
3
100
AcDbSymbolTable
 70
1
  0
STYLE
  5
11
100
AcDbSymbolTableRecord
100
AcDbTextStyleTableRecord
  2
STANDARD
 70
0
 40
0.0
 41
0.8
 50
0.0
 71
0
 42
0.2
  3
txt
  4

  0
STYLE
  5
214
100
AcDbSymbolTableRecord
100
AcDbTextStyleTableRecord
  2
TEXTSTYLE_1
 70
0
 40
0.0
 41
0.8
 50
0.0
 71
0
 42
0.2
  3
gdt
  4

  0
ENDTAB
  0
TABLE
  2
VIEW
  5
6
100
AcDbSymbolTable
 70
0
  0
ENDTAB
  0
TABLE
  2
UCS
  5
7
100
AcDbSymbolTable
 70
0
  0
ENDTAB
  0
TABLE
  2
APPID
  5
9
100
AcDbSymbolTable
 70
1
  0
APPID
  5
215
100
AcDbSymbolTableRecord
100
AcDbRegAppTableRecord
  2
ACAD
 70
0
  0
ENDTAB
  0
TABLE
  2
BLOCK_RECORD
  5
1
100
AcDbSymbolTable
 70
0
  0
BLOCK_RECORD
  5
216
100
AcDbSymbolTableRecord
100
AcDbBlockTableRecord
  2
*Model_Space
  0
BLOCK_RECORD
  5
217
100
AcDbSymbolTableRecord
100
AcDbBlockTableRecord
  2
*Paper_Space
  0
ENDTAB
  0
TABLE
  2
DIMSTYLE
  5
A
100
AcDbSymbolTable
 70
1
100
AcDbDimStyleTable
 71
0
  0
DIMSTYLE
105
218
100
AcDbSymbolTableRecord
100
AcDbDimStyleTableRecord
  2
STANDARD
 70
0
  3

  4

 40
1.0
 41
0.1875
 42
0.0625
 43
0.38
 44
0.125
 45
0.0
 46
0.0
 47
0.0001
 48
0.0001
140
0.15625
141
0.09
142
0.0
143
25.4
144
1.0
145
0.0
146
1.0
147
0.09
 71
0.0
 72
0.0
 73
1
 74
1
 75
0
 76
0
 77
0
 78
4
170
0
171
2
172
0
173
0
174
0
175
0
176
0
177
0
178
0
270
2
271
4
272
4
273
2
274
2
275
0
280
0
281
0
282
0
283
1
284
4
285
0
286
0
287
3
288
0
340
11
278
46
  0
ENDTAB
  0
ENDSEC
  0
SECTION
  2
BLOCKS
  0
BLOCK
  5
20
100
AcDbEntity
  8
0
100
AcDbBlockBegin
  2
*Model_Space
 70
0
 10
0.0
 20
0.0
 30
0.0
  3
*Model_Space
  1

  0
ENDBLK
  5
21
100
AcDbEntity
  8
0
100
AcDbBlockEnd
  0
BLOCK
  5
1C
100
AcDbEntity
  8
0
100
AcDbBlockBegin
  2
*Paper_Space
 70
0
 10
0.0
 20
0.0
 30
0.0
  3
*Paper_Space
  1

  0
ENDBLK
  5
1D
100
AcDbEntity
  8
0
100
AcDbBlockEnd
  0
ENDSEC
  0
SECTION
  2
ENTITIES
  0
MTEXT
  5
219
100
AcDbEntity
  8
0
100
AcDbMText
 62
7
  6
CONTINUOUS
  7
STANDARD
 71
1
 72
1
 10
15.9560215477
 20
0.9479130325
 30
0.0
 11
1.0
 21
0.0
 31
0.0
 44
0.9
  1
SCALE: 1:5.000
 40
0.3
 41
3.36
  0
LINE
  5
21A
100
AcDbEntity
  8
0
100
AcDbLine
 62
7
  6
CONTINUOUS
 10
0.0
 20
0.0
 11
0.0
 21
17.0
  0
LINE
  5
21B
100
AcDbEntity
  8
0
100
AcDbLine
 62
7
  6
CONTINUOUS
 10
0.0
 20
0.0
 11
22.0
 21
0.0
  0
LINE
  5
21C
100
AcDbEntity
  8
0
100
AcDbLine
 62
7
  6
CONTINUOUS
 10
0.0
 20
17.0
 11
22.0
 21
17.0
  0
LINE
  5
21D
100
AcDbEntity
  8
0
100
AcDbLine
 62
7
  6
CONTINUOUS
 10
22.0
 20
0.0
 11
22.0
 21
17.0
  0
LINE
  5
21E
100
AcDbEntity
  8
0
100
AcDbLine
 62
7
  6
CONTINUOUS
 10
4.3587137329
 20
5.7573246212
 11
4.3587137329
 21
5.5230726527
  0
LINE
  5
21F
100
AcDbEntity
  8
0
100
AcDbLine
 62
7
  6
CONTINUOUS
 10
4.4694420793
 20
5.4738600542
 11
4.4694420793
 21
5.4674624164
  0
LINE
  5
220
100
AcDbEntity
  8
0
100
AcDbLine
 62
7
  6
CONTINUOUS
 10
4.8385365675
 20
5.4674624164
 11
4.8385365675
 21
5.4738600542
  0
LINE
  5
221
100
AcDbEntity
  8
0
100
AcDbLine
 62
7
  6
CONTINUOUS
 10
5.0599932604
 20
5.4738600542
 11
5.0599932604
 21
5.4674624164
  0
LINE
  5
222
100
AcDbEntity
  8
0
100
AcDbLine
 62
7
  6
CONTINUOUS
 10
5.4290877486
 20
5.4674624164
 11
5.4290877486
 21
5.4738600542
  0
LINE
  5
223
100
AcDbEntity
  8
0
100
AcDbLine
 62
7
  6
CONTINUOUS
 10
5.6505444415
 20
5.4738600542
 11
5.6505444415
 21
5.4674624164
  0
LINE
  5
224
100
AcDbEntity
  8
0
100
AcDbLine
 62
7
  6
CONTINUOUS
 10
6.0196389297
 20
5.4674624164
 11
6.0196389297
 21
5.4738600542
  0
LINE
  5
225
100
AcDbEntity
  8
0
100
AcDbLine
 62
7
  6
CONTINUOUS
 10
4.3587137329
 20
5.5230726527
 11
4.4202294809
 21
5.5230726527
  0
LINE
  5
226
100
AcDbEntity
  8
0
100
AcDbLine
 62
7
  6
CONTINUOUS
 10
4.8877491659
 20
5.5230726527
 11
5.010780662
 21
5.5230726527
  0
LINE
  5
227
100
AcDbEntity
  8
0
100
AcDbLine
 62
7
  6
CONTINUOUS
 10
5.478300347
 20
5.5230726527
 11
5.6013318431
 21
5.5230726527
  0
LINE
  5
228
100
AcDbEntity
  8
0
100
AcDbLine
 62
7
  6
CONTINUOUS
 10
6.0688515281
 20
5.5230726527
 11
6.1918830242
 21
5.5230726527
  0
LINE
  5
229
100
AcDbEntity
  8
0
100
AcDbLine
 62
7
  6
CONTINUOUS
 10
6.6594027092
 20
5.5230726527
 11
6.7824342053
 21
5.5230726527
  0
LINE
  5
22A
100
AcDbEntity
  8
0
100
AcDbLine
 62
7
  6
CONTINUOUS
 10
7.2499538903
 20
5.5230726527
 11
7.3729853864
 21
5.5230726527
  0
LINE
  5
22B
100
AcDbEntity
  8
0
100
AcDbLine
 62
7
  6
CONTINUOUS
 10
7.8405050714
 20
5.5230726527
 11
7.9020208195
 21
5.5230726527
  0
LINE
  5
22C
100
AcDbEntity
  8
0
100
AcDbLine
 62
7
  6
CONTINUOUS
 10
6.2410956226
 20
5.4738600542
 11
6.2410956226
 21
5.4674624164
  0
LINE
  5
22D
100
AcDbEntity
  8
0
100
AcDbLine
 62
7
  6
CONTINUOUS
 10
7.9020208195
 20
5.7573246212
 11
4.3587137329
 21
5.7573246212
  0
LINE
  5
22E
100
AcDbEntity
  8
0
100
AcDbLine
 62
7
  6
CONTINUOUS
 10
6.6101901108
 20
5.4674624164
 11
6.6101901108
 21
5.4738600542
  0
LINE
  5
22F
100
AcDbEntity
  8
0
100
AcDbLine
 62
7
  6
CONTINUOUS
 10
6.8316468037
 20
5.4738600542
 11
6.8316468037
 21
5.4674624164
  0
LINE
  5
230
100
AcDbEntity
  8
0
100
AcDbLine
 62
7
  6
CONTINUOUS
 10
7.2007412919
 20
5.4674624164
 11
7.2007412919
 21
5.4738600542
  0
LINE
  5
231
100
AcDbEntity
  8
0
100
AcDbLine
 62
7
  6
CONTINUOUS
 10
7.4221979848
 20
5.4738600542
 11
7.4221979848
 21
5.4674624164
  0
LINE
  5
232
100
AcDbEntity
  8
0
100
AcDbLine
 62
7
  6
CONTINUOUS
 10
7.791292473
 20
5.4674624164
 11
7.791292473
 21
5.4738600542
  0
LINE
  5
233
100
AcDbEntity
  8
0
100
AcDbLine
 62
7
  6
CONTINUOUS
 10
7.9020208195
 20
5.5230726527
 11
7.9020208195
 21
5.7573246212
  0
LINE
  5
234
100
AcDbEntity
  8
0
100
AcDbLine
 62
7
  6
CONTINUOUS
 10
4.2992185406
 20
13.1905989625
 11
4.2992185406
 21
12.0094966003
  0
LINE
  5
235
100
AcDbEntity
  8
0
100
AcDbLine
 62
7
  6
CONTINUOUS
 10
7.8425256272
 20
12.0094966003
 11
4.2992185406
 21
12.0094966003
  0
LINE
  5
236
100
AcDbEntity
  8
0
100
AcDbLine
 62
7
  6
CONTINUOUS
 10
4.2992185406
 20
13.1905989625
 11
7.8425256272
 21
13.1905989625
  0
LINE
  5
237
100
AcDbEntity
  8
0
100
AcDbLine
 62
7
  6
CONTINUOUS
 10
7.8425256272
 20
13.1905989625
 11
7.8425256272
 21
12.0094966003
  0
LINE
  5
238
100
AcDbEntity
  8
0
100
AcDbLine
 62
7
  6
CONTINUOUS
 10
14.9698040758
 20
5.22341998
 11
14.9698040758
 21
5.6978294289
  0
LINE
  5
239
100
AcDbEntity
  8
0
100
AcDbLine
 62
7
  6
CONTINUOUS
 10
16.150906438
 20
5.22341998
 11
14.9698040758
 21
5.22341998
  0
LINE
  5
23A
100
AcDbEntity
  8
0
100
AcDbLine
 62
7
  6
CONTINUOUS
 10
16.150906438
 20
5.4635774604
 11
14.9698040758
 21
5.4635774604
  0
LINE
  5
23B
100
AcDbEntity
  8
0
100
AcDbLine
 62
7
  6
CONTINUOUS
 10
16.150906438
 20
5.6978294289
 11
14.9698040758
 21
5.6978294289
  0
LINE
  5
23C
100
AcDbEntity
  8
0
100
AcDbLine
 62
7
  6
CONTINUOUS
 10
16.150906438
 20
5.22341998
 11
16.150906438
 21
5.6978294289
  0
LINE
  5
23D
100
AcDbEntity
  8
0
100
AcDbLine
 62
7
  6
CONTINUOUS
 10
13.6606306128
 20
12.1956591825
 11
13.7320872705
 21
12.0500458237
  0
LINE
  5
23E
100
AcDbEntity
  8
0
100
AcDbLine
 62
7
  6
CONTINUOUS
 10
13.8490867343
 20
12.019454782
 11
13.8510382816
 21
12.0154779466
  0
LINE
  5
23F
100
AcDbEntity
  8
0
100
AcDbLine
 62
7
  6
CONTINUOUS
 10
13.9465357192
 20
13.1208484458
 11
13.6606306128
 21
12.1956591825
  0
LINE
  5
240
100
AcDbEntity
  8
0
100
AcDbLine
 62
7
  6
CONTINUOUS
 10
14.1909968178
 20
12.0154779466
 11
14.1890452704
 21
12.019454782
  0
LINE
  5
241
100
AcDbEntity
  8
0
100
AcDbLine
 62
7
  6
CONTINUOUS
 10
14.3930203921
 20
12.019454782
 11
14.3949719395
 21
12.0154779466
  0
LINE
  5
242
100
AcDbEntity
  8
0
100
AcDbLine
 62
7
  6
CONTINUOUS
 10
14.2248578994
 20
12.0500458237
 11
14.1973378335
 21
11.9609908578
  0
LINE
  5
243
100
AcDbEntity
  8
0
100
AcDbLine
 62
7
  6
CONTINUOUS
 10
14.7349304757
 20
12.0154779466
 11
14.7329789283
 21
12.019454782
  0
LINE
  5
244
100
AcDbEntity
  8
0
100
AcDbLine
 62
7
  6
CONTINUOUS
 10
14.93695405
 20
12.019454782
 11
14.9389055974
 21
12.0154779466
  0
LINE
  5
245
100
AcDbEntity
  8
0
100
AcDbLine
 62
7
  6
CONTINUOUS
 10
14.7687915573
 20
12.0500458237
 11
14.7412714914
 21
11.9609908578
  0
LINE
  5
246
100
AcDbEntity
  8
0
100
AcDbLine
 62
7
  6
CONTINUOUS
 10
13.7320872705
 20
12.0500458237
 11
13.7887470266
 21
12.0500458237
  0
LINE
  5
247
100
AcDbEntity
  8
0
100
AcDbLine
 62
7
  6
CONTINUOUS
 10
14.2193611724
 20
12.0500458237
 11
14.3326806844
 21
12.0500458237
  0
LINE
  5
248
100
AcDbEntity
  8
0
100
AcDbLine
 62
7
  6
CONTINUOUS
 10
14.7632948302
 20
12.0500458237
 11
14.8766143423
 21
12.0500458237
  0
LINE
  5
249
100
AcDbEntity
  8
0
100
AcDbLine
 62
7
  6
CONTINUOUS
 10
15.3072284881
 20
12.0500458237
 11
15.4205480002
 21
12.0500458237
  0
LINE
  5
24A
100
AcDbEntity
  8
0
100
AcDbLine
 62
7
  6
CONTINUOUS
 10
15.851162146
 20
12.0500458237
 11
15.9644816581
 21
12.0500458237
  0
LINE
  5
24B
100
AcDbEntity
  8
0
100
AcDbLine
 62
7
  6
CONTINUOUS
 10
16.3950958039
 20
12.0500458237
 11
16.5084153159
 21
12.0500458237
  0
LINE
  5
24C
100
AcDbEntity
  8
0
100
AcDbLine
 62
7
  6
CONTINUOUS
 10
16.9390294617
 20
12.0500458237
 11
16.9956892178
 21
12.0500458237
  0
LINE
  5
24D
100
AcDbEntity
  8
0
100
AcDbLine
 62
7
  6
CONTINUOUS
 10
15.2788641336
 20
12.0154779466
 11
15.2769125862
 21
12.019454782
  0
LINE
  5
24E
100
AcDbEntity
  8
0
100
AcDbLine
 62
7
  6
CONTINUOUS
 10
16.92423256
 20
12.1956591825
 11
13.6606306128
 21
12.1956591825
  0
LINE
  5
24F
100
AcDbEntity
  8
0
100
AcDbLine
 62
7
  6
CONTINUOUS
 10
15.4808877079
 20
12.019454782
 11
15.4828392553
 21
12.0154779466
  0
LINE
  5
250
100
AcDbEntity
  8
0
100
AcDbLine
 62
7
  6
CONTINUOUS
 10
15.3127252151
 20
12.0500458237
 11
15.2852051492
 21
11.9609908578
  0
LINE
  5
251
100
AcDbEntity
  8
0
100
AcDbLine
 62
7
  6
CONTINUOUS
 10
15.8227977914
 20
12.0154779466
 11
15.8208462441
 21
12.019454782
  0
LINE
  5
252
100
AcDbEntity
  8
0
100
AcDbLine
 62
7
  6
CONTINUOUS
 10
16.0248213658
 20
12.019454782
 11
16.0267729131
 21
12.0154779466
  0
LINE
  5
253
100
AcDbEntity
  8
0
100
AcDbLine
 62
7
  6
CONTINUOUS
 10
15.856658873
 20
12.0500458237
 11
15.8291388071
 21
11.9609908578
  0
LINE
  5
254
100
AcDbEntity
  8
0
100
AcDbLine
 62
7
  6
CONTINUOUS
 10
13.9465357192
 20
13.1208484458
 11
17.2101376664
 21
13.1208484458
  0
LINE
  5
255
100
AcDbEntity
  8
0
100
AcDbLine
 62
7
  6
CONTINUOUS
 10
16.3667314493
 20
12.0154779466
 11
16.3647799019
 21
12.019454782
  0
LINE
  5
256
100
AcDbEntity
  8
0
100
AcDbLine
 62
7
  6
CONTINUOUS
 10
16.5687550236
 20
12.019454782
 11
16.570706571
 21
12.0154779466
  0
LINE
  5
257
100
AcDbEntity
  8
0
100
AcDbLine
 62
7
  6
CONTINUOUS
 10
16.4005925309
 20
12.0500458237
 11
16.373072465
 21
11.9609908578
  0
LINE
  5
258
100
AcDbEntity
  8
0
100
AcDbLine
 62
7
  6
CONTINUOUS
 10
16.9106651072
 20
12.0154779466
 11
16.9087135598
 21
12.019454782
  0
LINE
  5
259
100
AcDbEntity
  8
0
100
AcDbLine
 62
7
  6
CONTINUOUS
 10
16.9956892178
 20
12.0500458237
 11
16.92423256
 21
12.1956591825
  0
LINE
  5
25A
100
AcDbEntity
  8
0
100
AcDbLine
 62
7
  6
CONTINUOUS
 10
17.2101376664
 20
13.1208484458
 11
16.92423256
 21
12.1956591825
  0
LINE
  5
25B
100
AcDbEntity
  8
0
100
AcDbLine
 62
7
  6
CONTINUOUS
 10
16.9445261888
 20
12.0500458237
 11
16.9170061229
 21
11.9609908578
  0
LINE
  5
25C
100
AcDbEntity
  8
0
100
AcDbLine
 62
7
  6
CONTINUOUS
 10
17.2815943242
 20
12.9752350871
 11
16.9956892178
 21
12.0500458237
  0
LINE
  5
25D
100
AcDbEntity
  8
0
100
AcDbLine
 62
7
  6
CONTINUOUS
 10
17.2815943242
 20
12.9752350871
 11
17.2101376664
 21
13.1208484458
  0
ARC
  5
25E
100
AcDbEntity
  8
0
100
AcDbCircle
 62
7
  6
CONTINUOUS
 10
4.6539893234
 20
5.4674624164
 40
0.1845472441
100
AcDbArc
 50
180.0
 51
360.0
  0
ARC
  5
25F
100
AcDbEntity
  8
0
100
AcDbCircle
 62
7
  6
CONTINUOUS
 10
5.2445405045
 20
5.4674624164
 40
0.1845472441
100
AcDbArc
 50
180.0
 51
360.0
  0
ARC
  5
260
100
AcDbEntity
  8
0
100
AcDbCircle
 62
7
  6
CONTINUOUS
 10
7.6067452289
 20
5.4674624164
 40
0.1845472441
100
AcDbArc
 50
180.0
 51
360.0
  0
ARC
  5
261
100
AcDbEntity
  8
0
100
AcDbCircle
 62
7
  6
CONTINUOUS
 10
7.0161940478
 20
5.4674624164
 40
0.1845472441
100
AcDbArc
 50
180.0
 51
360.0
  0
ARC
  5
262
100
AcDbEntity
  8
0
100
AcDbCircle
 62
7
  6
CONTINUOUS
 10
6.4256428667
 20
5.4674624164
 40
0.1845472441
100
AcDbArc
 50
180.0
 51
360.0
  0
ARC
  5
263
100
AcDbEntity
  8
0
100
AcDbCircle
 62
7
  6
CONTINUOUS
 10
5.8350916856
 20
5.4674624164
 40
0.1845472441
100
AcDbArc
 50
180.0
 51
360.0
  0
ARC
  5
264
100
AcDbEntity
  8
0
100
AcDbCircle
 62
7
  6
CONTINUOUS
 10
4.4202294809
 20
5.4738600542
 40
0.0492125984
100
AcDbArc
 50
0.0
 51
90.0
  0
ARC
  5
265
100
AcDbEntity
  8
0
100
AcDbCircle
 62
7
  6
CONTINUOUS
 10
4.8877491659
 20
5.4738600542
 40
0.0492125984
100
AcDbArc
 50
90.0
 51
180.0
  0
ARC
  5
266
100
AcDbEntity
  8
0
100
AcDbCircle
 62
7
  6
CONTINUOUS
 10
5.010780662
 20
5.4738600542
 40
0.0492125984
100
AcDbArc
 50
0.0
 51
90.0
  0
ARC
  5
267
100
AcDbEntity
  8
0
100
AcDbCircle
 62
7
  6
CONTINUOUS
 10
5.478300347
 20
5.4738600542
 40
0.0492125984
100
AcDbArc
 50
90.0
 51
180.0
  0
ARC
  5
268
100
AcDbEntity
  8
0
100
AcDbCircle
 62
7
  6
CONTINUOUS
 10
5.6013318431
 20
5.4738600542
 40
0.0492125984
100
AcDbArc
 50
0.0
 51
90.0
  0
ARC
  5
269
100
AcDbEntity
  8
0
100
AcDbCircle
 62
7
  6
CONTINUOUS
 10
6.0688515281
 20
5.4738600542
 40
0.0492125984
100
AcDbArc
 50
90.0
 51
180.0
  0
ARC
  5
26A
100
AcDbEntity
  8
0
100
AcDbCircle
 62
7
  6
CONTINUOUS
 10
6.1918830242
 20
5.4738600542
 40
0.0492125984
100
AcDbArc
 50
0.0
 51
90.0
  0
ARC
  5
26B
100
AcDbEntity
  8
0
100
AcDbCircle
 62
7
  6
CONTINUOUS
 10
6.6594027092
 20
5.4738600542
 40
0.0492125984
100
AcDbArc
 50
90.0
 51
180.0
  0
ARC
  5
26C
100
AcDbEntity
  8
0
100
AcDbCircle
 62
7
  6
CONTINUOUS
 10
6.7824342053
 20
5.4738600542
 40
0.0492125984
100
AcDbArc
 50
0.0
 51
90.0
  0
ARC
  5
26D
100
AcDbEntity
  8
0
100
AcDbCircle
 62
7
  6
CONTINUOUS
 10
7.2499538903
 20
5.4738600542
 40
0.0492125984
100
AcDbArc
 50
90.0
 51
180.0
  0
ARC
  5
26E
100
AcDbEntity
  8
0
100
AcDbCircle
 62
7
  6
CONTINUOUS
 10
7.3729853864
 20
5.4738600542
 40
0.0492125984
100
AcDbArc
 50
0.0
 51
90.0
  0
ARC
  5
26F
100
AcDbEntity
  8
0
100
AcDbCircle
 62
7
  6
CONTINUOUS
 10
7.8405050714
 20
5.4738600542
 40
0.0492125984
100
AcDbArc
 50
90.0
 51
180.0
  0
SPLINE
  5
270
100
AcDbEntity
  8
0
100
AcDbSpline
 62
7
  6
CONTINUOUS
 70
0
 71
3
 72
13
 73
9
 74
0
 42
0.0000001
 43
0.0000001
 44
0.0000000001
 40
0.0
 40
0.0
 40
0.0
 40
0.0
 40
0.0997601169
 40
0.2030745128
 40
0.3129156472
 40
0.4313175217
 40
0.6968714613
 40
1.0
 40
1.0
 40
1.0
 40
1.0
 10
14.1873543222
 20
12.0339846847
 30
0.0
 10
14.1877285853
 20
12.0351960532
 30
0.0
 10
14.1887908948
 20
12.037578803
 30
0.0
 10
14.1912097899
 20
12.0407732926
 30
0.0
 10
14.1944091488
 20
12.0435562905
 30
0.0
 10
14.1998219649
 20
12.0467856454
 30
0.0
 10
14.2082596681
 20
12.0494366872
 30
0.0
 10
14.2155086643
 20
12.0500458237
 30
0.0
 10
14.2193611724
 20
12.0500458237
 30
0.0
  0
SPLINE
  5
271
100
AcDbEntity
  8
0
100
AcDbSpline
 62
7
  6
CONTINUOUS
 70
0
 71
3
 72
13
 73
9
 74
0
 42
0.0000001
 43
0.0000001
 44
0.0000000001
 40
0.0
 40
0.0
 40
0.0
 40
0.0
 40
0.0997601169
 40
0.2030745128
 40
0.3129156472
 40
0.4313175217
 40
0.6968714613
 40
1.0
 40
1.0
 40
1.0
 40
1.0
 10
14.7312879801
 20
12.0339846847
 30
0.0
 10
14.7316622431
 20
12.0351960532
 30
0.0
 10
14.7327245526
 20
12.037578803
 30
0.0
 10
14.7351434478
 20
12.0407732926
 30
0.0
 10
14.7383428067
 20
12.0435562905
 30
0.0
 10
14.7437556228
 20
12.0467856454
 30
0.0
 10
14.752193326
 20
12.0494366872
 30
0.0
 10
14.7594423222
 20
12.0500458237
 30
0.0
 10
14.7632948302
 20
12.0500458237
 30
0.0
  0
SPLINE
  5
272
100
AcDbEntity
  8
0
100
AcDbSpline
 62
7
  6
CONTINUOUS
 70
0
 71
3
 72
13
 73
9
 74
0
 42
0.0000001
 43
0.0000001
 44
0.0000000001
 40
0.0
 40
0.0
 40
0.0
 40
0.0
 40
0.0997601169
 40
0.2030745128
 40
0.3129156472
 40
0.4313175217
 40
0.6968714613
 40
1.0
 40
1.0
 40
1.0
 40
1.0
 10
15.2752216379
 20
12.0339846847
 30
0.0
 10
15.275595901
 20
12.0351960532
 30
0.0
 10
15.2766582105
 20
12.037578803
 30
0.0
 10
15.2790771057
 20
12.0407732926
 30
0.0
 10
15.2822764645
 20
12.0435562905
 30
0.0
 10
15.2876892807
 20
12.0467856454
 30
0.0
 10
15.2961269839
 20
12.0494366872
 30
0.0
 10
15.3033759801
 20
12.0500458237
 30
0.0
 10
15.3072284881
 20
12.0500458237
 30
0.0
  0
SPLINE
  5
273
100
AcDbEntity
  8
0
100
AcDbSpline
 62
7
  6
CONTINUOUS
 70
0
 71
3
 72
13
 73
9
 74
0
 42
0.0000001
 43
0.0000001
 44
0.0000000001
 40
0.0
 40
0.0
 40
0.0
 40
0.0
 40
0.0997601169
 40
0.2030745128
 40
0.3129156472
 40
0.4313175217
 40
0.6968714613
 40
1.0
 40
1.0
 40
1.0
 40
1.0
 10
15.8191552958
 20
12.0339846847
 30
0.0
 10
15.8195295589
 20
12.0351960532
 30
0.0
 10
15.8205918684
 20
12.037578803
 30
0.0
 10
15.8230107636
 20
12.0407732926
 30
0.0
 10
15.8262101224
 20
12.0435562905
 30
0.0
 10
15.8316229385
 20
12.0467856454
 30
0.0
 10
15.8400606418
 20
12.0494366872
 30
0.0
 10
15.8473096379
 20
12.0500458237
 30
0.0
 10
15.851162146
 20
12.0500458237
 30
0.0
  0
SPLINE
  5
274
100
AcDbEntity
  8
0
100
AcDbSpline
 62
7
  6
CONTINUOUS
 70
0
 71
3
 72
13
 73
9
 74
0
 42
0.0000001
 43
0.0000001
 44
0.0000000001
 40
0.0
 40
0.0
 40
0.0
 40
0.0
 40
0.0997601169
 40
0.2030745128
 40
0.3129156472
 40
0.4313175217
 40
0.6968714613
 40
1.0
 40
1.0
 40
1.0
 40
1.0
 10
16.3630889537
 20
12.0339846847
 30
0.0
 10
16.3634632168
 20
12.0351960532
 30
0.0
 10
16.3645255263
 20
12.037578803
 30
0.0
 10
16.3669444214
 20
12.0407732926
 30
0.0
 10
16.3701437803
 20
12.0435562905
 30
0.0
 10
16.3755565964
 20
12.0467856454
 30
0.0
 10
16.3839942997
 20
12.0494366872
 30
0.0
 10
16.3912432958
 20
12.0500458237
 30
0.0
 10
16.3950958039
 20
12.0500458237
 30
0.0
  0
SPLINE
  5
275
100
AcDbEntity
  8
0
100
AcDbSpline
 62
7
  6
CONTINUOUS
 70
0
 71
3
 72
13
 73
9
 74
0
 42
0.0000001
 43
0.0000001
 44
0.0000000001
 40
0.0
 40
0.0
 40
0.0
 40
0.0
 40
0.0997601169
 40
0.2030745128
 40
0.3129156472
 40
0.4313175217
 40
0.6968714613
 40
1.0
 40
1.0
 40
1.0
 40
1.0
 10
16.9070226116
 20
12.0339846847
 30
0.0
 10
16.9073968747
 20
12.0351960532
 30
0.0
 10
16.9084591841
 20
12.037578803
 30
0.0
 10
16.9108780793
 20
12.0407732926
 30
0.0
 10
16.9140774382
 20
12.0435562905
 30
0.0
 10
16.9194902543
 20
12.0467856454
 30
0.0
 10
16.9279279575
 20
12.0494366872
 30
0.0
 10
16.9351769537
 20
12.0500458237
 30
0.0
 10
16.9390294617
 20
12.0500458237
 30
0.0
  0
SPLINE
  5
276
100
AcDbEntity
  8
0
100
AcDbSpline
 62
7
  6
CONTINUOUS
 70
0
 71
3
 72
24
 73
20
 74
0
 42
0.0000001
 43
0.0000001
 44
0.0000000001
 40
0.0
 40
0.0
 40
0.0
 40
0.0
 40
0.0543487383
 40
0.1139580646
 40
0.1785362501
 40
0.2473658258
 40
0.319432347
 40
0.3935199726
 40
0.468297588
 40
0.54239603
 40
0.6144835307
 40
0.6833432411
 40
0.747958072
 40
0.8076096122
 40
0.8619993246
 40
0.9113952764
 40
0.9567789364
 40
0.9785374955
 40
1.0
 40
1.0
 40
1.0
 40
1.0
 10
16.570706571
 20
12.0154779466
 30
0.0
 10
16.5739609987
 20
12.0088461202
 30
0.0
 10
16.5822264468
 20
11.9956280128
 30
0.0
 10
16.5982869505
 20
11.9773300528
 30
0.0
 10
16.6181487326
 20
11.9600802505
 30
0.0
 10
16.6412823561
 20
11.9443318618
 30
0.0
 10
16.6670760289
 20
11.9304932831
 30
0.0
 10
16.694841724
 20
11.9189336174
 30
0.0
 10
16.7238362707
 20
11.9099617638
 30
0.0
 10
16.7532824742
 20
11.9038183154
 30
0.0
 10
16.7823921811
 20
11.9006678298
 30
0.0
 10
16.8103898499
 20
11.9005951437
 30
0.0
 10
16.8365362331
 20
11.9036064828
 30
0.0
 10
16.8601495582
 20
11.9096338921
 30
0.0
 10
16.8806214817
 20
11.9185568545
 30
0.0
 10
16.8974061483
 20
11.9301989161
 30
0.0
 10
16.9080451645
 20
11.9421995698
 30
0.0
 10
16.9139979616
 20
11.9527087096
 30
0.0
 10
16.9161446447
 20
11.958203681
 30
0.0
 10
16.9170060787
 20
11.9609908716
 30
0.0
  0
SPLINE
  5
277
100
AcDbEntity
  8
0
100
AcDbSpline
 62
7
  6
CONTINUOUS
 70
0
 71
3
 72
25
 73
21
 74
0
 42
0.0000001
 43
0.0000001
 44
0.0000000001
 40
0.0
 40
0.0
 40
0.0
 40
0.0
 40
0.0543404502
 40
0.1139492943
 40
0.1785190407
 40
0.247342908
 40
0.319402169
 40
0.3934826997
 40
0.4682531717
 40
0.5423447282
 40
0.6144256594
 40
0.6832790749
 40
0.7478878328
 40
0.8075336078
 40
0.8619179924
 40
0.9113091384
 40
0.9344531326
 40
0.9567822362
 40
0.9785391396
 40
1.0
 40
1.0
 40
1.0
 40
1.0
 10
16.0267729131
 20
12.0154779466
 30
0.0
 10
16.0300271478
 20
12.0088465136
 30
0.0
 10
16.0382931524
 20
11.9956285055
 30
0.0
 10
16.0543527839
 20
11.9773298655
 30
0.0
 10
16.0742156883
 20
11.9600806118
 30
0.0
 10
16.0973486752
 20
11.9443319133
 30
0.0
 10
16.1231425098
 20
11.9304935856
 30
0.0
 10
16.1509079923
 20
11.9189337792
 30
0.0
 10
16.1799024762
 20
11.9099618636
 30
0.0
 10
16.2093486537
 20
11.9038182822
 30
0.0
 10
16.2384583525
 20
11.9006676098
 30
0.0
 10
16.2664561849
 20
11.9005951207
 30
0.0
 10
16.2926021028
 20
11.903605759
 30
0.0
 10
16.3162167921
 20
11.9096358506
 30
0.0
 10
16.3366838142
 20
11.9185505036
 30
0.0
 10
16.3509794037
 20
11.9284801601
 30
0.0
 10
16.3600882701
 20
11.9376515957
 30
0.0
 10
16.3656570709
 20
11.9449331441
 30
0.0
 10
16.3700653416
 20
11.9527085185
 30
0.0
 10
16.37221082
 20
11.9582036811
 30
0.0
 10
16.3730718805
 20
11.9609910377
 30
0.0
  0
SPLINE
  5
278
100
AcDbEntity
  8
0
100
AcDbSpline
 62
7
  6
CONTINUOUS
 70
0
 71
3
 72
25
 73
21
 74
0
 42
0.0000001
 43
0.0000001
 44
0.0000000001
 40
0.0
 40
0.0
 40
0.0
 40
0.0
 40
0.0543382393
 40
0.1139506731
 40
0.1785186248
 40
0.247342658
 40
0.3194016778
 40
0.3934823666
 40
0.4682531064
 40
0.5423445253
 40
0.6144249666
 40
0.6832779836
 40
0.7478868494
 40
0.8075331848
 40
0.8619180319
 40
0.9113091735
 40
0.9344525712
 40
0.9567819526
 40
0.9785389962
 40
1.0
 40
1.0
 40
1.0
 40
1.0
 10
15.4828392553
 20
12.0154779466
 30
0.0
 10
15.4860933567
 20
12.0088467849
 30
0.0
 10
15.4943598186
 20
11.9956288741
 30
0.0
 10
15.5104188733
 20
11.9773298093
 30
0.0
 10
15.5302824505
 20
11.9600809026
 30
0.0
 10
15.5534148934
 20
11.9443319309
 30
0.0
 10
15.5792087106
 20
11.9304935197
 30
0.0
 10
15.6069741264
 20
11.9189335147
 30
0.0
 10
15.6359686927
 20
11.90996171
 30
0.0
 10
15.6654148857
 20
11.903818469
 30
0.0
 10
15.6945244591
 20
11.9006680632
 30
0.0
 10
15.7225221719
 20
11.9005955798
 30
0.0
 10
15.7486681278
 20
11.9036059578
 30
0.0
 10
15.7722831097
 20
11.9096356003
 30
0.0
 10
15.7927502611
 20
11.9185501878
 30
0.0
 10
15.8070460995
 20
11.9284796424
 30
0.0
 10
15.816154168
 20
11.9376517876
 30
0.0
 10
15.8217232969
 20
11.9449329854
 30
0.0
 10
15.8261318879
 20
11.9527083636
 30
0.0
 10
15.8282765635
 20
11.9582038469
 30
0.0
 10
15.8291378291
 20
11.9609911599
 30
0.0
  0
SPLINE
  5
279
100
AcDbEntity
  8
0
100
AcDbSpline
 62
7
  6
CONTINUOUS
 70
0
 71
3
 72
24
 73
20
 74
0
 42
0.0000001
 43
0.0000001
 44
0.0000000001
 40
0.0
 40
0.0
 40
0.0
 40
0.0
 40
0.0543402369
 40
0.1139630874
 40
0.1785348346
 40
0.2473653787
 40
0.3194316584
 40
0.3935193834
 40
0.4682966998
 40
0.542394804
 40
0.6144826052
 40
0.683342598
 40
0.7479569383
 40
0.807607989
 40
0.8619978879
 40
0.911394403
 40
0.9567779753
 40
0.9785369774
 40
1.0
 40
1.0
 40
1.0
 40
1.0
 10
14.9389055974
 20
12.0154779466
 30
0.0
 10
14.9421595112
 20
12.0088471673
 30
0.0
 10
14.9504266355
 20
11.9956294414
 30
0.0
 10
14.9664848602
 20
11.9773297866
 30
0.0
 10
14.9863491174
 20
11.9600810975
 30
0.0
 10
15.0094809361
 20
11.9443317242
 30
0.0
 10
15.0352748607
 20
11.9304932648
 30
0.0
 10
15.0630405546
 20
11.9189339355
 30
0.0
 10
15.0920350392
 20
11.9099622815
 30
0.0
 10
15.1214811051
 20
11.9038186969
 30
0.0
 10
15.1505907452
 20
11.9006676961
 30
0.0
 10
15.1785884129
 20
11.9005949079
 30
0.0
 10
15.2047346127
 20
11.9036067022
 30
0.0
 10
15.2283477478
 20
11.9096342103
 30
0.0
 10
15.2488197377
 20
11.9185569096
 30
0.0
 10
15.2656049211
 20
11.9301983642
 30
0.0
 10
15.2762440438
 20
11.9421991102
 30
0.0
 10
15.2821965681
 20
11.9527086107
 30
0.0
 10
15.2843423914
 20
11.9582040087
 30
0.0
 10
15.2852039972
 20
11.9609912155
 30
0.0
  0
SPLINE
  5
27A
100
AcDbEntity
  8
0
100
AcDbSpline
 62
7
  6
CONTINUOUS
 70
0
 71
3
 72
24
 73
20
 74
0
 42
0.0000001
 43
0.0000001
 44
0.0000000001
 40
0.0
 40
0.0
 40
0.0
 40
0.0
 40
0.0543402369
 40
0.1139630874
 40
0.1785348346
 40
0.2473653787
 40
0.3194316584
 40
0.3935193834
 40
0.4682966998
 40
0.542394804
 40
0.6144826052
 40
0.683342598
 40
0.7479569383
 40
0.807607989
 40
0.8619978879
 40
0.911394403
 40
0.9567779753
 40
0.9785369774
 40
1.0
 40
1.0
 40
1.0
 40
1.0
 10
14.3949719395
 20
12.0154779466
 30
0.0
 10
14.3982258533
 20
12.0088471673
 30
0.0
 10
14.4064929776
 20
11.9956294414
 30
0.0
 10
14.4225512024
 20
11.9773297866
 30
0.0
 10
14.4424154595
 20
11.9600810975
 30
0.0
 10
14.4655472782
 20
11.9443317242
 30
0.0
 10
14.4913412028
 20
11.9304932648
 30
0.0
 10
14.5191068968
 20
11.9189339355
 30
0.0
 10
14.5481013813
 20
11.9099622815
 30
0.0
 10
14.5775474473
 20
11.9038186969
 30
0.0
 10
14.6066570873
 20
11.9006676961
 30
0.0
 10
14.6346547551
 20
11.9005949079
 30
0.0
 10
14.6608009548
 20
11.9036067022
 30
0.0
 10
14.6844140899
 20
11.9096342103
 30
0.0
 10
14.7048860798
 20
11.9185569096
 30
0.0
 10
14.7216712632
 20
11.9301983642
 30
0.0
 10
14.7323103859
 20
11.9421991102
 30
0.0
 10
14.7382629102
 20
11.9527086107
 30
0.0
 10
14.7404087335
 20
11.9582040087
 30
0.0
 10
14.7412703393
 20
11.9609912155
 30
0.0
  0
SPLINE
  5
27B
100
AcDbEntity
  8
0
100
AcDbSpline
 62
7
  6
CONTINUOUS
 70
0
 71
3
 72
24
 73
20
 74
0
 42
0.0000001
 43
0.0000001
 44
0.0000000001
 40
0.0
 40
0.0
 40
0.0
 40
0.0
 40
0.0543359375
 40
0.1139650296
 40
0.1785344817
 40
0.2473651542
 40
0.3194324712
 40
0.3935192689
 40
0.4682967355
 40
0.5423956133
 40
0.6144826207
 40
0.6833418671
 40
0.7479575369
 40
0.8076093064
 40
0.8619980558
 40
0.9113938508
 40
0.9567783246
 40
0.9785373744
 40
1.0
 40
1.0
 40
1.0
 40
1.0
 10
13.8510382816
 20
12.0154779466
 30
0.0
 10
13.8542919343
 20
12.0088476996
 30
0.0
 10
13.8625599886
 20
11.995630308
 30
0.0
 10
13.8786170513
 20
11.9773298058
 30
0.0
 10
13.8984818923
 20
11.9600808903
 30
0.0
 10
13.9216135212
 20
11.9443315843
 30
0.0
 10
13.9474078167
 20
11.9304937849
 30
0.0
 10
13.9751734513
 20
11.9189344358
 30
0.0
 10
14.0041675949
 20
11.9099618082
 30
0.0
 10
14.033613685
 20
11.903818153
 30
0.0
 10
14.062723337
 20
11.9006684483
 30
0.0
 10
14.0907208631
 20
11.9005957927
 30
0.0
 10
14.116867372
 20
11.9036061615
 30
0.0
 10
14.1404807063
 20
11.9096335452
 30
0.0
 10
14.1609521307
 20
11.9185574163
 30
0.0
 10
14.1777364333
 20
11.9301991514
 30
0.0
 10
14.1883777268
 20
11.9421984808
 30
0.0
 10
14.1943277752
 20
11.9527094
 30
0.0
 10
14.1964750231
 20
11.9582040854
 30
0.0
 10
14.1973369416
 20
11.9609911354
 30
0.0
  0
SPLINE
  5
27C
100
AcDbEntity
  8
0
100
AcDbSpline
 62
7
  6
CONTINUOUS
 70
0
 71
3
 72
15
 73
11
 74
0
 42
0.0000001
 43
0.0000001
 44
0.0000000001
 40
0.0
 40
0.0
 40
0.0
 40
0.0
 40
0.1296210348
 40
0.2645595905
 40
0.4012536355
 40
0.5362799783
 40
0.6662266992
 40
0.7881108783
 40
0.8997773656
 40
1.0
 40
1.0
 40
1.0
 40
1.0
 10
13.7887470266
 20
12.0500458237
 30
0.0
 10
13.7917960304
 20
12.0500458237
 30
0.0
 10
13.7980241177
 20
12.0496241048
 30
0.0
 10
13.8073197466
 20
12.0478812603
 30
0.0
 10
13.8164844657
 20
12.0450714958
 30
0.0
 10
13.8251713756
 20
12.0413040613
 30
0.0
 10
13.8330564766
 20
12.0367166895
 30
0.0
 10
13.8398506803
 20
12.0314785081
 30
0.0
 10
13.8452979616
 20
12.0257801912
 30
0.0
 10
13.8480481629
 20
12.0215711678
 30
0.0
 10
13.8490867343
 20
12.019454782
 30
0.0
  0
SPLINE
  5
27D
100
AcDbEntity
  8
0
100
AcDbSpline
 62
7
  6
CONTINUOUS
 70
0
 71
3
 72
15
 73
11
 74
0
 42
0.0000001
 43
0.0000001
 44
0.0000000001
 40
0.0
 40
0.0
 40
0.0
 40
0.0
 40
0.1296210348
 40
0.2645595905
 40
0.4012536355
 40
0.5362799783
 40
0.6662266992
 40
0.7881108783
 40
0.8997773656
 40
1.0
 40
1.0
 40
1.0
 40
1.0
 10
14.3326806844
 20
12.0500458237
 30
0.0
 10
14.3357296883
 20
12.0500458237
 30
0.0
 10
14.3419577756
 20
12.0496241048
 30
0.0
 10
14.3512534045
 20
12.0478812603
 30
0.0
 10
14.3604181236
 20
12.0450714958
 30
0.0
 10
14.3691050335
 20
12.0413040613
 30
0.0
 10
14.3769901345
 20
12.0367166895
 30
0.0
 10
14.3837843381
 20
12.0314785081
 30
0.0
 10
14.3892316195
 20
12.0257801912
 30
0.0
 10
14.3919818208
 20
12.0215711678
 30
0.0
 10
14.3930203921
 20
12.019454782
 30
0.0
  0
SPLINE
  5
27E
100
AcDbEntity
  8
0
100
AcDbSpline
 62
7
  6
CONTINUOUS
 70
0
 71
3
 72
15
 73
11
 74
0
 42
0.0000001
 43
0.0000001
 44
0.0000000001
 40
0.0
 40
0.0
 40
0.0
 40
0.0
 40
0.1296210348
 40
0.2645595905
 40
0.4012536355
 40
0.5362799783
 40
0.6662266992
 40
0.7881108783
 40
0.8997773656
 40
1.0
 40
1.0
 40
1.0
 40
1.0
 10
14.8766143423
 20
12.0500458237
 30
0.0
 10
14.8796633462
 20
12.0500458237
 30
0.0
 10
14.8858914335
 20
12.0496241048
 30
0.0
 10
14.8951870624
 20
12.0478812603
 30
0.0
 10
14.9043517815
 20
12.0450714958
 30
0.0
 10
14.9130386913
 20
12.0413040613
 30
0.0
 10
14.9209237924
 20
12.0367166895
 30
0.0
 10
14.927717996
 20
12.0314785081
 30
0.0
 10
14.9331652774
 20
12.0257801912
 30
0.0
 10
14.9359154787
 20
12.0215711678
 30
0.0
 10
14.93695405
 20
12.019454782
 30
0.0
  0
SPLINE
  5
27F
100
AcDbEntity
  8
0
100
AcDbSpline
 62
7
  6
CONTINUOUS
 70
0
 71
3
 72
15
 73
11
 74
0
 42
0.0000001
 43
0.0000001
 44
0.0000000001
 40
0.0
 40
0.0
 40
0.0
 40
0.0
 40
0.1296210348
 40
0.2645595905
 40
0.4012536355
 40
0.5362799783
 40
0.6662266992
 40
0.7881108783
 40
0.8997773656
 40
1.0
 40
1.0
 40
1.0
 40
1.0
 10
15.4205480002
 20
12.0500458237
 30
0.0
 10
15.4235970041
 20
12.0500458237
 30
0.0
 10
15.4298250914
 20
12.0496241048
 30
0.0
 10
15.4391207202
 20
12.0478812603
 30
0.0
 10
15.4482854393
 20
12.0450714958
 30
0.0
 10
15.4569723492
 20
12.0413040613
 30
0.0
 10
15.4648574502
 20
12.0367166895
 30
0.0
 10
15.4716516539
 20
12.0314785081
 30
0.0
 10
15.4770989352
 20
12.0257801912
 30
0.0
 10
15.4798491366
 20
12.0215711678
 30
0.0
 10
15.4808877079
 20
12.019454782
 30
0.0
  0
SPLINE
  5
280
100
AcDbEntity
  8
0
100
AcDbSpline
 62
7
  6
CONTINUOUS
 70
0
 71
3
 72
15
 73
11
 74
0
 42
0.0000001
 43
0.0000001
 44
0.0000000001
 40
0.0
 40
0.0
 40
0.0
 40
0.0
 40
0.1296210348
 40
0.2645595905
 40
0.4012536355
 40
0.5362799783
 40
0.6662266992
 40
0.7881108783
 40
0.8997773656
 40
1.0
 40
1.0
 40
1.0
 40
1.0
 10
15.9644816581
 20
12.0500458237
 30
0.0
 10
15.967530662
 20
12.0500458237
 30
0.0
 10
15.9737587492
 20
12.0496241048
 30
0.0
 10
15.9830543781
 20
12.0478812603
 30
0.0
 10
15.9922190972
 20
12.0450714958
 30
0.0
 10
16.0009060071
 20
12.0413040613
 30
0.0
 10
16.0087911081
 20
12.0367166895
 30
0.0
 10
16.0155853118
 20
12.0314785081
 30
0.0
 10
16.0210325931
 20
12.0257801912
 30
0.0
 10
16.0237827944
 20
12.0215711678
 30
0.0
 10
16.0248213658
 20
12.019454782
 30
0.0
  0
SPLINE
  5
281
100
AcDbEntity
  8
0
100
AcDbSpline
 62
7
  6
CONTINUOUS
 70
0
 71
3
 72
15
 73
11
 74
0
 42
0.0000001
 43
0.0000001
 44
0.0000000001
 40
0.0
 40
0.0
 40
0.0
 40
0.0
 40
0.1296210348
 40
0.2645595905
 40
0.4012536355
 40
0.5362799783
 40
0.6662266992
 40
0.7881108783
 40
0.8997773656
 40
1.0
 40
1.0
 40
1.0
 40
1.0
 10
16.5084153159
 20
12.0500458237
 30
0.0
 10
16.5114643198
 20
12.0500458237
 30
0.0
 10
16.5176924071
 20
12.0496241048
 30
0.0
 10
16.526988036
 20
12.0478812603
 30
0.0
 10
16.5361527551
 20
12.0450714958
 30
0.0
 10
16.544839665
 20
12.0413040613
 30
0.0
 10
16.552724766
 20
12.0367166895
 30
0.0
 10
16.5595189696
 20
12.0314785081
 30
0.0
 10
16.564966251
 20
12.0257801912
 30
0.0
 10
16.5677164523
 20
12.0215711678
 30
0.0
 10
16.5687550236
 20
12.019454782
 30
0.0
  0
SPLINE
  5
282
100
AcDbEntity
  8
0
100
AcDbSpline
 62
7
  6
CONTINUOUS
 70
0
 71
3
 72
11
 73
7
 74
0
 42
0.0000001
 43
0.0000001
 44
0.0000000001
 40
0.0
 40
0.0
 40
0.0
 40
0.0
 40
0.2336936203
 40
0.4744482201
 40
0.7284827705
 40
1.0
 40
1.0
 40
1.0
 40
1.0
 10
16.3730718805
 20
11.9609910377
 30
0.0
 10
16.3743623264
 20
11.9651683669
 30
0.0
 10
16.3760585615
 20
11.9739639108
 30
0.0
 10
16.375759861
 20
11.987680044
 30
0.0
 10
16.3726814062
 20
12.0017617405
 30
0.0
 10
16.3689692915
 20
12.0109177037
 30
0.0
 10
16.3667314493
 20
12.0154779466
 30
0.0
  0
SPLINE
  5
283
100
AcDbEntity
  8
0
100
AcDbSpline
 62
7
  6
CONTINUOUS
 70
0
 71
3
 72
11
 73
7
 74
0
 42
0.0000001
 43
0.0000001
 44
0.0000000001
 40
0.0
 40
0.0
 40
0.0
 40
0.0
 40
0.2337006148
 40
0.4744600685
 40
0.7284408233
 40
1.0
 40
1.0
 40
1.0
 40
1.0
 10
16.9170060787
 20
11.9609908716
 30
0.0
 10
16.9182971462
 20
11.965168152
 30
0.0
 10
16.919991174
 20
11.9739644832
 30
0.0
 10
16.9196933973
 20
11.9876795392
 30
0.0
 10
16.9166162942
 20
12.0017615794
 30
0.0
 10
16.9129032982
 20
12.0109169928
 30
0.0
 10
16.9106651072
 20
12.0154779466
 30
0.0
  0
SPLINE
  5
284
100
AcDbEntity
  8
0
100
AcDbSpline
 62
7
  6
CONTINUOUS
 70
0
 71
3
 72
11
 73
7
 74
0
 42
0.0000001
 43
0.0000001
 44
0.0000000001
 40
0.0
 40
0.0
 40
0.0
 40
0.0
 40
0.2336745839
 40
0.4744432871
 40
0.7285352633
 40
1.0
 40
1.0
 40
1.0
 40
1.0
 10
15.2852039972
 20
11.9609912155
 30
0.0
 10
15.2864951437
 20
11.9651679422
 30
0.0
 10
15.2881910368
 20
11.9739634942
 30
0.0
 10
15.287893284
 20
11.9876806546
 30
0.0
 10
15.2848122345
 20
12.0017621232
 30
0.0
 10
15.2811015366
 20
12.0109185985
 30
0.0
 10
15.2788641336
 20
12.0154779466
 30
0.0
  0
SPLINE
  5
285
100
AcDbEntity
  8
0
100
AcDbSpline
 62
7
  6
CONTINUOUS
 70
0
 71
3
 72
10
 73
6
 74
0
 42
0.0000001
 43
0.0000001
 44
0.0000000001
 40
0.0
 40
0.0
 40
0.0
 40
0.0
 40
0.5245631993
 40
0.765883792
 40
1.0
 40
1.0
 40
1.0
 40
1.0
 10
14.1890452704
 20
12.019454782
 30
0.0
 10
14.1878945401
 20
12.0217997239
 30
0.0
 10
14.1866656891
 20
12.0255172948
 30
0.0
 10
14.1865585582
 20
12.0305241503
 30
0.0
 10
14.1870101922
 20
12.0328708472
 30
0.0
 10
14.1873543222
 20
12.0339846847
 30
0.0
  0
SPLINE
  5
286
100
AcDbEntity
  8
0
100
AcDbSpline
 62
7
  6
CONTINUOUS
 70
0
 71
3
 72
11
 73
7
 74
0
 42
0.0000001
 43
0.0000001
 44
0.0000000001
 40
0.0
 40
0.0
 40
0.0
 40
0.0
 40
0.2336627515
 40
0.4744485601
 40
0.7285753422
 40
1.0
 40
1.0
 40
1.0
 40
1.0
 10
14.1973369416
 20
11.9609911354
 30
0.0
 10
14.1986285147
 20
11.9651674915
 30
0.0
 10
14.2003231091
 20
11.973963411
 30
0.0
 10
14.2000265053
 20
11.9876812848
 30
0.0
 10
14.1969434517
 20
12.0017625798
 30
0.0
 10
14.1932338871
 20
12.0109192787
 30
0.0
 10
14.1909968178
 20
12.0154779466
 30
0.0
  0
SPLINE
  5
287
100
AcDbEntity
  8
0
100
AcDbSpline
 62
7
  6
CONTINUOUS
 70
0
 71
3
 72
10
 73
6
 74
0
 42
0.0000001
 43
0.0000001
 44
0.0000000001
 40
0.0
 40
0.0
 40
0.0
 40
0.0
 40
0.5245631993
 40
0.765883792
 40
1.0
 40
1.0
 40
1.0
 40
1.0
 10
14.7329789283
 20
12.019454782
 30
0.0
 10
14.7318281979
 20
12.0217997239
 30
0.0
 10
14.730599347
 20
12.0255172948
 30
0.0
 10
14.730492216
 20
12.0305241503
 30
0.0
 10
14.73094385
 20
12.0328708472
 30
0.0
 10
14.7312879801
 20
12.0339846847
 30
0.0
  0
SPLINE
  5
288
100
AcDbEntity
  8
0
100
AcDbSpline
 62
7
  6
CONTINUOUS
 70
0
 71
3
 72
10
 73
6
 74
0
 42
0.0000001
 43
0.0000001
 44
0.0000000001
 40
0.0
 40
0.0
 40
0.0
 40
0.0
 40
0.5245631993
 40
0.765883792
 40
1.0
 40
1.0
 40
1.0
 40
1.0
 10
15.2769125862
 20
12.019454782
 30
0.0
 10
15.2757618558
 20
12.0217997239
 30
0.0
 10
15.2745330049
 20
12.0255172948
 30
0.0
 10
15.2744258739
 20
12.0305241503
 30
0.0
 10
15.2748775079
 20
12.0328708472
 30
0.0
 10
15.2752216379
 20
12.0339846847
 30
0.0
  0
SPLINE
  5
289
100
AcDbEntity
  8
0
100
AcDbSpline
 62
7
  6
CONTINUOUS
 70
0
 71
3
 72
10
 73
6
 74
0
 42
0.0000001
 43
0.0000001
 44
0.0000000001
 40
0.0
 40
0.0
 40
0.0
 40
0.0
 40
0.5245631993
 40
0.765883792
 40
1.0
 40
1.0
 40
1.0
 40
1.0
 10
15.8208462441
 20
12.019454782
 30
0.0
 10
15.8196955137
 20
12.0217997239
 30
0.0
 10
15.8184666628
 20
12.0255172948
 30
0.0
 10
15.8183595318
 20
12.0305241503
 30
0.0
 10
15.8188111658
 20
12.0328708472
 30
0.0
 10
15.8191552958
 20
12.0339846847
 30
0.0
  0
SPLINE
  5
28A
100
AcDbEntity
  8
0
100
AcDbSpline
 62
7
  6
CONTINUOUS
 70
0
 71
3
 72
11
 73
7
 74
0
 42
0.0000001
 43
0.0000001
 44
0.0000000001
 40
0.0
 40
0.0
 40
0.0
 40
0.0
 40
0.2336854563
 40
0.4744444727
 40
0.7285054322
 40
1.0
 40
1.0
 40
1.0
 40
1.0
 10
15.8291378291
 20
11.9609911599
 30
0.0
 10
15.8304285273
 20
11.9651682454
 30
0.0
 10
15.8321250154
 20
11.9739636793
 30
0.0
 10
15.8318264736
 20
11.9876802876
 30
0.0
 10
15.8287469755
 20
12.0017618759
 30
0.0
 10
15.8250354439
 20
12.0109180902
 30
0.0
 10
15.8227977914
 20
12.0154779466
 30
0.0
  0
SPLINE
  5
28B
100
AcDbEntity
  8
0
100
AcDbSpline
 62
7
  6
CONTINUOUS
 70
0
 71
3
 72
10
 73
6
 74
0
 42
0.0000001
 43
0.0000001
 44
0.0000000001
 40
0.0
 40
0.0
 40
0.0
 40
0.0
 40
0.5245631993
 40
0.765883792
 40
1.0
 40
1.0
 40
1.0
 40
1.0
 10
16.3647799019
 20
12.019454782
 30
0.0
 10
16.3636291716
 20
12.0217997239
 30
0.0
 10
16.3624003206
 20
12.0255172948
 30
0.0
 10
16.3622931897
 20
12.0305241503
 30
0.0
 10
16.3627448237
 20
12.0328708472
 30
0.0
 10
16.3630889537
 20
12.0339846847
 30
0.0
  0
SPLINE
  5
28C
100
AcDbEntity
  8
0
100
AcDbSpline
 62
7
  6
CONTINUOUS
 70
0
 71
3
 72
11
 73
7
 74
0
 42
0.0000001
 43
0.0000001
 44
0.0000000001
 40
0.0
 40
0.0
 40
0.0
 40
0.0
 40
0.2336745839
 40
0.4744432871
 40
0.7285352633
 40
1.0
 40
1.0
 40
1.0
 40
1.0
 10
14.7412703393
 20
11.9609912155
 30
0.0
 10
14.7425614858
 20
11.9651679422
 30
0.0
 10
14.7442573789
 20
11.9739634942
 30
0.0
 10
14.7439596261
 20
11.9876806546
 30
0.0
 10
14.7408785767
 20
12.0017621232
 30
0.0
 10
14.7371678788
 20
12.0109185985
 30
0.0
 10
14.7349304757
 20
12.0154779466
 30
0.0
  0
SPLINE
  5
28D
100
AcDbEntity
  8
0
100
AcDbSpline
 62
7
  6
CONTINUOUS
 70
0
 71
3
 72
10
 73
6
 74
0
 42
0.0000001
 43
0.0000001
 44
0.0000000001
 40
0.0
 40
0.0
 40
0.0
 40
0.0
 40
0.5245631993
 40
0.765883792
 40
1.0
 40
1.0
 40
1.0
 40
1.0
 10
16.9087135598
 20
12.019454782
 30
0.0
 10
16.9075628294
 20
12.0217997239
 30
0.0
 10
16.9063339785
 20
12.0255172948
 30
0.0
 10
16.9062268475
 20
12.0305241503
 30
0.0
 10
16.9066784815
 20
12.0328708472
 30
0.0
 10
16.9070226116
 20
12.0339846847
 30
0.0
  0
ENDSEC
  0
SECTION
  2
OBJECTS
  0
DICTIONARY
  5
C
100
AcDbDictionary
280
0
281
1
  3
ACAD_GROUP
350
D
  3
ACAD_MLINESTYLE
350
17
  3
ACAD_LAYOUT
350
1A
  3
ACAD_PLOTSETTINGS
350
19
  3
ACAD_PLOTSTYLENAME
350
E
  0
DICTIONARY
  5
D
102
{ACAD_REACTORS
330
C
102
}
100
AcDbDictionary
280
0
281
1
  0
ACDBDICTIONARYWDFLT
  5
E
102
{ACAD_REACTORS
330
C
102
}
100
AcDbDictionary
281
1
  3
Normal
350
F
100
AcDbDictionaryWithDefault
340
F
  0
DICTIONARY
  5
17
102
{ACAD_REACTORS
330
C
102
}
100
AcDbDictionary
280
0
281
1
  3
Standard
350
18
  0
DICTIONARY
  5
19
102
{ACAD_REACTORS
330
C
102
}
100
AcDbDictionary
281
1
  0
DICTIONARY
  5
1A
102
{ACAD_REACTORS
330
C
102
}
100
AcDbDictionary
281
1
  3
Model
350
28E
  3
Layout1
350
28F
  0
ACDBPLACEHOLDER
  5
F
102
{ACAD_REACTORS
330
E
102
}
  0
MLINESTYLE
  5
18
102
{ACAD_REACTORS
330
17
102
}
100
AcDbMlineStyle
  2
STANDARD
 70
0
  3

 62
256
 51
90.0
 52
90.0
 71
2
 49
0.5
 62
256
  6
BYLAYER
 49
-0.5
 62
256
  6
BYLAYER
  0
LAYOUT
  5
28E
102
{ACAD_REACTORS
330
1A
102
}
100
AcDbPlotSettings
  1

  2
none_device
  4
ANSI_C_(22.00_x_17.00_Inches)
  6

 40
0.0
 41
0.0
 42
0.0
 43
0.0
 44
558.8
 45
431.8
 46
0.0
 47
0.0
 48
0.0
 49
0.0
140
0.0
141
0.0
142
1.0
143
1.0
 70
1024
 72
0
 73
0
 74
0
  7

 75
0
147
1.0
148
0.0
149
0.0
100
AcDbLayout
  1
Model
 70
0
 71
0
 10
0.0
 20
0.0
 11
22.0
 21
17.0
 12
0.0
 22
0.0
 32
0.0
 14
0.0
 24
0.0
 34
0.0
 15
0.0
 25
0.0
 35
0.0
146
0.0
 13
0.0
 23
0.0
 33
0.0
 16
1.0
 26
0.0
 36
0.0
 17
0.0
 27
1.0
 37
0.0
 76
0
330
216
345
0
346
0
  0
LAYOUT
  5
28F
102
{ACAD_REACTORS
330
1A
102
}
100
AcDbPlotSettings
  1

  2
none_device
  4
ANSI_C_(22.00_x_17.00_Inches)
  6

 40
0.0
 41
0.0
 42
0.0
 43
0.0
 44
558.8
 45
431.8
 46
0.0
 47
0.0
 48
0.0
 49
0.0
140
0.0
141
0.0
142
1.0
143
1.0
 70
0
 72
0
 73
0
 74
0
  7

 75
0
147
1.0
148
0.0
149
0.0
100
AcDbLayout
  1
Layout1
 70
0
 71
1
 10
0.0
 20
0.0
 11
22.0
 21
17.0
 12
0.0
 22
0.0
 32
0.0
 14
0.0
 24
0.0
 34
0.0
 15
0.0
 25
0.0
 35
0.0
146
0.0
 13
0.0
 23
0.0
 33
0.0
 16
1.0
 26
0.0
 36
0.0
 17
0.0
 27
1.0
 37
0.0
 76
0
330
217
345
0
346
0
  0
ENDSEC
  0
EOF