999
DXF file: _cgs_temp_output.dxf
999
Pro/ENGINEER 2015110 by Parametric Technology Corporation
  0
SECTION
  2
HEADER
  9
$ACADVER
  1
AC1021
  9
$DWGCODEPAGE
  3
ANSI_1252
  9
$EXTMAX
 10
22.0
 20
17.0
 30
0.0
  9
$EXTMIN
 10
0.0
 20
0.0
 30
0.0
  9
$LIMMIN
 10
0.0
 20
0.0
  9
$LIMMAX
 10
22.0
 20
17.0
  9
$VIEWCTR
 10
11.0
 20
8.5
  9
$VIEWSIZE
 40
17.0
  9
$CLAYER
  8
0
  9
$LTSCALE
 40
1.21
  9
$CELTYPE
  6
BYLAYER
  9
$DIMSCALE
 40
1.0
  9
$DIMASZ
 40
0.1875
  9
$DIMEXO
 40
0.0625
  9
$DIMDLI
 40
0.836
  9
$DIMEXE
 40
0.125
  9
$DIMCEN
 40
0.198
  9
$DIMLFAC
 40
1.0
  9
$DIMBLK
  1
_CLOSED
  9
$DIMALT
 70
0
  9
$DIMALTF
 40
25.4
  9
$DIMTXT
 40
0.15625
  9
$DIMTOL
 70
0
  9
$DIMLIM
 70
0
  9
$DIMTFAC
 40
1.0
  9
$DIMGAP
 40
0.09
  9
$DIMDSEP
 70
46
  9
$AUNITS
 70
0
  9
$PDMODE
 70
3
  9
$PDSIZE
 40
0.3125
  9
$HANDSEED
  5
2C2
  9
$TILEMODE
 70
1
  9
$MEASUREMENT
 70
0
  9
$INSUNITS
 70
1
  0
ENDSEC
  0
SECTION
  2
CLASSES
  0
CLASS
  1
ACDBDICTIONARYWDFLT
  2
AcDbDictionaryWithDefault
  3
AutoCAD 2000
 90
0
 91
1
280
0
281
0
  0
CLASS
  1
ACDBPLACEHOLDER
  2
AcDbPlaceHolder
  3
AutoCAD 2000
 90
0
 91
1
280
0
281
0
  0
CLASS
  1
LAYOUT
  2
AcDbLayout
  3
AutoCAD 2000
 90
0
 91
0
280
0
281
0
  0
ENDSEC
  0
SECTION
  2
TABLES
  0
TABLE
  2
VPORT
  5
8
100
AcDbSymbolTable
 70
2
  0
VPORT
  5
1F4
100
AcDbSymbolTableRecord
100
AcDbViewportTableRecord
  2
*ACTIVE
 70
0
 10
0.0
 20
0.0
 11
1.0
 21
1.0
 12
11.0
 22
8.5
 13
0.0
 23
0.0
 14
1.0
 24
1.0
 15
0.0
 25
0.0
 16
0.0
 26
0.0
 36
1.0
 17
0.0
 27
0.0
 37
0.0
 40
17.0
 41
1.2941176471
 42
50.0
 43
0.0
 44
0.0
 50
0.0
 51
0.0
 71
0
 72
100
 73
1
 74
1
 75
0
 76
0
 77
0
 78
0
  0
ENDTAB
  0
TABLE
  2
LTYPE
  5
5
100
AcDbSymbolTable
 70
6
  0
LTYPE
  5
14
100
AcDbSymbolTableRecord
100
AcDbLinetypeTableRecord
  2
BYBLOCK
 70
0
  3

 72
65
 73
0
 40
0.0
  0
LTYPE
  5
15
100
AcDbSymbolTableRecord
100
AcDbLinetypeTableRecord
  2
BYLAYER
 70
0
  3

 72
65
 73
0
 40
0.0
  0
LTYPE
  5
16
100
AcDbSymbolTableRecord
100
AcDbLinetypeTableRecord
  2
CONTINUOUS
 70
64
  3
Solid line
 72
65
 73
0
 40
0.0
  0
LTYPE
  5
1F5
100
AcDbSymbolTableRecord
100
AcDbLinetypeTableRecord
  2
CENTER
 70
64
  3
____ _ ____ _ ____ _ ____ _ ____ _ ____ _ ____
 72
65
 73
4
 40
0.6
 49
0.375
 74
0
 49
-0.075
 74
0
 49
0.075
 74
0
 49
-0.075
 74
0
  0
LTYPE
  5
1F6
100
AcDbSymbolTableRecord
100
AcDbLinetypeTableRecord
  2
HIDDEN
 70
64
  3
- - - - - - - - - - - - - - - - - - - -
 72
65
 73
2
 40
0.2
 49
0.1
 74
0
 49
-0.1
 74
0
  0
LTYPE
  5
1F7
100
AcDbSymbolTableRecord
100
AcDbLinetypeTableRecord
  2
PHANTOM
 70
64
  3
_____ _ _ _____ _ _ _____ _ _ _____
 72
65
 73
6
 40
0.8
 49
0.45
 74
0
 49
-0.05
 74
0
 49
0.1
 74
0
 49
-0.05
 74
0
 49
0.1
 74
0
 49
-0.05
 74
0
  0
LTYPE
  5
1F8
100
AcDbSymbolTableRecord
100
AcDbLinetypeTableRecord
  2
DOT
 70
64
  3
. . . . . . . . . . . . . . . . . . . .
 72
65
 73
2
 40
0.2
 49
0.1
 74
0
 49
-0.1
 74
0
  0
LTYPE
  5
1F9
100
AcDbSymbolTableRecord
100
AcDbLinetypeTableRecord
  2
DASHED
 70
64
  3
- - - - - - - - - - - - - - - - - - - -
 72
65
 73
2
 40
0.2
 49
0.1
 74
0
 49
-0.1
 74
0
  0
ENDTAB
  0
TABLE
  2
LAYER
  5
2
100
AcDbSymbolTable
 70
36
  0
LAYER
  5
10
100
AcDbSymbolTableRecord
100
AcDbLayerTableRecord
  2
0
 70
0
 62
7
  6
CONTINUOUS
370
-3
390
F
  0
LAYER
  5
1FA
100
AcDbSymbolTableRecord
100
AcDbLayerTableRecord
  2
DEFAULT_1
 70
0
 62
7
  6
CENTER
370
-3
390
F
  0
LAYER
  5
1FB
100
AcDbSymbolTableRecord
100
AcDbLayerTableRecord
  2
DEFAULT_2
 70
0
 62
8
  6
HIDDEN
370
-3
390
F
  0
LAYER
  5
1FC
100
AcDbSymbolTableRecord
100
AcDbLayerTableRecord
  2
DEFAULT_3
 70
0
 62
7
  6
PHANTOM
370
-3
390
F
  0
LAYER
  5
1FD
100
AcDbSymbolTableRecord
100
AcDbLayerTableRecord
  2
01_ALL_DTM_PLN
 70
0
 62
7
  6
CONTINUOUS
370
-3
390
F
  0
LAYER
  5
1FE
100
AcDbSymbolTableRecord
100
AcDbLayerTableRecord
  2
01__ASM_ALL_DTM_PLN
 70
0
 62
7
  6
CONTINUOUS
370
-3
390
F
  0
LAYER
  5
1FF
100
AcDbSymbolTableRecord
100
AcDbLayerTableRecord
  2
01__ASM_DEF_DTM_PLN
 70
0
 62
7
  6
CONTINUOUS
370
-3
390
F
  0
LAYER
  5
200
100
AcDbSymbolTableRecord
100
AcDbLayerTableRecord
  2
01___PRT_ALL_DTM_PLN
 70
0
 62
7
  6
CONTINUOUS
370
-3
390
F
  0
LAYER
  5
201
100
AcDbSymbolTableRecord
100
AcDbLayerTableRecord
  2
01___PRT_DEF_DTM_PLN
 70
0
 62
7
  6
CONTINUOUS
370
-3
390
F
  0
LAYER
  5
202
100
AcDbSymbolTableRecord
100
AcDbLayerTableRecord
  2
02_ALL_AXES
 70
0
 62
7
  6
CONTINUOUS
370
-3
390
F
  0
LAYER
  5
203
100
AcDbSymbolTableRecord
100
AcDbLayerTableRecord
  2
02__ASM_ALL_AXES
 70
0
 62
7
  6
CONTINUOUS
370
-3
390
F
  0
LAYER
  5
204
100
AcDbSymbolTableRecord
100
AcDbLayerTableRecord
  2
02___PRT_ALL_AXES
 70
0
 62
7
  6
CONTINUOUS
370
-3
390
F
  0
LAYER
  5
205
100
AcDbSymbolTableRecord
100
AcDbLayerTableRecord
  2
03_ALL_CURVES
 70
0
 62
7
  6
CONTINUOUS
370
-3
390
F
  0
LAYER
  5
206
100
AcDbSymbolTableRecord
100
AcDbLayerTableRecord
  2
03__ASM_ALL_CURVES
 70
0
 62
7
  6
CONTINUOUS
370
-3
390
F
  0
LAYER
  5
207
100
AcDbSymbolTableRecord
100
AcDbLayerTableRecord
  2
03___PRT_ALL_CURVES
 70
0
 62
7
  6
CONTINUOUS
370
-3
390
F
  0
LAYER
  5
208
100
AcDbSymbolTableRecord
100
AcDbLayerTableRecord
  2
04_ALL_DTM_PNT
 70
0
 62
7
  6
CONTINUOUS
370
-3
390
F
  0
LAYER
  5
209
100
AcDbSymbolTableRecord
100
AcDbLayerTableRecord
  2
04__ASM_ALL_DTM_PNT
 70
0
 62
7
  6
CONTINUOUS
370
-3
390
F
  0
LAYER
  5
20A
100
AcDbSymbolTableRecord
100
AcDbLayerTableRecord
  2
04___PRT_ALL_DTM_PNT
 70
0
 62
7
  6
CONTINUOUS
370
-3
390
F
  0
LAYER
  5
20B
100
AcDbSymbolTableRecord
100
AcDbLayerTableRecord
  2
05_ALL_DTM_CSYS
 70
0
 62
7
  6
CONTINUOUS
370
-3
390
F
  0
LAYER
  5
20C
100
AcDbSymbolTableRecord
100
AcDbLayerTableRecord
  2
05__ASM_ALL_DTM_CSYS
 70
0
 62
7
  6
CONTINUOUS
370
-3
390
F
  0
LAYER
  5
20D
100
AcDbSymbolTableRecord
100
AcDbLayerTableRecord
  2
05__ASM_DEF_DTM_CSYS
 70
0
 62
7
  6
CONTINUOUS
370
-3
390
F
  0
LAYER
  5
20E
100
AcDbSymbolTableRecord
100
AcDbLayerTableRecord
  2
05___PRT_ALL_DTM_CSYS
 70
0
 62
7
  6
CONTINUOUS
370
-3
390
F
  0
LAYER
  5
20F
100
AcDbSymbolTableRecord
100
AcDbLayerTableRecord
  2
05___PRT_DEF_DTM_CSYS
 70
0
 62
7
  6
CONTINUOUS
370
-3
390
F
  0
LAYER
  5
210
100
AcDbSymbolTableRecord
100
AcDbLayerTableRecord
  2
06_ALL_SURFS
 70
0
 62
7
  6
CONTINUOUS
370
-3
390
F
  0
LAYER
  5
211
100
AcDbSymbolTableRecord
100
AcDbLayerTableRecord
  2
06__ASM_ALL_SURFS
 70
0
 62
7
  6
CONTINUOUS
370
-3
390
F
  0
LAYER
  5
212
100
AcDbSymbolTableRecord
100
AcDbLayerTableRecord
  2
06___PRT_ALL_SURFS
 70
0
 62
7
  6
CONTINUOUS
370
-3
390
F
  0
LAYER
  5
213
100
AcDbSymbolTableRecord
100
AcDbLayerTableRecord
  2
07__ASM_ALL_SKELETONS
 70
0
 62
7
  6
CONTINUOUS
370
-3
390
F
  0
LAYER
  5
214
100
AcDbSymbolTableRecord
100
AcDbLayerTableRecord
  2
LAYER_DIM
 70
0
 62
7
  6
CONTINUOUS
370
-3
390
F
  0
LAYER
  5
215
100
AcDbSymbolTableRecord
100
AcDbLayerTableRecord
  2
LAYER_FEATURE
 70
0
 62
7
  6
CONTINUOUS
370
-3
390
F
  0
LAYER
  5
216
100
AcDbSymbolTableRecord
100
AcDbLayerTableRecord
  2
LAYER_GEOM_FEAT
 70
0
 62
7
  6
CONTINUOUS
370
-3
390
F
  0
LAYER
  5
217
100
AcDbSymbolTableRecord
100
AcDbLayerTableRecord
  2
LAYER_PARAMETER_DIM
 70
0
 62
7
  6
CONTINUOUS
370
-3
390
F
  0
LAYER
  5
218
100
AcDbSymbolTableRecord
100
AcDbLayerTableRecord
  2
LAYER_PROTRUSION_FEAT
 70
0
 62
7
  6
CONTINUOUS
370
-3
390
F
  0
LAYER
  5
219
100
AcDbSymbolTableRecord
100
AcDbLayerTableRecord
  2
LAYER_ROUND_FEAT
 70
0
 62
7
  6
CONTINUOUS
370
-3
390
F
  0
ENDTAB
  0
TABLE
  2
STYLE
  5
3
100
AcDbSymbolTable
 70
1
  0
STYLE
  5
11
100
AcDbSymbolTableRecord
100
AcDbTextStyleTableRecord
  2
STANDARD
 70
0
 40
0.0
 41
0.8
 50
0.0
 71
0
 42
0.2
  3
txt
  4

  0
STYLE
  5
21A
100
AcDbSymbolTableRecord
100
AcDbTextStyleTableRecord
  2
TEXTSTYLE_1
 70
0
 40
0.0
 41
0.8
 50
0.0
 71
0
 42
0.2
  3
gdt
  4

  0
ENDTAB
  0
TABLE
  2
VIEW
  5
6
100
AcDbSymbolTable
 70
0
  0
ENDTAB
  0
TABLE
  2
UCS
  5
7
100
AcDbSymbolTable
 70
0
  0
ENDTAB
  0
TABLE
  2
APPID
  5
9
100
AcDbSymbolTable
 70
1
  0
APPID
  5
21B
100
AcDbSymbolTableRecord
100
AcDbRegAppTableRecord
  2
ACAD
 70
0
  0
ENDTAB
  0
TABLE
  2
BLOCK_RECORD
  5
1
100
AcDbSymbolTable
 70
0
  0
BLOCK_RECORD
  5
21C
100
AcDbSymbolTableRecord
100
AcDbBlockTableRecord
  2
*Model_Space
  0
BLOCK_RECORD
  5
21D
100
AcDbSymbolTableRecord
100
AcDbBlockTableRecord
  2
*Paper_Space
  0
ENDTAB
  0
TABLE
  2
DIMSTYLE
  5
A
100
AcDbSymbolTable
 70
1
100
AcDbDimStyleTable
 71
0
  0
DIMSTYLE
105
21E
100
AcDbSymbolTableRecord
100
AcDbDimStyleTableRecord
  2
STANDARD
 70
0
  3

  4

 40
1.0
 41
0.1875
 42
0.0625
 43
0.38
 44
0.125
 45
0.0
 46
0.0
 47
0.0001
 48
0.0001
140
0.15625
141
0.09
142
0.0
143
25.4
144
1.0
145
0.0
146
1.0
147
0.09
 71
0.0
 72
0.0
 73
1
 74
1
 75
0
 76
0
 77
0
 78
4
170
0
171
2
172
0
173
0
174
0
175
0
176
0
177
0
178
0
270
2
271
4
272
4
273
2
274
2
275
0
280
0
281
0
282
0
283
1
284
4
285
0
286
0
287
3
288
0
340
11
278
46
  0
ENDTAB
  0
ENDSEC
  0
SECTION
  2
BLOCKS
  0
BLOCK
  5
20
100
AcDbEntity
  8
0
100
AcDbBlockBegin
  2
*Model_Space
 70
0
 10
0.0
 20
0.0
 30
0.0
  3
*Model_Space
  1

  0
ENDBLK
  5
21
100
AcDbEntity
  8
0
100
AcDbBlockEnd
  0
BLOCK
  5
1C
100
AcDbEntity
  8
0
100
AcDbBlockBegin
  2
*Paper_Space
 70
0
 10
0.0
 20
0.0
 30
0.0
  3
*Paper_Space
  1

  0
ENDBLK
  5
1D
100
AcDbEntity
  8
0
100
AcDbBlockEnd
  0
ENDSEC
  0
SECTION
  2
ENTITIES
  0
MTEXT
  5
21F
100
AcDbEntity
  8
0
100
AcDbMText
 62
7
  6
CONTINUOUS
  7
STANDARD
 71
1
 72
1
 10
15.9560215477
 20
0.9479130325
 30
0.0
 11
1.0
 21
0.0
 31
0.0
 44
0.9
  1
SCALE: 1:1.000
 40
0.3
 41
3.36
  0
LINE
  5
220
100
AcDbEntity
  8
0
100
AcDbLine
 62
7
  6
CONTINUOUS
 10
0.0
 20
0.0
 11
0.0
 21
17.0
  0
LINE
  5
221
100
AcDbEntity
  8
0
100
AcDbLine
 62
7
  6
CONTINUOUS
 10
0.0
 20
0.0
 11
22.0
 21
0.0
  0
LINE
  5
222
100
AcDbEntity
  8
0
100
AcDbLine
 62
7
  6
CONTINUOUS
 10
0.0
 20
17.0
 11
22.0
 21
17.0
  0
LINE
  5
223
100
AcDbEntity
  8
0
100
AcDbLine
 62
7
  6
CONTINUOUS
 10
22.0
 20
0.0
 11
22.0
 21
17.0
  0
LINE
  5
224
100
AcDbEntity
  8
0
100
AcDbLine
 62
7
  6
CONTINUOUS
 10
4.7223672762
 20
5.6951198968
 11
4.7223672762
 21
5.6401198968
  0
LINE
  5
225
100
AcDbEntity
  8
0
100
AcDbLine
 62
7
  6
CONTINUOUS
 10
4.7223672762
 20
5.6401198968
 11
4.7907933187
 21
5.3424065888
  0
LINE
  5
226
100
AcDbEntity
  8
0
100
AcDbLine
 62
7
  6
CONTINUOUS
 10
5.1023672762
 20
5.6401198968
 11
5.1023672762
 21
5.6751198968
  0
LINE
  5
227
100
AcDbEntity
  8
LAYER_FEATURE
100
AcDbLine
 62
7
  6
CONTINUOUS
 10
5.1283672762
 20
5.6751198968
 11
5.1283672762
 21
5.6401198968
  0
LINE
  5
228
100
AcDbEntity
  8
0
100
AcDbLine
 62
7
  6
CONTINUOUS
 10
5.0339412336
 20
5.3424065888
 11
5.1023672762
 21
5.6401198968
  0
LINE
  5
229
100
AcDbEntity
  8
LAYER_FEATURE
100
AcDbLine
 62
7
  6
CONTINUOUS
 10
5.1283672762
 20
5.6401198968
 11
5.1967933187
 21
5.3424065888
  0
LINE
  5
22A
100
AcDbEntity
  8
LAYER_FEATURE
100
AcDbLine
 62
7
  6
CONTINUOUS
 10
5.5083672762
 20
5.6401198968
 11
5.5083672762
 21
5.6751198968
  0
LINE
  5
22B
100
AcDbEntity
  8
LAYER_FEATURE
100
AcDbLine
 62
7
  6
CONTINUOUS
 10
5.5343672762
 20
5.6751198968
 11
5.5343672762
 21
5.6401198968
  0
LINE
  5
22C
100
AcDbEntity
  8
LAYER_FEATURE
100
AcDbLine
 62
7
  6
CONTINUOUS
 10
5.4399412336
 20
5.3424065888
 11
5.5083672762
 21
5.6401198968
  0
LINE
  5
22D
100
AcDbEntity
  8
LAYER_FEATURE
100
AcDbLine
 62
7
  6
CONTINUOUS
 10
5.5343672762
 20
5.6401198968
 11
5.6027933187
 21
5.3424065888
  0
LINE
  5
22E
100
AcDbEntity
  8
LAYER_FEATURE
100
AcDbLine
 62
7
  6
CONTINUOUS
 10
5.9143672762
 20
5.6401198968
 11
5.9143672762
 21
5.6751198968
  0
LINE
  5
22F
100
AcDbEntity
  8
LAYER_FEATURE
100
AcDbLine
 62
7
  6
CONTINUOUS
 10
5.9403672762
 20
5.6751198968
 11
5.9403672762
 21
5.6401198968
  0
LINE
  5
230
100
AcDbEntity
  8
LAYER_FEATURE
100
AcDbLine
 62
7
  6
CONTINUOUS
 10
5.8459412336
 20
5.3424065888
 11
5.9143672762
 21
5.6401198968
  0
LINE
  5
231
100
AcDbEntity
  8
0
100
AcDbLine
 62
7
  6
CONTINUOUS
 10
4.8062243193
 20
5.3301198968
 11
5.018510233
 21
5.3301198968
  0
LINE
  5
232
100
AcDbEntity
  8
LAYER_FEATURE
100
AcDbLine
 62
7
  6
CONTINUOUS
 10
5.2122243193
 20
5.3301198968
 11
5.424510233
 21
5.3301198968
  0
LINE
  5
233
100
AcDbEntity
  8
LAYER_FEATURE
100
AcDbLine
 62
7
  6
CONTINUOUS
 10
5.6182243193
 20
5.3301198968
 11
5.830510233
 21
5.3301198968
  0
LINE
  5
234
100
AcDbEntity
  8
LAYER_FEATURE
100
AcDbLine
 62
7
  6
CONTINUOUS
 10
6.0242243193
 20
5.3301198968
 11
6.236510233
 21
5.3301198968
  0
LINE
  5
235
100
AcDbEntity
  8
LAYER_FEATURE
100
AcDbLine
 62
7
  6
CONTINUOUS
 10
6.4302243193
 20
5.3301198968
 11
6.642510233
 21
5.3301198968
  0
LINE
  5
236
100
AcDbEntity
  8
LAYER_FEATURE
100
AcDbLine
 62
7
  6
CONTINUOUS
 10
6.8362243193
 20
5.3301198968
 11
7.048510233
 21
5.3301198968
  0
LINE
  5
237
100
AcDbEntity
  8
LAYER_FEATURE
100
AcDbLine
 62
7
  6
CONTINUOUS
 10
7.2422243193
 20
5.3301198968
 11
7.454510233
 21
5.3301198968
  0
LINE
  5
238
100
AcDbEntity
  8
LAYER_FEATURE
100
AcDbLine
 62
7
  6
CONTINUOUS
 10
5.9403672762
 20
5.6401198968
 11
6.0087933187
 21
5.3424065888
  0
LINE
  5
239
100
AcDbEntity
  8
LAYER_FEATURE
100
AcDbLine
 62
7
  6
CONTINUOUS
 10
6.3203672762
 20
5.6401198968
 11
6.3203672762
 21
5.6751198968
  0
LINE
  5
23A
100
AcDbEntity
  8
LAYER_FEATURE
100
AcDbLine
 62
7
  6
CONTINUOUS
 10
6.2519412336
 20
5.3424065888
 11
6.3203672762
 21
5.6401198968
  0
LINE
  5
23B
100
AcDbEntity
  8
LAYER_FEATURE
100
AcDbLine
 62
7
  6
CONTINUOUS
 10
5.1023672762
 20
5.6751198968
 11
5.1283672762
 21
5.6751198968
  0
LINE
  5
23C
100
AcDbEntity
  8
LAYER_FEATURE
100
AcDbLine
 62
7
  6
CONTINUOUS
 10
5.5083672762
 20
5.6751198968
 11
5.5343672762
 21
5.6751198968
  0
LINE
  5
23D
100
AcDbEntity
  8
LAYER_FEATURE
100
AcDbLine
 62
7
  6
CONTINUOUS
 10
5.9143672762
 20
5.6751198968
 11
5.9403672762
 21
5.6751198968
  0
LINE
  5
23E
100
AcDbEntity
  8
LAYER_FEATURE
100
AcDbLine
 62
7
  6
CONTINUOUS
 10
6.3203672762
 20
5.6751198968
 11
6.3463672762
 21
5.6751198968
  0
LINE
  5
23F
100
AcDbEntity
  8
LAYER_FEATURE
100
AcDbLine
 62
7
  6
CONTINUOUS
 10
6.7263672762
 20
5.6751198968
 11
6.7523672762
 21
5.6751198968
  0
LINE
  5
240
100
AcDbEntity
  8
LAYER_FEATURE
100
AcDbLine
 62
7
  6
CONTINUOUS
 10
7.1323672762
 20
5.6751198968
 11
7.1583672762
 21
5.6751198968
  0
LINE
  5
241
100
AcDbEntity
  8
0
100
AcDbLine
 62
7
  6
CONTINUOUS
 10
7.5233672762
 20
5.7101198968
 11
4.7373672762
 21
5.7101198968
  0
LINE
  5
242
100
AcDbEntity
  8
LAYER_FEATURE
100
AcDbLine
 62
7
  6
CONTINUOUS
 10
6.3463672762
 20
5.6751198968
 11
6.3463672762
 21
5.6401198968
  0
LINE
  5
243
100
AcDbEntity
  8
LAYER_FEATURE
100
AcDbLine
 62
7
  6
CONTINUOUS
 10
6.3463672762
 20
5.6401198968
 11
6.4147933187
 21
5.3424065888
  0
LINE
  5
244
100
AcDbEntity
  8
LAYER_FEATURE
100
AcDbLine
 62
7
  6
CONTINUOUS
 10
6.6579412336
 20
5.3424065888
 11
6.7263672762
 21
5.6401198968
  0
LINE
  5
245
100
AcDbEntity
  8
LAYER_FEATURE
100
AcDbLine
 62
7
  6
CONTINUOUS
 10
6.7263672762
 20
5.6401198968
 11
6.7263672762
 21
5.6751198968
  0
LINE
  5
246
100
AcDbEntity
  8
LAYER_FEATURE
100
AcDbLine
 62
7
  6
CONTINUOUS
 10
6.7523672762
 20
5.6751198968
 11
6.7523672762
 21
5.6401198968
  0
LINE
  5
247
100
AcDbEntity
  8
LAYER_FEATURE
100
AcDbLine
 62
7
  6
CONTINUOUS
 10
6.7523672762
 20
5.6401198968
 11
6.8207933187
 21
5.3424065888
  0
LINE
  5
248
100
AcDbEntity
  8
LAYER_FEATURE
100
AcDbLine
 62
7
  6
CONTINUOUS
 10
7.0639412336
 20
5.3424065888
 11
7.1323672762
 21
5.6401198968
  0
LINE
  5
249
100
AcDbEntity
  8
LAYER_FEATURE
100
AcDbLine
 62
7
  6
CONTINUOUS
 10
7.1323672762
 20
5.6401198968
 11
7.1323672762
 21
5.6751198968
  0
LINE
  5
24A
100
AcDbEntity
  8
LAYER_FEATURE
100
AcDbLine
 62
7
  6
CONTINUOUS
 10
7.1583672762
 20
5.6751198968
 11
7.1583672762
 21
5.6401198968
  0
LINE
  5
24B
100
AcDbEntity
  8
LAYER_FEATURE
100
AcDbLine
 62
7
  6
CONTINUOUS
 10
7.1583672762
 20
5.6401198968
 11
7.2267933187
 21
5.3424065888
  0
LINE
  5
24C
100
AcDbEntity
  8
0
100
AcDbLine
 62
7
  6
CONTINUOUS
 10
7.5383672762
 20
5.6401198968
 11
7.5383672762
 21
5.6951198968
  0
LINE
  5
24D
100
AcDbEntity
  8
LAYER_FEATURE
100
AcDbLine
 62
7
  6
CONTINUOUS
 10
7.4699412336
 20
5.3424065888
 11
7.5383672762
 21
5.6401198968
  0
LINE
  5
24E
100
AcDbEntity
  8
0
100
AcDbLine
 62
7
  6
CONTINUOUS
 10
7.4788720839
 20
10.6000477814
 11
4.6628720839
 21
10.6000477814
  0
LINE
  5
24F
100
AcDbEntity
  8
0
100
AcDbLine
 62
7
  6
CONTINUOUS
 10
4.6628720839
 20
14.6000477814
 11
4.6628720839
 21
10.6000477814
  0
LINE
  5
250
100
AcDbEntity
  8
0
100
AcDbLine
 62
7
  6
CONTINUOUS
 10
7.4788720839
 20
10.6000477814
 11
7.4788720839
 21
14.6000477814
  0
LINE
  5
251
100
AcDbEntity
  8
0
100
AcDbLine
 62
7
  6
CONTINUOUS
 10
4.6628720839
 20
14.6000477814
 11
7.4788720839
 21
14.6000477814
  0
LINE
  5
252
100
AcDbEntity
  8
LAYER_FEATURE
100
AcDbLine
 62
7
  6
CONTINUOUS
 10
13.5603552569
 20
5.2706247044
 11
13.5603552569
 21
5.5806247044
  0
LINE
  5
253
100
AcDbEntity
  8
0
100
AcDbLine
 62
7
  6
CONTINUOUS
 10
13.5603552569
 20
5.5806247044
 11
13.5603552569
 21
5.6506247044
  0
LINE
  5
254
100
AcDbEntity
  8
LAYER_FEATURE
100
AcDbLine
 62
7
  6
CONTINUOUS
 10
13.5603552569
 20
5.2706247044
 11
17.5603552569
 21
5.2706247044
  0
LINE
  5
255
100
AcDbEntity
  8
LAYER_FEATURE
100
AcDbLine
 62
7
  6
CONTINUOUS
 10
17.5603552569
 20
5.5806247044
 11
13.5603552569
 21
5.5806247044
  0
LINE
  5
256
100
AcDbEntity
  8
0
100
AcDbLine
 62
7
  6
CONTINUOUS
 10
13.5603552569
 20
5.6506247044
 11
17.5603552569
 21
5.6506247044
  0
LINE
  5
257
100
AcDbEntity
  8
0
100
AcDbLine
 62
7
  6
CONTINUOUS
 10
17.5603552569
 20
5.6506247044
 11
17.5603552569
 21
5.5806247044
  0
LINE
  5
258
100
AcDbEntity
  8
LAYER_FEATURE
100
AcDbLine
 62
7
  6
CONTINUOUS
 10
17.5603552569
 20
5.2706247044
 11
17.5603552569
 21
5.5806247044
  0
LINE
  5
259
100
AcDbEntity
  8
0
100
AcDbLine
 62
7
  6
CONTINUOUS
 10
13.6849691744
 20
11.0187443698
 11
13.8388087564
 21
10.8336828099
  0
LINE
  5
25A
100
AcDbEntity
  8
0
100
AcDbLine
 62
7
  6
CONTINUOUS
 10
13.6681918717
 20
11.0529329181
 11
13.6849691744
 21
11.0187443698
  0
LINE
  5
25B
100
AcDbEntity
  8
LAYER_FEATURE
100
AcDbLine
 62
7
  6
CONTINUOUS
 10
14.058919938
 20
11.0187443698
 11
14.2127595199
 21
10.8336828099
  0
LINE
  5
25C
100
AcDbEntity
  8
0
100
AcDbLine
 62
7
  6
CONTINUOUS
 10
14.0349723521
 20
11.0187443698
 11
14.0242958868
 21
11.0405007187
  0
LINE
  5
25D
100
AcDbEntity
  8
LAYER_FEATURE
100
AcDbLine
 62
7
  6
CONTINUOUS
 10
14.0482434726
 20
11.0405007187
 11
14.058919938
 21
11.0187443698
  0
LINE
  5
25E
100
AcDbEntity
  8
0
100
AcDbLine
 62
7
  6
CONTINUOUS
 10
13.8567696046
 20
10.8260452797
 11
14.0522978792
 21
10.8260452797
  0
LINE
  5
25F
100
AcDbEntity
  8
LAYER_FEATURE
100
AcDbLine
 62
7
  6
CONTINUOUS
 10
14.2307203682
 20
10.8260452797
 11
14.4262486428
 21
10.8260452797
  0
LINE
  5
260
100
AcDbEntity
  8
LAYER_FEATURE
100
AcDbLine
 62
7
  6
CONTINUOUS
 10
14.6046711317
 20
10.8260452797
 11
14.8001994064
 21
10.8260452797
  0
LINE
  5
261
100
AcDbEntity
  8
LAYER_FEATURE
100
AcDbLine
 62
7
  6
CONTINUOUS
 10
14.9786218953
 20
10.8260452797
 11
15.1741501699
 21
10.8260452797
  0
LINE
  5
262
100
AcDbEntity
  8
LAYER_FEATURE
100
AcDbLine
 62
7
  6
CONTINUOUS
 10
15.3525726589
 20
10.8260452797
 11
15.5481009335
 21
10.8260452797
  0
LINE
  5
263
100
AcDbEntity
  8
LAYER_FEATURE
100
AcDbLine
 62
7
  6
CONTINUOUS
 10
15.7265234224
 20
10.8260452797
 11
15.9220516971
 21
10.8260452797
  0
LINE
  5
264
100
AcDbEntity
  8
LAYER_FEATURE
100
AcDbLine
 62
7
  6
CONTINUOUS
 10
16.100474186
 20
10.8260452797
 11
16.2960024606
 21
10.8260452797
  0
LINE
  5
265
100
AcDbEntity
  8
LAYER_FEATURE
100
AcDbLine
 62
7
  6
CONTINUOUS
 10
14.4328707015
 20
11.0187443698
 11
14.5867102835
 21
10.8336828099
  0
LINE
  5
266
100
AcDbEntity
  8
0
100
AcDbLine
 62
7
  6
CONTINUOUS
 10
14.0627628165
 20
10.8336828099
 11
14.0349723521
 21
11.0187443698
  0
LINE
  5
267
100
AcDbEntity
  8
LAYER_FEATURE
100
AcDbLine
 62
7
  6
CONTINUOUS
 10
14.0242958868
 20
11.0405007187
 11
14.0482434726
 21
11.0405007187
  0
LINE
  5
268
100
AcDbEntity
  8
LAYER_FEATURE
100
AcDbLine
 62
7
  6
CONTINUOUS
 10
14.3982466504
 20
11.0405007187
 11
14.4221942362
 21
11.0405007187
  0
LINE
  5
269
100
AcDbEntity
  8
LAYER_FEATURE
100
AcDbLine
 62
7
  6
CONTINUOUS
 10
14.7721974139
 20
11.0405007187
 11
14.7961449998
 21
11.0405007187
  0
LINE
  5
26A
100
AcDbEntity
  8
LAYER_FEATURE
100
AcDbLine
 62
7
  6
CONTINUOUS
 10
15.1461481775
 20
11.0405007187
 11
15.1700957633
 21
11.0405007187
  0
LINE
  5
26B
100
AcDbEntity
  8
LAYER_FEATURE
100
AcDbLine
 62
7
  6
CONTINUOUS
 10
15.5200989411
 20
11.0405007187
 11
15.5440465269
 21
11.0405007187
  0
LINE
  5
26C
100
AcDbEntity
  8
LAYER_FEATURE
100
AcDbLine
 62
7
  6
CONTINUOUS
 10
15.8940497046
 20
11.0405007187
 11
15.9179972905
 21
11.0405007187
  0
LINE
  5
26D
100
AcDbEntity
  8
LAYER_FEATURE
100
AcDbLine
 62
7
  6
CONTINUOUS
 10
14.8068214651
 20
11.0187443698
 11
14.960661047
 21
10.8336828099
  0
LINE
  5
26E
100
AcDbEntity
  8
LAYER_FEATURE
100
AcDbLine
 62
7
  6
CONTINUOUS
 10
14.4089231157
 20
11.0187443698
 11
14.3982466504
 21
11.0405007187
  0
LINE
  5
26F
100
AcDbEntity
  8
LAYER_FEATURE
100
AcDbLine
 62
7
  6
CONTINUOUS
 10
14.4221942362
 20
11.0405007187
 11
14.4328707015
 21
11.0187443698
  0
LINE
  5
270
100
AcDbEntity
  8
0
100
AcDbLine
 62
7
  6
CONTINUOUS
 10
16.2435080879
 20
11.0622570676
 11
13.6774321587
 21
11.0622570676
  0
LINE
  5
271
100
AcDbEntity
  8
0
100
AcDbLine
 62
7
  6
CONTINUOUS
 10
14.0625958562
 20
10.8312125918
 11
14.0627628165
 21
10.8336828099
  0
LINE
  5
272
100
AcDbEntity
  8
0
100
AcDbLine
 62
7
  6
CONTINUOUS
 10
14.6359417676
 20
14.1906692672
 11
13.667676474
 21
11.0573616287
  0
LINE
  5
273
100
AcDbEntity
  8
LAYER_FEATURE
100
AcDbLine
 62
7
  6
CONTINUOUS
 10
15.1807722287
 20
11.0187443698
 11
15.3346118106
 21
10.8336828099
  0
LINE
  5
274
100
AcDbEntity
  8
LAYER_FEATURE
100
AcDbLine
 62
7
  6
CONTINUOUS
 10
14.7828738793
 20
11.0187443698
 11
14.7721974139
 21
11.0405007187
  0
LINE
  5
275
100
AcDbEntity
  8
LAYER_FEATURE
100
AcDbLine
 62
7
  6
CONTINUOUS
 10
14.7961449998
 20
11.0405007187
 11
14.8068214651
 21
11.0187443698
  0
LINE
  5
276
100
AcDbEntity
  8
LAYER_FEATURE
100
AcDbLine
 62
7
  6
CONTINUOUS
 10
14.4367135801
 20
10.8336828099
 11
14.4089231157
 21
11.0187443698
  0
LINE
  5
277
100
AcDbEntity
  8
LAYER_FEATURE
100
AcDbLine
 62
7
  6
CONTINUOUS
 10
14.4365466198
 20
10.8312125918
 11
14.4367135801
 21
10.8336828099
  0
LINE
  5
278
100
AcDbEntity
  8
0
100
AcDbLine
 62
7
  6
CONTINUOUS
 10
14.0416955724
 20
11.0405007187
 11
14.0349723521
 21
11.0187443698
  0
LINE
  5
279
100
AcDbEntity
  8
0
100
AcDbLine
 62
7
  6
CONTINUOUS
 10
14.0633069132
 20
10.8335146714
 11
14.1038462908
 21
10.9647001452
  0
LINE
  5
27A
100
AcDbEntity
  8
LAYER_FEATURE
100
AcDbLine
 62
7
  6
CONTINUOUS
 10
15.5547229922
 20
11.0187443698
 11
15.7085625742
 21
10.8336828099
  0
LINE
  5
27B
100
AcDbEntity
  8
LAYER_FEATURE
100
AcDbLine
 62
7
  6
CONTINUOUS
 10
15.1568246428
 20
11.0187443698
 11
15.1461481775
 21
11.0405007187
  0
LINE
  5
27C
100
AcDbEntity
  8
LAYER_FEATURE
100
AcDbLine
 62
7
  6
CONTINUOUS
 10
15.1700957633
 20
11.0405007187
 11
15.1807722287
 21
11.0187443698
  0
LINE
  5
27D
100
AcDbEntity
  8
LAYER_FEATURE
100
AcDbLine
 62
7
  6
CONTINUOUS
 10
14.8106643437
 20
10.8336828099
 11
14.7828738793
 21
11.0187443698
  0
LINE
  5
27E
100
AcDbEntity
  8
LAYER_FEATURE
100
AcDbLine
 62
7
  6
CONTINUOUS
 10
14.8104973833
 20
10.8312125918
 11
14.8106643437
 21
10.8336828099
  0
LINE
  5
27F
100
AcDbEntity
  8
LAYER_FEATURE
100
AcDbLine
 62
7
  6
CONTINUOUS
 10
14.415646336
 20
11.0405007187
 11
14.4089231157
 21
11.0187443698
  0
LINE
  5
280
100
AcDbEntity
  8
LAYER_FEATURE
100
AcDbLine
 62
7
  6
CONTINUOUS
 10
14.4372576768
 20
10.8335146714
 11
14.4777970543
 21
10.9647001452
  0
LINE
  5
281
100
AcDbEntity
  8
LAYER_FEATURE
100
AcDbLine
 62
7
  6
CONTINUOUS
 10
15.9286737558
 20
11.0187443698
 11
16.0825133377
 21
10.8336828099
  0
LINE
  5
282
100
AcDbEntity
  8
LAYER_FEATURE
100
AcDbLine
 62
7
  6
CONTINUOUS
 10
15.5307754064
 20
11.0187443698
 11
15.5200989411
 21
11.0405007187
  0
LINE
  5
283
100
AcDbEntity
  8
LAYER_FEATURE
100
AcDbLine
 62
7
  6
CONTINUOUS
 10
15.5440465269
 20
11.0405007187
 11
15.5547229922
 21
11.0187443698
  0
LINE
  5
284
100
AcDbEntity
  8
LAYER_FEATURE
100
AcDbLine
 62
7
  6
CONTINUOUS
 10
15.1846151072
 20
10.8336828099
 11
15.1568246428
 21
11.0187443698
  0
LINE
  5
285
100
AcDbEntity
  8
LAYER_FEATURE
100
AcDbLine
 62
7
  6
CONTINUOUS
 10
15.184448307
 20
10.8312125424
 11
15.1846151072
 21
10.8336828099
  0
LINE
  5
286
100
AcDbEntity
  8
LAYER_FEATURE
100
AcDbLine
 62
7
  6
CONTINUOUS
 10
14.7895970996
 20
11.0405007187
 11
14.7828738793
 21
11.0187443698
  0
LINE
  5
287
100
AcDbEntity
  8
LAYER_FEATURE
100
AcDbLine
 62
7
  6
CONTINUOUS
 10
15.90472617
 20
11.0187443698
 11
15.8940497046
 21
11.0405007187
  0
LINE
  5
288
100
AcDbEntity
  8
LAYER_FEATURE
100
AcDbLine
 62
7
  6
CONTINUOUS
 10
15.9179972905
 20
11.0405007187
 11
15.9286737558
 21
11.0187443698
  0
LINE
  5
289
100
AcDbEntity
  8
LAYER_FEATURE
100
AcDbLine
 62
7
  6
CONTINUOUS
 10
15.5585658708
 20
10.8336828099
 11
15.5307754064
 21
11.0187443698
  0
LINE
  5
28A
100
AcDbEntity
  8
LAYER_FEATURE
100
AcDbLine
 62
7
  6
CONTINUOUS
 10
14.8112084404
 20
10.8335146714
 11
14.8517478179
 21
10.9647001452
  0
LINE
  5
28B
100
AcDbEntity
  8
LAYER_FEATURE
100
AcDbLine
 62
7
  6
CONTINUOUS
 10
15.1635478631
 20
11.0405007187
 11
15.1568246428
 21
11.0187443698
  0
LINE
  5
28C
100
AcDbEntity
  8
0
100
AcDbLine
 62
7
  6
CONTINUOUS
 10
16.2786769335
 20
11.0187443698
 11
16.2618996309
 21
11.0529329181
  0
LINE
  5
28D
100
AcDbEntity
  8
LAYER_FEATURE
100
AcDbLine
 62
7
  6
CONTINUOUS
 10
15.5583989105
 20
10.8312125918
 11
15.5585658708
 21
10.8336828099
  0
LINE
  5
28E
100
AcDbEntity
  8
LAYER_FEATURE
100
AcDbLine
 62
7
  6
CONTINUOUS
 10
15.1851592039
 20
10.8335146714
 11
15.2256985815
 21
10.9647001452
  0
LINE
  5
28F
100
AcDbEntity
  8
LAYER_FEATURE
100
AcDbLine
 62
7
  6
CONTINUOUS
 10
15.9325166344
 20
10.8336828099
 11
15.90472617
 21
11.0187443698
  0
LINE
  5
290
100
AcDbEntity
  8
LAYER_FEATURE
100
AcDbLine
 62
7
  6
CONTINUOUS
 10
15.5374986267
 20
11.0405007187
 11
15.5307754064
 21
11.0187443698
  0
LINE
  5
291
100
AcDbEntity
  8
LAYER_FEATURE
100
AcDbLine
 62
7
  6
CONTINUOUS
 10
15.932349674
 20
10.8312125918
 11
15.9325166344
 21
10.8336828099
  0
LINE
  5
292
100
AcDbEntity
  8
LAYER_FEATURE
100
AcDbLine
 62
7
  6
CONTINUOUS
 10
15.5591099675
 20
10.8335146714
 11
15.599649345
 21
10.9647001452
  0
LINE
  5
293
100
AcDbEntity
  8
LAYER_FEATURE
100
AcDbLine
 62
7
  6
CONTINUOUS
 10
16.3064673979
 20
10.8336828099
 11
16.2786769335
 21
11.0187443698
  0
LINE
  5
294
100
AcDbEntity
  8
LAYER_FEATURE
100
AcDbLine
 62
7
  6
CONTINUOUS
 10
16.3063004376
 20
10.8312125918
 11
16.3064673979
 21
10.8336828099
  0
LINE
  5
295
100
AcDbEntity
  8
LAYER_FEATURE
100
AcDbLine
 62
7
  6
CONTINUOUS
 10
15.9114493903
 20
11.0405007187
 11
15.90472617
 21
11.0187443698
  0
LINE
  5
296
100
AcDbEntity
  8
LAYER_FEATURE
100
AcDbLine
 62
7
  6
CONTINUOUS
 10
15.933060731
 20
10.8335146714
 11
15.9736001086
 21
10.9647001452
  0
LINE
  5
297
100
AcDbEntity
  8
LAYER_FEATURE
100
AcDbLine
 62
7
  6
CONTINUOUS
 10
17.2469422271
 20
14.1520520084
 11
16.2786769335
 21
11.0187443698
  0
LINE
  5
298
100
AcDbEntity
  8
LAYER_FEATURE
100
AcDbLine
 62
7
  6
CONTINUOUS
 10
16.3070114946
 20
10.8335146714
 11
17.2745654214
 21
13.964520326
  0
LINE
  5
299
100
AcDbEntity
  8
LAYER_FEATURE
100
AcDbLine
 62
7
  6
CONTINUOUS
 10
17.2747326916
 20
13.9669904485
 11
17.2745657312
 21
13.9645202304
  0
LINE
  5
29A
100
AcDbEntity
  8
0
100
AcDbLine
 62
7
  6
CONTINUOUS
 10
14.6456974523
 20
14.1955647061
 11
17.2117733816
 21
14.1955647061
  0
LINE
  5
29B
100
AcDbEntity
  8
LAYER_FEATURE
100
AcDbLine
 62
7
  6
CONTINUOUS
 10
17.2747326916
 20
13.9669904485
 11
17.2469422271
 21
14.1520520084
  0
LINE
  5
29C
100
AcDbEntity
  8
0
100
AcDbLine
 62
7
  6
CONTINUOUS
 10
17.2301649245
 20
14.1862405566
 11
17.2469422271
 21
14.1520520084
  0
ARC
  5
29D
100
AcDbEntity
  8
0
100
AcDbCircle
 62
7
  6
CONTINUOUS
 10
4.8062243193
 20
5.3459532301
 40
0.0158333333
100
AcDbArc
 50
192.9439872503
 51
270.0
  0
ARC
  5
29E
100
AcDbEntity
  8
0
100
AcDbCircle
 62
7
  6
CONTINUOUS
 10
5.018510233
 20
5.3459532301
 40
0.0158333333
100
AcDbArc
 50
270.0
 51
347.0560127497
  0
ARC
  5
29F
100
AcDbEntity
  8
LAYER_FEATURE
100
AcDbCircle
 62
7
  6
CONTINUOUS
 10
5.2122243193
 20
5.3459532301
 40
0.0158333333
100
AcDbArc
 50
192.9439872503
 51
270.0
  0
ARC
  5
2A0
100
AcDbEntity
  8
LAYER_FEATURE
100
AcDbCircle
 62
7
  6
CONTINUOUS
 10
5.424510233
 20
5.3459532301
 40
0.0158333333
100
AcDbArc
 50
270.0
 51
347.0560127497
  0
ARC
  5
2A1
100
AcDbEntity
  8
LAYER_FEATURE
100
AcDbCircle
 62
7
  6
CONTINUOUS
 10
5.6182243193
 20
5.3459532301
 40
0.0158333333
100
AcDbArc
 50
192.9439872503
 51
270.0
  0
ARC
  5
2A2
100
AcDbEntity
  8
LAYER_FEATURE
100
AcDbCircle
 62
7
  6
CONTINUOUS
 10
5.830510233
 20
5.3459532301
 40
0.0158333333
100
AcDbArc
 50
270.0
 51
347.0560127497
  0
ARC
  5
2A3
100
AcDbEntity
  8
LAYER_FEATURE
100
AcDbCircle
 62
7
  6
CONTINUOUS
 10
6.0242243193
 20
5.3459532301
 40
0.0158333333
100
AcDbArc
 50
192.9439872503
 51
270.0
  0
ARC
  5
2A4
100
AcDbEntity
  8
LAYER_FEATURE
100
AcDbCircle
 62
7
  6
CONTINUOUS
 10
6.236510233
 20
5.3459532301
 40
0.0158333333
100
AcDbArc
 50
270.0
 51
347.0560127497
  0
ARC
  5
2A5
100
AcDbEntity
  8
LAYER_FEATURE
100
AcDbCircle
 62
7
  6
CONTINUOUS
 10
6.4302243193
 20
5.3459532301
 40
0.0158333333
100
AcDbArc
 50
192.9439872503
 51
270.0
  0
ARC
  5
2A6
100
AcDbEntity
  8
LAYER_FEATURE
100
AcDbCircle
 62
7
  6
CONTINUOUS
 10
6.642510233
 20
5.3459532301
 40
0.0158333333
100
AcDbArc
 50
270.0
 51
347.0560127497
  0
ARC
  5
2A7
100
AcDbEntity
  8
LAYER_FEATURE
100
AcDbCircle
 62
7
  6
CONTINUOUS
 10
6.8362243193
 20
5.3459532301
 40
0.0158333333
100
AcDbArc
 50
192.9439872503
 51
270.0
  0
ARC
  5
2A8
100
AcDbEntity
  8
LAYER_FEATURE
100
AcDbCircle
 62
7
  6
CONTINUOUS
 10
7.048510233
 20
5.3459532301
 40
0.0158333333
100
AcDbArc
 50
270.0
 51
347.0560127497
  0
ARC
  5
2A9
100
AcDbEntity
  8
LAYER_FEATURE
100
AcDbCircle
 62
7
  6
CONTINUOUS
 10
7.454510233
 20
5.3459532301
 40
0.0158333333
100
AcDbArc
 50
270.0
 51
347.0560127497
  0
ARC
  5
2AA
100
AcDbEntity
  8
LAYER_FEATURE
100
AcDbCircle
 62
7
  6
CONTINUOUS
 10
7.2422243193
 20
5.3459532301
 40
0.0158333333
100
AcDbArc
 50
192.9439872503
 51
270.0
  0
ARC
  5
2AB
100
AcDbEntity
  8
0
100
AcDbCircle
 62
7
  6
CONTINUOUS
 10
4.7373672762
 20
5.6951198968
 40
0.015
100
AcDbArc
 50
90.0
 51
180.0
  0
ARC
  5
2AC
100
AcDbEntity
  8
0
100
AcDbCircle
 62
7
  6
CONTINUOUS
 10
7.5233672762
 20
5.6951198968
 40
0.015
100
AcDbArc
 50
0.0
 51
90.0
  0
SPLINE
  5
2AD
100
AcDbEntity
  8
0
100
AcDbSpline
 62
7
  6
CONTINUOUS
 70
0
 71
3
 72
15
 73
11
 74
0
 42
0.0000001
 43
0.0000001
 44
0.0000000001
 40
0.0
 40
0.0
 40
0.0
 40
0.0
 40
0.1294194749
 40
0.2645259711
 40
0.4013054267
 40
0.536266702
 40
0.6661526755
 40
0.7881317984
 40
0.8999158518
 40
1.0
 40
1.0
 40
1.0
 40
1.0
 10
17.2117733816
 20
14.1955647061
 30
0.0
 10
17.2127012557
 20
14.1955647061
 30
0.0
 10
17.2145991144
 20
14.1954344664
 30
0.0
 10
17.2174332362
 20
14.1949060327
 30
0.0
 10
17.2202275934
 20
14.1940480424
 30
0.0
 10
17.2228753449
 20
14.1929005628
 30
0.0
 10
17.2252780221
 20
14.1915018494
 30
0.0
 10
17.2273508525
 20
14.1899057681
 30
0.0
 10
17.2290088646
 20
14.1881662024
 30
0.0
 10
17.2298488112
 20
14.1868847278
 30
0.0
 10
17.2301649245
 20
14.1862405566
 30
0.0
  0
SPLINE
  5
2AE
100
AcDbEntity
  8
0
100
AcDbSpline
 62
7
  6
CONTINUOUS
 70
0
 71
3
 72
10
 73
6
 74
0
 42
0.0000001
 43
0.0000001
 44
0.0000000001
 40
0.0
 40
0.0
 40
0.0
 40
0.0
 40
0.2343699078
 40
0.47617175
 40
1.0
 40
1.0
 40
1.0
 40
1.0
 10
13.6676765266
 20
11.057361595
 30
0.0
 10
13.667571311
 20
11.0570218359
 30
0.0
 10
13.6674334143
 20
11.0563053482
 30
0.0
 10
13.6674703152
 20
11.0547796577
 30
0.0
 10
13.6678416592
 20
11.0536465763
 30
0.0
 10
13.6681918717
 20
11.0529329181
 30
0.0
  0
SPLINE
  5
2AF
100
AcDbEntity
  8
0
100
AcDbSpline
 62
7
  6
CONTINUOUS
 70
0
 71
3
 72
13
 73
9
 74
0
 42
0.0000001
 43
0.0000001
 44
0.0000000001
 40
0.0
 40
0.0
 40
0.0
 40
0.0
 40
0.0997898057
 40
0.2030553308
 40
0.3128365288
 40
0.4312290243
 40
0.6971748312
 40
1.0
 40
1.0
 40
1.0
 40
1.0
 10
14.6359418203
 20
14.1906692335
 30
0.0
 10
14.6360561678
 20
14.191038481
 30
0.0
 10
14.6363799567
 20
14.1917645602
 30
0.0
 10
14.637116642
 20
14.1927382815
 30
0.0
 10
14.6380915859
 20
14.1935860283
 30
0.0
 10
14.6397422398
 20
14.1945713262
 30
0.0
 10
14.6423150118
 20
14.1953771948
 30
0.0
 10
14.6445244232
 20
14.1955647061
 30
0.0
 10
14.6456974523
 20
14.1955647061
 30
0.0
  0
SPLINE
  5
2B0
100
AcDbEntity
  8
LAYER_FEATURE
100
AcDbSpline
 62
7
  6
CONTINUOUS
 70
0
 71
3
 72
13
 73
9
 74
0
 42
0.0000001
 43
0.0000001
 44
0.0000000001
 40
0.0
 40
0.0
 40
0.0
 40
0.0
 40
0.3029824579
 40
0.5686811241
 40
0.6870434127
 40
0.7968163219
 40
0.9001396708
 40
1.0
 40
1.0
 40
1.0
 40
1.0
 10
16.2960024606
 20
10.8260452797
 30
0.0
 10
16.2972413266
 20
10.8260452797
 30
0.0
 10
16.2995735436
 20
10.8262416851
 30
0.0
 10
16.3022878561
 20
10.8270943936
 30
0.0
 10
16.3040301816
 20
10.8281324407
 30
0.0
 10
16.3050584853
 20
10.8290282576
 30
0.0
 10
16.305838071
 20
10.8300551745
 30
0.0
 10
16.3061794541
 20
10.8308226074
 30
0.0
 10
16.3062995833
 20
10.8312128555
 30
0.0
  0
SPLINE
  5
2B1
100
AcDbEntity
  8
LAYER_FEATURE
100
AcDbSpline
 62
7
  6
CONTINUOUS
 70
0
 71
3
 72
15
 73
11
 74
0
 42
0.0000001
 43
0.0000001
 44
0.0000000001
 40
0.0
 40
0.0
 40
0.0
 40
0.0
 40
0.1088696127
 40
0.2265546641
 40
0.351141866
 40
0.4805762354
 40
0.6126319909
 40
0.744930951
 40
0.8749910429
 40
1.0
 40
1.0
 40
1.0
 40
1.0
 10
16.0825133377
 20
10.8336828099
 30
0.0
 10
16.0829788351
 20
10.8331228392
 30
0.0
 10
16.08404277
 20
10.8320352949
 30
0.0
 10
16.0858903658
 20
10.8305769038
 30
0.0
 10
16.0880098912
 20
10.8292677614
 30
0.0
 10
16.0903383599
 20
10.8281414773
 30
0.0
 10
16.0928139922
 20
10.8272304485
 30
0.0
 10
16.0953690407
 20
10.8265572442
 30
0.0
 10
16.097931008
 20
10.8261450401
 30
0.0
 10
16.0996380501
 20
10.8260452797
 30
0.0
 10
16.100474186
 20
10.8260452797
 30
0.0
  0
SPLINE
  5
2B2
100
AcDbEntity
  8
LAYER_FEATURE
100
AcDbSpline
 62
7
  6
CONTINUOUS
 70
0
 71
3
 72
13
 73
9
 74
0
 42
0.0000001
 43
0.0000001
 44
0.0000000001
 40
0.0
 40
0.0
 40
0.0
 40
0.0
 40
0.3029824579
 40
0.5686811241
 40
0.6870434127
 40
0.7968163219
 40
0.9001396708
 40
1.0
 40
1.0
 40
1.0
 40
1.0
 10
15.9220516971
 20
10.8260452797
 30
0.0
 10
15.923290563
 20
10.8260452797
 30
0.0
 10
15.92562278
 20
10.8262416851
 30
0.0
 10
15.9283370926
 20
10.8270943936
 30
0.0
 10
15.9300794181
 20
10.8281324407
 30
0.0
 10
15.9311077218
 20
10.8290282576
 30
0.0
 10
15.9318873074
 20
10.8300551745
 30
0.0
 10
15.9322286906
 20
10.8308226074
 30
0.0
 10
15.9323488197
 20
10.8312128555
 30
0.0
  0
SPLINE
  5
2B3
100
AcDbEntity
  8
LAYER_FEATURE
100
AcDbSpline
 62
7
  6
CONTINUOUS
 70
0
 71
3
 72
15
 73
11
 74
0
 42
0.0000001
 43
0.0000001
 44
0.0000000001
 40
0.0
 40
0.0
 40
0.0
 40
0.0
 40
0.1088696127
 40
0.2265546641
 40
0.351141866
 40
0.4805762354
 40
0.6126319909
 40
0.744930951
 40
0.8749910429
 40
1.0
 40
1.0
 40
1.0
 40
1.0
 10
15.7085625742
 20
10.8336828099
 30
0.0
 10
15.7090280715
 20
10.8331228392
 30
0.0
 10
15.7100920064
 20
10.8320352949
 30
0.0
 10
15.7119396023
 20
10.8305769038
 30
0.0
 10
15.7140591276
 20
10.8292677614
 30
0.0
 10
15.7163875964
 20
10.8281414773
 30
0.0
 10
15.7188632286
 20
10.8272304485
 30
0.0
 10
15.7214182772
 20
10.8265572442
 30
0.0
 10
15.7239802445
 20
10.8261450401
 30
0.0
 10
15.7256872866
 20
10.8260452797
 30
0.0
 10
15.7265234224
 20
10.8260452797
 30
0.0
  0
SPLINE
  5
2B4
100
AcDbEntity
  8
LAYER_FEATURE
100
AcDbSpline
 62
7
  6
CONTINUOUS
 70
0
 71
3
 72
13
 73
9
 74
0
 42
0.0000001
 43
0.0000001
 44
0.0000000001
 40
0.0
 40
0.0
 40
0.0
 40
0.0
 40
0.3029824579
 40
0.5686811241
 40
0.6870434127
 40
0.7968163219
 40
0.9001396708
 40
1.0
 40
1.0
 40
1.0
 40
1.0
 10
15.5481009335
 20
10.8260452797
 30
0.0
 10
15.5493397994
 20
10.8260452797
 30
0.0
 10
15.5516720165
 20
10.8262416851
 30
0.0
 10
15.554386329
 20
10.8270943936
 30
0.0
 10
15.5561286545
 20
10.8281324407
 30
0.0
 10
15.5571569582
 20
10.8290282576
 30
0.0
 10
15.5579365438
 20
10.8300551745
 30
0.0
 10
15.558277927
 20
10.8308226074
 30
0.0
 10
15.5583980562
 20
10.8312128555
 30
0.0
  0
SPLINE
  5
2B5
100
AcDbEntity
  8
LAYER_FEATURE
100
AcDbSpline
 62
7
  6
CONTINUOUS
 70
0
 71
3
 72
15
 73
11
 74
0
 42
0.0000001
 43
0.0000001
 44
0.0000000001
 40
0.0
 40
0.0
 40
0.0
 40
0.0
 40
0.1088696127
 40
0.2265546641
 40
0.351141866
 40
0.4805762354
 40
0.6126319909
 40
0.744930951
 40
0.8749910429
 40
1.0
 40
1.0
 40
1.0
 40
1.0
 10
15.3346118106
 20
10.8336828099
 30
0.0
 10
15.335077308
 20
10.8331228392
 30
0.0
 10
15.3361412429
 20
10.8320352949
 30
0.0
 10
15.3379888387
 20
10.8305769038
 30
0.0
 10
15.3401083641
 20
10.8292677614
 30
0.0
 10
15.3424368328
 20
10.8281414773
 30
0.0
 10
15.3449124651
 20
10.8272304485
 30
0.0
 10
15.3474675136
 20
10.8265572442
 30
0.0
 10
15.3500294809
 20
10.8261450401
 30
0.0
 10
15.351736523
 20
10.8260452797
 30
0.0
 10
15.3525726589
 20
10.8260452797
 30
0.0
  0
SPLINE
  5
2B6
100
AcDbEntity
  8
LAYER_FEATURE
100
AcDbSpline
 62
7
  6
CONTINUOUS
 70
0
 71
3
 72
13
 73
9
 74
0
 42
0.0000001
 43
0.0000001
 44
0.0000000001
 40
0.0
 40
0.0
 40
0.0
 40
0.0
 40
0.3029825822
 40
0.5686813506
 40
0.687043556
 40
0.7968166366
 40
0.9001401413
 40
1.0
 40
1.0
 40
1.0
 40
1.0
 10
15.1741501699
 20
10.8260452797
 30
0.0
 10
15.1753890363
 20
10.8260452797
 30
0.0
 10
15.1777212532
 20
10.8262416891
 30
0.0
 10
15.1804355684
 20
10.8270943913
 30
0.0
 10
15.1821778931
 20
10.8281324415
 30
0.0
 10
15.1832061944
 20
10.829028263
 30
0.0
 10
15.1839857768
 20
10.8300551801
 30
0.0
 10
15.1843271672
 20
10.8308226082
 30
0.0
 10
15.1844472971
 20
10.8312128541
 30
0.0
  0
SPLINE
  5
2B7
100
AcDbEntity
  8
LAYER_FEATURE
100
AcDbSpline
 62
7
  6
CONTINUOUS
 70
0
 71
3
 72
15
 73
11
 74
0
 42
0.0000001
 43
0.0000001
 44
0.0000000001
 40
0.0
 40
0.0
 40
0.0
 40
0.0
 40
0.1088696127
 40
0.2265546641
 40
0.351141866
 40
0.4805762354
 40
0.6126319909
 40
0.744930951
 40
0.8749910429
 40
1.0
 40
1.0
 40
1.0
 40
1.0
 10
14.960661047
 20
10.8336828099
 30
0.0
 10
14.9611265444
 20
10.8331228392
 30
0.0
 10
14.9621904793
 20
10.8320352949
 30
0.0
 10
14.9640380751
 20
10.8305769038
 30
0.0
 10
14.9661576005
 20
10.8292677614
 30
0.0
 10
14.9684860692
 20
10.8281414773
 30
0.0
 10
14.9709617015
 20
10.8272304485
 30
0.0
 10
14.97351675
 20
10.8265572442
 30
0.0
 10
14.9760787174
 20
10.8261450401
 30
0.0
 10
14.9777857595
 20
10.8260452797
 30
0.0
 10
14.9786218953
 20
10.8260452797
 30
0.0
  0
SPLINE
  5
2B8
100
AcDbEntity
  8
LAYER_FEATURE
100
AcDbSpline
 62
7
  6
CONTINUOUS
 70
0
 71
3
 72
13
 73
9
 74
0
 42
0.0000001
 43
0.0000001
 44
0.0000000001
 40
0.0
 40
0.0
 40
0.0
 40
0.0
 40
0.3029824579
 40
0.5686811241
 40
0.6870434127
 40
0.7968163219
 40
0.9001396708
 40
1.0
 40
1.0
 40
1.0
 40
1.0
 10
14.8001994064
 20
10.8260452797
 30
0.0
 10
14.8014382723
 20
10.8260452797
 30
0.0
 10
14.8037704893
 20
10.8262416851
 30
0.0
 10
14.8064848019
 20
10.8270943936
 30
0.0
 10
14.8082271274
 20
10.8281324407
 30
0.0
 10
14.8092554311
 20
10.8290282576
 30
0.0
 10
14.8100350167
 20
10.8300551745
 30
0.0
 10
14.8103763999
 20
10.8308226074
 30
0.0
 10
14.8104965291
 20
10.8312128555
 30
0.0
  0
SPLINE
  5
2B9
100
AcDbEntity
  8
LAYER_FEATURE
100
AcDbSpline
 62
7
  6
CONTINUOUS
 70
0
 71
3
 72
15
 73
11
 74
0
 42
0.0000001
 43
0.0000001
 44
0.0000000001
 40
0.0
 40
0.0
 40
0.0
 40
0.0
 40
0.1088696127
 40
0.2265546641
 40
0.351141866
 40
0.4805762354
 40
0.6126319909
 40
0.744930951
 40
0.8749910429
 40
1.0
 40
1.0
 40
1.0
 40
1.0
 10
14.5867102835
 20
10.8336828099
 30
0.0
 10
14.5871757808
 20
10.8331228392
 30
0.0
 10
14.5882397157
 20
10.8320352949
 30
0.0
 10
14.5900873116
 20
10.8305769038
 30
0.0
 10
14.5922068369
 20
10.8292677614
 30
0.0
 10
14.5945353057
 20
10.8281414773
 30
0.0
 10
14.5970109379
 20
10.8272304485
 30
0.0
 10
14.5995659865
 20
10.8265572442
 30
0.0
 10
14.6021279538
 20
10.8261450401
 30
0.0
 10
14.6038349959
 20
10.8260452797
 30
0.0
 10
14.6046711317
 20
10.8260452797
 30
0.0
  0
SPLINE
  5
2BA
100
AcDbEntity
  8
LAYER_FEATURE
100
AcDbSpline
 62
7
  6
CONTINUOUS
 70
0
 71
3
 72
13
 73
9
 74
0
 42
0.0000001
 43
0.0000001
 44
0.0000000001
 40
0.0
 40
0.0
 40
0.0
 40
0.0
 40
0.3029824579
 40
0.5686811241
 40
0.6870434127
 40
0.7968163219
 40
0.9001396708
 40
1.0
 40
1.0
 40
1.0
 40
1.0
 10
14.4262486428
 20
10.8260452797
 30
0.0
 10
14.4274875088
 20
10.8260452797
 30
0.0
 10
14.4298197258
 20
10.8262416851
 30
0.0
 10
14.4325340383
 20
10.8270943936
 30
0.0
 10
14.4342763638
 20
10.8281324407
 30
0.0
 10
14.4353046675
 20
10.8290282576
 30
0.0
 10
14.4360842531
 20
10.8300551745
 30
0.0
 10
14.4364256363
 20
10.8308226074
 30
0.0
 10
14.4365457655
 20
10.8312128555
 30
0.0
  0
SPLINE
  5
2BB
100
AcDbEntity
  8
LAYER_FEATURE
100
AcDbSpline
 62
7
  6
CONTINUOUS
 70
0
 71
3
 72
15
 73
11
 74
0
 42
0.0000001
 43
0.0000001
 44
0.0000000001
 40
0.0
 40
0.0
 40
0.0
 40
0.0
 40
0.1088696127
 40
0.2265546641
 40
0.351141866
 40
0.4805762354
 40
0.6126319909
 40
0.744930951
 40
0.8749910429
 40
1.0
 40
1.0
 40
1.0
 40
1.0
 10
14.2127595199
 20
10.8336828099
 30
0.0
 10
14.2132250173
 20
10.8331228392
 30
0.0
 10
14.2142889522
 20
10.8320352949
 30
0.0
 10
14.216136548
 20
10.8305769038
 30
0.0
 10
14.2182560734
 20
10.8292677614
 30
0.0
 10
14.2205845421
 20
10.8281414773
 30
0.0
 10
14.2230601744
 20
10.8272304485
 30
0.0
 10
14.2256152229
 20
10.8265572442
 30
0.0
 10
14.2281771902
 20
10.8261450401
 30
0.0
 10
14.2298842323
 20
10.8260452797
 30
0.0
 10
14.2307203682
 20
10.8260452797
 30
0.0
  0
SPLINE
  5
2BC
100
AcDbEntity
  8
0
100
AcDbSpline
 62
7
  6
CONTINUOUS
 70
0
 71
3
 72
13
 73
9
 74
0
 42
0.0000001
 43
0.0000001
 44
0.0000000001
 40
0.0
 40
0.0
 40
0.0
 40
0.0
 40
0.3029824579
 40
0.5686811241
 40
0.6870434127
 40
0.7968163219
 40
0.9001396708
 40
1.0
 40
1.0
 40
1.0
 40
1.0
 10
14.0522978792
 20
10.8260452797
 30
0.0
 10
14.0535367452
 20
10.8260452797
 30
0.0
 10
14.0558689622
 20
10.8262416851
 30
0.0
 10
14.0585832747
 20
10.8270943936
 30
0.0
 10
14.0603256002
 20
10.8281324407
 30
0.0
 10
14.0613539039
 20
10.8290282576
 30
0.0
 10
14.0621334896
 20
10.8300551745
 30
0.0
 10
14.0624748727
 20
10.8308226074
 30
0.0
 10
14.0625950019
 20
10.8312128555
 30
0.0
  0
SPLINE
  5
2BD
100
AcDbEntity
  8
0
100
AcDbSpline
 62
7
  6
CONTINUOUS
 70
0
 71
3
 72
15
 73
11
 74
0
 42
0.0000001
 43
0.0000001
 44
0.0000000001
 40
0.0
 40
0.0
 40
0.0
 40
0.0
 40
0.1088696127
 40
0.2265546641
 40
0.351141866
 40
0.4805762354
 40
0.6126319909
 40
0.744930951
 40
0.8749910429
 40
1.0
 40
1.0
 40
1.0
 40
1.0
 10
13.8388087564
 20
10.8336828099
 30
0.0
 10
13.8392742537
 20
10.8331228392
 30
0.0
 10
13.8403381886
 20
10.8320352949
 30
0.0
 10
13.8421857844
 20
10.8305769038
 30
0.0
 10
13.8443053098
 20
10.8292677614
 30
0.0
 10
13.8466337785
 20
10.8281414773
 30
0.0
 10
13.8491094108
 20
10.8272304485
 30
0.0
 10
13.8516644593
 20
10.8265572442
 30
0.0
 10
13.8542264267
 20
10.8261450401
 30
0.0
 10
13.8559334688
 20
10.8260452797
 30
0.0
 10
13.8567696046
 20
10.8260452797
 30
0.0
  0
SPLINE
  5
2BE
100
AcDbEntity
  8
0
100
AcDbSpline
 62
7
  6
CONTINUOUS
 70
0
 71
3
 72
13
 73
9
 74
0
 42
0.0000001
 43
0.0000001
 44
0.0000000001
 40
0.0
 40
0.0
 40
0.0
 40
0.0
 40
0.3028251688
 40
0.5687709757
 40
0.6871634712
 40
0.7969446692
 40
0.9002101943
 40
1.0
 40
1.0
 40
1.0
 40
1.0
 10
13.6774321587
 20
11.0622570676
 30
0.0
 10
13.6762591296
 20
11.0622570676
 30
0.0
 10
13.6740497182
 20
11.0620695563
 30
0.0
 10
13.6714769462
 20
11.0612636877
 30
0.0
 10
13.6698262922
 20
11.0602783898
 30
0.0
 10
13.6688513484
 20
11.059430643
 30
0.0
 10
13.6681146631
 20
11.0584569217
 30
0.0
 10
13.6677908742
 20
11.0577308425
 30
0.0
 10
13.6676765266
 20
11.057361595
 30
0.0
  0
SPLINE
  5
2BF
100
AcDbEntity
  8
0
100
AcDbSpline
 62
7
  6
CONTINUOUS
 70
0
 71
3
 72
15
 73
11
 74
0
 42
0.0000001
 43
0.0000001
 44
0.0000000001
 40
0.0
 40
0.0
 40
0.0
 40
0.0
 40
0.1000841482
 40
0.2118682016
 40
0.3338473245
 40
0.463733298
 40
0.5986945733
 40
0.7354740289
 40
0.8705805251
 40
1.0
 40
1.0
 40
1.0
 40
1.0
 10
16.2618996309
 20
11.0529329181
 30
0.0
 10
16.2615835176
 20
11.0535770893
 30
0.0
 10
16.2607435709
 20
11.0548585639
 30
0.0
 10
16.2590855589
 20
11.0565981296
 30
0.0
 10
16.2570127285
 20
11.0581942109
 30
0.0
 10
16.2546100513
 20
11.0595929243
 30
0.0
 10
16.2519622998
 20
11.0607404039
 30
0.0
 10
16.2491679426
 20
11.0615983942
 30
0.0
 10
16.2463338208
 20
11.0621268279
 30
0.0
 10
16.2444359621
 20
11.0622570676
 30
0.0
 10
16.2435080879
 20
11.0622570676
 30
0.0
  0
ENDSEC
  0
SECTION
  2
OBJECTS
  0
DICTIONARY
  5
C
100
AcDbDictionary
280
0
281
1
  3
ACAD_GROUP
350
D
  3
ACAD_MLINESTYLE
350
17
  3
ACAD_LAYOUT
350
1A
  3
ACAD_PLOTSETTINGS
350
19
  3
ACAD_PLOTSTYLENAME
350
E
  0
DICTIONARY
  5
D
102
{ACAD_REACTORS
330
C
102
}
100
AcDbDictionary
280
0
281
1
  0
ACDBDICTIONARYWDFLT
  5
E
102
{ACAD_REACTORS
330
C
102
}
100
AcDbDictionary
281
1
  3
Normal
350
F
100
AcDbDictionaryWithDefault
340
F
  0
DICTIONARY
  5
17
102
{ACAD_REACTORS
330
C
102
}
100
AcDbDictionary
280
0
281
1
  3
Standard
350
18
  0
DICTIONARY
  5
19
102
{ACAD_REACTORS
330
C
102
}
100
AcDbDictionary
281
1
  0
DICTIONARY
  5
1A
102
{ACAD_REACTORS
330
C
102
}
100
AcDbDictionary
281
1
  3
Model
350
2C0
  3
Layout1
350
2C1
  0
ACDBPLACEHOLDER
  5
F
102
{ACAD_REACTORS
330
E
102
}
  0
MLINESTYLE
  5
18
102
{ACAD_REACTORS
330
17
102
}
100
AcDbMlineStyle
  2
STANDARD
 70
0
  3

 62
256
 51
90.0
 52
90.0
 71
2
 49
0.5
 62
256
  6
BYLAYER
 49
-0.5
 62
256
  6
BYLAYER
  0
LAYOUT
  5
2C0
102
{ACAD_REACTORS
330
1A
102
}
100
AcDbPlotSettings
  1

  2
none_device
  4
ANSI_C_(22.00_x_17.00_Inches)
  6

 40
0.0
 41
0.0
 42
0.0
 43
0.0
 44
558.8
 45
431.8
 46
0.0
 47
0.0
 48
0.0
 49
0.0
140
0.0
141
0.0
142
1.0
143
1.0
 70
1024
 72
0
 73
0
 74
0
  7

 75
0
147
1.0
148
0.0
149
0.0
100
AcDbLayout
  1
Model
 70
0
 71
0
 10
0.0
 20
0.0
 11
22.0
 21
17.0
 12
0.0
 22
0.0
 32
0.0
 14
0.0
 24
0.0
 34
0.0
 15
0.0
 25
0.0
 35
0.0
146
0.0
 13
0.0
 23
0.0
 33
0.0
 16
1.0
 26
0.0
 36
0.0
 17
0.0
 27
1.0
 37
0.0
 76
0
330
21C
345
0
346
0
  0
LAYOUT
  5
2C1
102
{ACAD_REACTORS
330
1A
102
}
100
AcDbPlotSettings
  1

  2
none_device
  4
ANSI_C_(22.00_x_17.00_Inches)
  6

 40
0.0
 41
0.0
 42
0.0
 43
0.0
 44
558.8
 45
431.8
 46
0.0
 47
0.0
 48
0.0
 49
0.0
140
0.0
141
0.0
142
1.0
143
1.0
 70
0
 72
0
 73
0
 74
0
  7

 75
0
147
1.0
148
0.0
149
0.0
100
AcDbLayout
  1
Layout1
 70
0
 71
1
 10
0.0
 20
0.0
 11
22.0
 21
17.0
 12
0.0
 22
0.0
 32
0.0
 14
0.0
 24
0.0
 34
0.0
 15
0.0
 25
0.0
 35
0.0
146
0.0
 13
0.0
 23
0.0
 33
0.0
 16
1.0
 26
0.0
 36
0.0
 17
0.0
 27
1.0
 37
0.0
 76
0
330
21D
345
0
346
0
  0
ENDSEC
  0
EOF