999
DXF file: _cgs_temp_output.dxf
999
Pro/ENGINEER 2015110 by Parametric Technology Corporation
  0
SECTION
  2
HEADER
  9
$ACADVER
  1
AC1021
  9
$DWGCODEPAGE
  3
ANSI_1252
  9
$EXTMAX
 10
22.0
 20
17.0
 30
0.0
  9
$EXTMIN
 10
0.0
 20
0.0
 30
0.0
  9
$LIMMIN
 10
0.0
 20
0.0
  9
$LIMMAX
 10
22.0
 20
17.0
  9
$VIEWCTR
 10
11.0
 20
8.5
  9
$VIEWSIZE
 40
17.0
  9
$CLAYER
  8
0
  9
$LTSCALE
 40
1.21
  9
$CELTYPE
  6
BYLAYER
  9
$DIMSCALE
 40
1.0
  9
$DIMASZ
 40
0.1875
  9
$DIMEXO
 40
0.0625
  9
$DIMDLI
 40
0.836
  9
$DIMEXE
 40
0.125
  9
$DIMCEN
 40
0.198
  9
$DIMLFAC
 40
1.0
  9
$DIMBLK
  1
_CLOSED
  9
$DIMALT
 70
0
  9
$DIMALTF
 40
25.4
  9
$DIMTXT
 40
0.15625
  9
$DIMTOL
 70
0
  9
$DIMLIM
 70
0
  9
$DIMTFAC
 40
1.0
  9
$DIMGAP
 40
0.09
  9
$DIMDSEP
 70
46
  9
$AUNITS
 70
0
  9
$PDMODE
 70
3
  9
$PDSIZE
 40
0.3125
  9
$HANDSEED
  5
2C2
  9
$TILEMODE
 70
1
  9
$MEASUREMENT
 70
0
  9
$INSUNITS
 70
1
  0
ENDSEC
  0
SECTION
  2
CLASSES
  0
CLASS
  1
ACDBDICTIONARYWDFLT
  2
AcDbDictionaryWithDefault
  3
AutoCAD 2000
 90
0
 91
1
280
0
281
0
  0
CLASS
  1
ACDBPLACEHOLDER
  2
AcDbPlaceHolder
  3
AutoCAD 2000
 90
0
 91
1
280
0
281
0
  0
CLASS
  1
LAYOUT
  2
AcDbLayout
  3
AutoCAD 2000
 90
0
 91
0
280
0
281
0
  0
ENDSEC
  0
SECTION
  2
TABLES
  0
TABLE
  2
VPORT
  5
8
100
AcDbSymbolTable
 70
2
  0
VPORT
  5
1F4
100
AcDbSymbolTableRecord
100
AcDbViewportTableRecord
  2
*ACTIVE
 70
0
 10
0.0
 20
0.0
 11
1.0
 21
1.0
 12
11.0
 22
8.5
 13
0.0
 23
0.0
 14
1.0
 24
1.0
 15
0.0
 25
0.0
 16
0.0
 26
0.0
 36
1.0
 17
0.0
 27
0.0
 37
0.0
 40
17.0
 41
1.2941176471
 42
50.0
 43
0.0
 44
0.0
 50
0.0
 51
0.0
 71
0
 72
100
 73
1
 74
1
 75
0
 76
0
 77
0
 78
0
  0
ENDTAB
  0
TABLE
  2
LTYPE
  5
5
100
AcDbSymbolTable
 70
6
  0
LTYPE
  5
14
100
AcDbSymbolTableRecord
100
AcDbLinetypeTableRecord
  2
BYBLOCK
 70
0
  3

 72
65
 73
0
 40
0.0
  0
LTYPE
  5
15
100
AcDbSymbolTableRecord
100
AcDbLinetypeTableRecord
  2
BYLAYER
 70
0
  3

 72
65
 73
0
 40
0.0
  0
LTYPE
  5
16
100
AcDbSymbolTableRecord
100
AcDbLinetypeTableRecord
  2
CONTINUOUS
 70
64
  3
Solid line
 72
65
 73
0
 40
0.0
  0
LTYPE
  5
1F5
100
AcDbSymbolTableRecord
100
AcDbLinetypeTableRecord
  2
CENTER
 70
64
  3
____ _ ____ _ ____ _ ____ _ ____ _ ____ _ ____
 72
65
 73
4
 40
0.6
 49
0.375
 74
0
 49
-0.075
 74
0
 49
0.075
 74
0
 49
-0.075
 74
0
  0
LTYPE
  5
1F6
100
AcDbSymbolTableRecord
100
AcDbLinetypeTableRecord
  2
HIDDEN
 70
64
  3
- - - - - - - - - - - - - - - - - - - -
 72
65
 73
2
 40
0.2
 49
0.1
 74
0
 49
-0.1
 74
0
  0
LTYPE
  5
1F7
100
AcDbSymbolTableRecord
100
AcDbLinetypeTableRecord
  2
PHANTOM
 70
64
  3
_____ _ _ _____ _ _ _____ _ _ _____
 72
65
 73
6
 40
0.8
 49
0.45
 74
0
 49
-0.05
 74
0
 49
0.1
 74
0
 49
-0.05
 74
0
 49
0.1
 74
0
 49
-0.05
 74
0
  0
LTYPE
  5
1F8
100
AcDbSymbolTableRecord
100
AcDbLinetypeTableRecord
  2
DOT
 70
64
  3
. . . . . . . . . . . . . . . . . . . .
 72
65
 73
2
 40
0.2
 49
0.1
 74
0
 49
-0.1
 74
0
  0
LTYPE
  5
1F9
100
AcDbSymbolTableRecord
100
AcDbLinetypeTableRecord
  2
DASHED
 70
64
  3
- - - - - - - - - - - - - - - - - - - -
 72
65
 73
2
 40
0.2
 49
0.1
 74
0
 49
-0.1
 74
0
  0
ENDTAB
  0
TABLE
  2
LAYER
  5
2
100
AcDbSymbolTable
 70
36
  0
LAYER
  5
10
100
AcDbSymbolTableRecord
100
AcDbLayerTableRecord
  2
0
 70
0
 62
7
  6
CONTINUOUS
370
-3
390
F
  0
LAYER
  5
1FA
100
AcDbSymbolTableRecord
100
AcDbLayerTableRecord
  2
DEFAULT_1
 70
0
 62
7
  6
CENTER
370
-3
390
F
  0
LAYER
  5
1FB
100
AcDbSymbolTableRecord
100
AcDbLayerTableRecord
  2
DEFAULT_2
 70
0
 62
8
  6
HIDDEN
370
-3
390
F
  0
LAYER
  5
1FC
100
AcDbSymbolTableRecord
100
AcDbLayerTableRecord
  2
DEFAULT_3
 70
0
 62
7
  6
PHANTOM
370
-3
390
F
  0
LAYER
  5
1FD
100
AcDbSymbolTableRecord
100
AcDbLayerTableRecord
  2
01_ALL_DTM_PLN
 70
0
 62
7
  6
CONTINUOUS
370
-3
390
F
  0
LAYER
  5
1FE
100
AcDbSymbolTableRecord
100
AcDbLayerTableRecord
  2
01__ASM_ALL_DTM_PLN
 70
0
 62
7
  6
CONTINUOUS
370
-3
390
F
  0
LAYER
  5
1FF
100
AcDbSymbolTableRecord
100
AcDbLayerTableRecord
  2
01__ASM_DEF_DTM_PLN
 70
0
 62
7
  6
CONTINUOUS
370
-3
390
F
  0
LAYER
  5
200
100
AcDbSymbolTableRecord
100
AcDbLayerTableRecord
  2
01___PRT_ALL_DTM_PLN
 70
0
 62
7
  6
CONTINUOUS
370
-3
390
F
  0
LAYER
  5
201
100
AcDbSymbolTableRecord
100
AcDbLayerTableRecord
  2
01___PRT_DEF_DTM_PLN
 70
0
 62
7
  6
CONTINUOUS
370
-3
390
F
  0
LAYER
  5
202
100
AcDbSymbolTableRecord
100
AcDbLayerTableRecord
  2
02_ALL_AXES
 70
0
 62
7
  6
CONTINUOUS
370
-3
390
F
  0
LAYER
  5
203
100
AcDbSymbolTableRecord
100
AcDbLayerTableRecord
  2
02__ASM_ALL_AXES
 70
0
 62
7
  6
CONTINUOUS
370
-3
390
F
  0
LAYER
  5
204
100
AcDbSymbolTableRecord
100
AcDbLayerTableRecord
  2
02___PRT_ALL_AXES
 70
0
 62
7
  6
CONTINUOUS
370
-3
390
F
  0
LAYER
  5
205
100
AcDbSymbolTableRecord
100
AcDbLayerTableRecord
  2
03_ALL_CURVES
 70
0
 62
7
  6
CONTINUOUS
370
-3
390
F
  0
LAYER
  5
206
100
AcDbSymbolTableRecord
100
AcDbLayerTableRecord
  2
03__ASM_ALL_CURVES
 70
0
 62
7
  6
CONTINUOUS
370
-3
390
F
  0
LAYER
  5
207
100
AcDbSymbolTableRecord
100
AcDbLayerTableRecord
  2
03___PRT_ALL_CURVES
 70
0
 62
7
  6
CONTINUOUS
370
-3
390
F
  0
LAYER
  5
208
100
AcDbSymbolTableRecord
100
AcDbLayerTableRecord
  2
04_ALL_DTM_PNT
 70
0
 62
7
  6
CONTINUOUS
370
-3
390
F
  0
LAYER
  5
209
100
AcDbSymbolTableRecord
100
AcDbLayerTableRecord
  2
04__ASM_ALL_DTM_PNT
 70
0
 62
7
  6
CONTINUOUS
370
-3
390
F
  0
LAYER
  5
20A
100
AcDbSymbolTableRecord
100
AcDbLayerTableRecord
  2
04___PRT_ALL_DTM_PNT
 70
0
 62
7
  6
CONTINUOUS
370
-3
390
F
  0
LAYER
  5
20B
100
AcDbSymbolTableRecord
100
AcDbLayerTableRecord
  2
05_ALL_DTM_CSYS
 70
0
 62
7
  6
CONTINUOUS
370
-3
390
F
  0
LAYER
  5
20C
100
AcDbSymbolTableRecord
100
AcDbLayerTableRecord
  2
05__ASM_ALL_DTM_CSYS
 70
0
 62
7
  6
CONTINUOUS
370
-3
390
F
  0
LAYER
  5
20D
100
AcDbSymbolTableRecord
100
AcDbLayerTableRecord
  2
05__ASM_DEF_DTM_CSYS
 70
0
 62
7
  6
CONTINUOUS
370
-3
390
F
  0
LAYER
  5
20E
100
AcDbSymbolTableRecord
100
AcDbLayerTableRecord
  2
05___PRT_ALL_DTM_CSYS
 70
0
 62
7
  6
CONTINUOUS
370
-3
390
F
  0
LAYER
  5
20F
100
AcDbSymbolTableRecord
100
AcDbLayerTableRecord
  2
05___PRT_DEF_DTM_CSYS
 70
0
 62
7
  6
CONTINUOUS
370
-3
390
F
  0
LAYER
  5
210
100
AcDbSymbolTableRecord
100
AcDbLayerTableRecord
  2
06_ALL_SURFS
 70
0
 62
7
  6
CONTINUOUS
370
-3
390
F
  0
LAYER
  5
211
100
AcDbSymbolTableRecord
100
AcDbLayerTableRecord
  2
06__ASM_ALL_SURFS
 70
0
 62
7
  6
CONTINUOUS
370
-3
390
F
  0
LAYER
  5
212
100
AcDbSymbolTableRecord
100
AcDbLayerTableRecord
  2
06___PRT_ALL_SURFS
 70
0
 62
7
  6
CONTINUOUS
370
-3
390
F
  0
LAYER
  5
213
100
AcDbSymbolTableRecord
100
AcDbLayerTableRecord
  2
07__ASM_ALL_SKELETONS
 70
0
 62
7
  6
CONTINUOUS
370
-3
390
F
  0
LAYER
  5
214
100
AcDbSymbolTableRecord
100
AcDbLayerTableRecord
  2
LAYER_DIM
 70
0
 62
7
  6
CONTINUOUS
370
-3
390
F
  0
LAYER
  5
215
100
AcDbSymbolTableRecord
100
AcDbLayerTableRecord
  2
LAYER_FEATURE
 70
0
 62
7
  6
CONTINUOUS
370
-3
390
F
  0
LAYER
  5
216
100
AcDbSymbolTableRecord
100
AcDbLayerTableRecord
  2
LAYER_GEOM_FEAT
 70
0
 62
7
  6
CONTINUOUS
370
-3
390
F
  0
LAYER
  5
217
100
AcDbSymbolTableRecord
100
AcDbLayerTableRecord
  2
LAYER_PARAMETER_DIM
 70
0
 62
7
  6
CONTINUOUS
370
-3
390
F
  0
LAYER
  5
218
100
AcDbSymbolTableRecord
100
AcDbLayerTableRecord
  2
LAYER_PROTRUSION_FEAT
 70
0
 62
7
  6
CONTINUOUS
370
-3
390
F
  0
LAYER
  5
219
100
AcDbSymbolTableRecord
100
AcDbLayerTableRecord
  2
LAYER_ROUND_FEAT
 70
0
 62
7
  6
CONTINUOUS
370
-3
390
F
  0
ENDTAB
  0
TABLE
  2
STYLE
  5
3
100
AcDbSymbolTable
 70
1
  0
STYLE
  5
11
100
AcDbSymbolTableRecord
100
AcDbTextStyleTableRecord
  2
STANDARD
 70
0
 40
0.0
 41
0.8
 50
0.0
 71
0
 42
0.2
  3
txt
  4

  0
STYLE
  5
21A
100
AcDbSymbolTableRecord
100
AcDbTextStyleTableRecord
  2
TEXTSTYLE_1
 70
0
 40
0.0
 41
0.8
 50
0.0
 71
0
 42
0.2
  3
gdt
  4

  0
ENDTAB
  0
TABLE
  2
VIEW
  5
6
100
AcDbSymbolTable
 70
0
  0
ENDTAB
  0
TABLE
  2
UCS
  5
7
100
AcDbSymbolTable
 70
0
  0
ENDTAB
  0
TABLE
  2
APPID
  5
9
100
AcDbSymbolTable
 70
1
  0
APPID
  5
21B
100
AcDbSymbolTableRecord
100
AcDbRegAppTableRecord
  2
ACAD
 70
0
  0
ENDTAB
  0
TABLE
  2
BLOCK_RECORD
  5
1
100
AcDbSymbolTable
 70
0
  0
BLOCK_RECORD
  5
21C
100
AcDbSymbolTableRecord
100
AcDbBlockTableRecord
  2
*Model_Space
  0
BLOCK_RECORD
  5
21D
100
AcDbSymbolTableRecord
100
AcDbBlockTableRecord
  2
*Paper_Space
  0
ENDTAB
  0
TABLE
  2
DIMSTYLE
  5
A
100
AcDbSymbolTable
 70
1
100
AcDbDimStyleTable
 71
0
  0
DIMSTYLE
105
21E
100
AcDbSymbolTableRecord
100
AcDbDimStyleTableRecord
  2
STANDARD
 70
0
  3

  4

 40
1.0
 41
0.1875
 42
0.0625
 43
0.38
 44
0.125
 45
0.0
 46
0.0
 47
0.0001
 48
0.0001
140
0.15625
141
0.09
142
0.0
143
25.4
144
1.0
145
0.0
146
1.0
147
0.09
 71
0.0
 72
0.0
 73
1
 74
1
 75
0
 76
0
 77
0
 78
4
170
0
171
2
172
0
173
0
174
0
175
0
176
0
177
0
178
0
270
2
271
4
272
4
273
2
274
2
275
0
280
0
281
0
282
0
283
1
284
4
285
0
286
0
287
3
288
0
340
11
278
46
  0
ENDTAB
  0
ENDSEC
  0
SECTION
  2
BLOCKS
  0
BLOCK
  5
20
100
AcDbEntity
  8
0
100
AcDbBlockBegin
  2
*Model_Space
 70
0
 10
0.0
 20
0.0
 30
0.0
  3
*Model_Space
  1

  0
ENDBLK
  5
21
100
AcDbEntity
  8
0
100
AcDbBlockEnd
  0
BLOCK
  5
1C
100
AcDbEntity
  8
0
100
AcDbBlockBegin
  2
*Paper_Space
 70
0
 10
0.0
 20
0.0
 30
0.0
  3
*Paper_Space
  1

  0
ENDBLK
  5
1D
100
AcDbEntity
  8
0
100
AcDbBlockEnd
  0
ENDSEC
  0
SECTION
  2
ENTITIES
  0
MTEXT
  5
21F
100
AcDbEntity
  8
0
100
AcDbMText
 62
7
  6
CONTINUOUS
  7
STANDARD
 71
1
 72
1
 10
15.9560215477
 20
0.9479130325
 30
0.0
 11
1.0
 21
0.0
 31
0.0
 44
0.9
  1
SCALE: 1:1.000
 40
0.3
 41
3.36
  0
LINE
  5
220
100
AcDbEntity
  8
0
100
AcDbLine
 62
7
  6
CONTINUOUS
 10
0.0
 20
0.0
 11
0.0
 21
17.0
  0
LINE
  5
221
100
AcDbEntity
  8
0
100
AcDbLine
 62
7
  6
CONTINUOUS
 10
0.0
 20
0.0
 11
22.0
 21
0.0
  0
LINE
  5
222
100
AcDbEntity
  8
0
100
AcDbLine
 62
7
  6
CONTINUOUS
 10
0.0
 20
17.0
 11
22.0
 21
17.0
  0
LINE
  5
223
100
AcDbEntity
  8
0
100
AcDbLine
 62
7
  6
CONTINUOUS
 10
22.0
 20
0.0
 11
22.0
 21
17.0
  0
LINE
  5
224
100
AcDbEntity
  8
0
100
AcDbLine
 62
7
  6
CONTINUOUS
 10
3.5503672762
 20
5.7551198968
 11
3.5503672762
 21
5.6801198968
  0
LINE
  5
225
100
AcDbEntity
  8
0
100
AcDbLine
 62
7
  6
CONTINUOUS
 10
3.5503672762
 20
5.6801198968
 11
3.6682153786
 21
5.2896736584
  0
LINE
  5
226
100
AcDbEntity
  8
0
100
AcDbLine
 62
7
  6
CONTINUOUS
 10
4.2103672762
 20
5.6801198968
 11
4.2103672762
 21
5.7251198968
  0
LINE
  5
227
100
AcDbEntity
  8
0
100
AcDbLine
 62
7
  6
CONTINUOUS
 10
4.0925191737
 20
5.2896736584
 11
4.2103672762
 21
5.6801198968
  0
LINE
  5
228
100
AcDbEntity
  8
LAYER_FEATURE
100
AcDbLine
 62
7
  6
CONTINUOUS
 10
4.3003672762
 20
5.7251198968
 11
4.3003672762
 21
5.6801198968
  0
LINE
  5
229
100
AcDbEntity
  8
LAYER_FEATURE
100
AcDbLine
 62
7
  6
CONTINUOUS
 10
4.3003672762
 20
5.6801198968
 11
4.4182153786
 21
5.2896736584
  0
LINE
  5
22A
100
AcDbEntity
  8
LAYER_FEATURE
100
AcDbLine
 62
7
  6
CONTINUOUS
 10
4.9603672762
 20
5.6801198968
 11
4.9603672762
 21
5.7251198968
  0
LINE
  5
22B
100
AcDbEntity
  8
LAYER_FEATURE
100
AcDbLine
 62
7
  6
CONTINUOUS
 10
5.0503672762
 20
5.7251198968
 11
5.0503672762
 21
5.6801198968
  0
LINE
  5
22C
100
AcDbEntity
  8
LAYER_FEATURE
100
AcDbLine
 62
7
  6
CONTINUOUS
 10
4.8425191737
 20
5.2896736584
 11
4.9603672762
 21
5.6801198968
  0
LINE
  5
22D
100
AcDbEntity
  8
LAYER_FEATURE
100
AcDbLine
 62
7
  6
CONTINUOUS
 10
5.0503672762
 20
5.6801198968
 11
5.1682153786
 21
5.2896736584
  0
LINE
  5
22E
100
AcDbEntity
  8
LAYER_FEATURE
100
AcDbLine
 62
7
  6
CONTINUOUS
 10
5.7103672762
 20
5.6801198968
 11
5.7103672762
 21
5.7251198968
  0
LINE
  5
22F
100
AcDbEntity
  8
LAYER_FEATURE
100
AcDbLine
 62
7
  6
CONTINUOUS
 10
5.8003672762
 20
5.7251198968
 11
5.8003672762
 21
5.6801198968
  0
LINE
  5
230
100
AcDbEntity
  8
LAYER_FEATURE
100
AcDbLine
 62
7
  6
CONTINUOUS
 10
5.5925191737
 20
5.2896736584
 11
5.7103672762
 21
5.6801198968
  0
LINE
  5
231
100
AcDbEntity
  8
0
100
AcDbLine
 62
7
  6
CONTINUOUS
 10
3.6945423096
 20
5.2701198968
 11
4.0661922427
 21
5.2701198968
  0
LINE
  5
232
100
AcDbEntity
  8
LAYER_FEATURE
100
AcDbLine
 62
7
  6
CONTINUOUS
 10
4.4445423096
 20
5.2701198968
 11
4.8161922427
 21
5.2701198968
  0
LINE
  5
233
100
AcDbEntity
  8
LAYER_FEATURE
100
AcDbLine
 62
7
  6
CONTINUOUS
 10
5.1945423096
 20
5.2701198968
 11
5.5661922427
 21
5.2701198968
  0
LINE
  5
234
100
AcDbEntity
  8
LAYER_FEATURE
100
AcDbLine
 62
7
  6
CONTINUOUS
 10
5.9445423096
 20
5.2701198968
 11
6.3161922427
 21
5.2701198968
  0
LINE
  5
235
100
AcDbEntity
  8
LAYER_FEATURE
100
AcDbLine
 62
7
  6
CONTINUOUS
 10
6.6945423096
 20
5.2701198968
 11
7.0661922427
 21
5.2701198968
  0
LINE
  5
236
100
AcDbEntity
  8
LAYER_FEATURE
100
AcDbLine
 62
7
  6
CONTINUOUS
 10
7.4445423096
 20
5.2701198968
 11
7.8161922427
 21
5.2701198968
  0
LINE
  5
237
100
AcDbEntity
  8
LAYER_FEATURE
100
AcDbLine
 62
7
  6
CONTINUOUS
 10
8.1945423096
 20
5.2701198968
 11
8.5661922427
 21
5.2701198968
  0
LINE
  5
238
100
AcDbEntity
  8
LAYER_FEATURE
100
AcDbLine
 62
7
  6
CONTINUOUS
 10
5.8003672762
 20
5.6801198968
 11
5.9182153786
 21
5.2896736584
  0
LINE
  5
239
100
AcDbEntity
  8
LAYER_FEATURE
100
AcDbLine
 62
7
  6
CONTINUOUS
 10
6.4603672762
 20
5.6801198968
 11
6.4603672762
 21
5.7251198968
  0
LINE
  5
23A
100
AcDbEntity
  8
LAYER_FEATURE
100
AcDbLine
 62
7
  6
CONTINUOUS
 10
6.3425191737
 20
5.2896736584
 11
6.4603672762
 21
5.6801198968
  0
LINE
  5
23B
100
AcDbEntity
  8
LAYER_FEATURE
100
AcDbLine
 62
7
  6
CONTINUOUS
 10
4.2103672762
 20
5.7251198968
 11
4.3003672762
 21
5.7251198968
  0
LINE
  5
23C
100
AcDbEntity
  8
LAYER_FEATURE
100
AcDbLine
 62
7
  6
CONTINUOUS
 10
4.9603672762
 20
5.7251198968
 11
5.0503672762
 21
5.7251198968
  0
LINE
  5
23D
100
AcDbEntity
  8
LAYER_FEATURE
100
AcDbLine
 62
7
  6
CONTINUOUS
 10
5.7103672762
 20
5.7251198968
 11
5.8003672762
 21
5.7251198968
  0
LINE
  5
23E
100
AcDbEntity
  8
LAYER_FEATURE
100
AcDbLine
 62
7
  6
CONTINUOUS
 10
6.4603672762
 20
5.7251198968
 11
6.5503672762
 21
5.7251198968
  0
LINE
  5
23F
100
AcDbEntity
  8
LAYER_FEATURE
100
AcDbLine
 62
7
  6
CONTINUOUS
 10
7.2103672762
 20
5.7251198968
 11
7.3003672762
 21
5.7251198968
  0
LINE
  5
240
100
AcDbEntity
  8
LAYER_FEATURE
100
AcDbLine
 62
7
  6
CONTINUOUS
 10
7.9603672762
 20
5.7251198968
 11
8.0503672762
 21
5.7251198968
  0
LINE
  5
241
100
AcDbEntity
  8
0
100
AcDbLine
 62
7
  6
CONTINUOUS
 10
8.6953672762
 20
5.7701198968
 11
3.5653672762
 21
5.7701198968
  0
LINE
  5
242
100
AcDbEntity
  8
LAYER_FEATURE
100
AcDbLine
 62
7
  6
CONTINUOUS
 10
6.5503672762
 20
5.7251198968
 11
6.5503672762
 21
5.6801198968
  0
LINE
  5
243
100
AcDbEntity
  8
LAYER_FEATURE
100
AcDbLine
 62
7
  6
CONTINUOUS
 10
6.5503672762
 20
5.6801198968
 11
6.6682153786
 21
5.2896736584
  0
LINE
  5
244
100
AcDbEntity
  8
LAYER_FEATURE
100
AcDbLine
 62
7
  6
CONTINUOUS
 10
7.0925191737
 20
5.2896736584
 11
7.2103672762
 21
5.6801198968
  0
LINE
  5
245
100
AcDbEntity
  8
LAYER_FEATURE
100
AcDbLine
 62
7
  6
CONTINUOUS
 10
7.2103672762
 20
5.6801198968
 11
7.2103672762
 21
5.7251198968
  0
LINE
  5
246
100
AcDbEntity
  8
LAYER_FEATURE
100
AcDbLine
 62
7
  6
CONTINUOUS
 10
7.3003672762
 20
5.7251198968
 11
7.3003672762
 21
5.6801198968
  0
LINE
  5
247
100
AcDbEntity
  8
LAYER_FEATURE
100
AcDbLine
 62
7
  6
CONTINUOUS
 10
7.3003672762
 20
5.6801198968
 11
7.4182153786
 21
5.2896736584
  0
LINE
  5
248
100
AcDbEntity
  8
LAYER_FEATURE
100
AcDbLine
 62
7
  6
CONTINUOUS
 10
7.8425191737
 20
5.2896736584
 11
7.9603672762
 21
5.6801198968
  0
LINE
  5
249
100
AcDbEntity
  8
LAYER_FEATURE
100
AcDbLine
 62
7
  6
CONTINUOUS
 10
7.9603672762
 20
5.6801198968
 11
7.9603672762
 21
5.7251198968
  0
LINE
  5
24A
100
AcDbEntity
  8
LAYER_FEATURE
100
AcDbLine
 62
7
  6
CONTINUOUS
 10
8.0503672762
 20
5.7251198968
 11
8.0503672762
 21
5.6801198968
  0
LINE
  5
24B
100
AcDbEntity
  8
LAYER_FEATURE
100
AcDbLine
 62
7
  6
CONTINUOUS
 10
8.0503672762
 20
5.6801198968
 11
8.1682153786
 21
5.2896736584
  0
LINE
  5
24C
100
AcDbEntity
  8
0
100
AcDbLine
 62
7
  6
CONTINUOUS
 10
8.7103672762
 20
5.6801198968
 11
8.7103672762
 21
5.7551198968
  0
LINE
  5
24D
100
AcDbEntity
  8
LAYER_FEATURE
100
AcDbLine
 62
7
  6
CONTINUOUS
 10
8.5925191737
 20
5.2896736584
 11
8.7103672762
 21
5.6801198968
  0
LINE
  5
24E
100
AcDbEntity
  8
0
100
AcDbLine
 62
7
  6
CONTINUOUS
 10
3.4908720839
 20
14.6000477814
 11
3.4908720839
 21
10.6000477814
  0
LINE
  5
24F
100
AcDbEntity
  8
0
100
AcDbLine
 62
7
  6
CONTINUOUS
 10
8.6508720839
 20
10.6000477814
 11
3.4908720839
 21
10.6000477814
  0
LINE
  5
250
100
AcDbEntity
  8
0
100
AcDbLine
 62
7
  6
CONTINUOUS
 10
3.4908720839
 20
14.6000477814
 11
8.6508720839
 21
14.6000477814
  0
LINE
  5
251
100
AcDbEntity
  8
0
100
AcDbLine
 62
7
  6
CONTINUOUS
 10
8.6508720839
 20
10.6000477814
 11
8.6508720839
 21
14.6000477814
  0
LINE
  5
252
100
AcDbEntity
  8
LAYER_FEATURE
100
AcDbLine
 62
7
  6
CONTINUOUS
 10
13.5603552569
 20
5.2106247044
 11
13.5603552569
 21
5.6206247044
  0
LINE
  5
253
100
AcDbEntity
  8
0
100
AcDbLine
 62
7
  6
CONTINUOUS
 10
13.5603552569
 20
5.6206247044
 11
13.5603552569
 21
5.7106247044
  0
LINE
  5
254
100
AcDbEntity
  8
LAYER_FEATURE
100
AcDbLine
 62
7
  6
CONTINUOUS
 10
13.5603552569
 20
5.2106247044
 11
17.5603552569
 21
5.2106247044
  0
LINE
  5
255
100
AcDbEntity
  8
LAYER_FEATURE
100
AcDbLine
 62
7
  6
CONTINUOUS
 10
17.5603552569
 20
5.6206247044
 11
13.5603552569
 21
5.6206247044
  0
LINE
  5
256
100
AcDbEntity
  8
0
100
AcDbLine
 62
7
  6
CONTINUOUS
 10
13.5603552569
 20
5.7106247044
 11
17.5603552569
 21
5.7106247044
  0
LINE
  5
257
100
AcDbEntity
  8
0
100
AcDbLine
 62
7
  6
CONTINUOUS
 10
17.5603552569
 20
5.7106247044
 11
17.5603552569
 21
5.6206247044
  0
LINE
  5
258
100
AcDbEntity
  8
LAYER_FEATURE
100
AcDbLine
 62
7
  6
CONTINUOUS
 10
17.5603552569
 20
5.2106247044
 11
17.5603552569
 21
5.6206247044
  0
LINE
  5
259
100
AcDbEntity
  8
0
100
AcDbLine
 62
7
  6
CONTINUOUS
 10
12.5942752099
 20
11.0902295162
 11
12.6171533499
 21
11.0436087686
  0
LINE
  5
25A
100
AcDbEntity
  8
0
100
AcDbLine
 62
7
  6
CONTINUOUS
 10
12.6171533499
 20
11.0436087686
 11
12.8448010896
 21
10.8009034948
  0
LINE
  5
25B
100
AcDbEntity
  8
0
100
AcDbLine
 62
7
  6
CONTINUOUS
 10
13.225053606
 20
11.0436087686
 11
13.211326722
 21
11.0715812171
  0
LINE
  5
25C
100
AcDbEntity
  8
LAYER_FEATURE
100
AcDbLine
 62
7
  6
CONTINUOUS
 10
13.3079490954
 20
11.0436087686
 11
13.5355968351
 21
10.8009034948
  0
LINE
  5
25D
100
AcDbEntity
  8
LAYER_FEATURE
100
AcDbLine
 62
7
  6
CONTINUOUS
 10
13.2942222114
 20
11.0715812171
 11
13.3079490954
 21
11.0436087686
  0
LINE
  5
25E
100
AcDbEntity
  8
0
100
AcDbLine
 62
7
  6
CONTINUOUS
 10
13.235610765
 20
10.8009034948
 11
13.225053606
 21
11.0436087686
  0
LINE
  5
25F
100
AcDbEntity
  8
0
100
AcDbLine
 62
7
  6
CONTINUOUS
 10
13.5620251058
 20
14.2279658653
 11
12.5937598122
 21
11.0946582268
  0
LINE
  5
260
100
AcDbEntity
  8
0
100
AcDbLine
 62
7
  6
CONTINUOUS
 10
13.2352041141
 20
10.7977261345
 11
13.235610765
 21
10.8009034948
  0
LINE
  5
261
100
AcDbEntity
  8
LAYER_FEATURE
100
AcDbLine
 62
7
  6
CONTINUOUS
 10
13.9987448409
 20
11.0436087686
 11
14.2263925806
 21
10.8009034948
  0
LINE
  5
262
100
AcDbEntity
  8
LAYER_FEATURE
100
AcDbLine
 62
7
  6
CONTINUOUS
 10
13.9158493515
 20
11.0436087686
 11
13.9021224675
 21
11.0715812171
  0
LINE
  5
263
100
AcDbEntity
  8
LAYER_FEATURE
100
AcDbLine
 62
7
  6
CONTINUOUS
 10
13.9850179569
 20
11.0715812171
 11
13.9987448409
 21
11.0436087686
  0
LINE
  5
264
100
AcDbEntity
  8
LAYER_FEATURE
100
AcDbLine
 62
7
  6
CONTINUOUS
 10
13.9264065105
 20
10.8009034948
 11
13.9158493515
 21
11.0436087686
  0
LINE
  5
265
100
AcDbEntity
  8
0
100
AcDbLine
 62
7
  6
CONTINUOUS
 10
13.2336977464
 20
11.0715812171
 11
13.225053606
 21
11.0436087686
  0
LINE
  5
266
100
AcDbEntity
  8
0
100
AcDbLine
 62
7
  6
CONTINUOUS
 10
13.2361439247
 20
10.8007387359
 11
13.3103916943
 21
11.0410046064
  0
LINE
  5
267
100
AcDbEntity
  8
0
100
AcDbLine
 62
7
  6
CONTINUOUS
 10
12.8750145148
 20
10.7887486816
 11
13.2173267717
 21
10.7887486816
  0
LINE
  5
268
100
AcDbEntity
  8
LAYER_FEATURE
100
AcDbLine
 62
7
  6
CONTINUOUS
 10
13.5658102604
 20
10.7887486816
 11
13.9081225172
 21
10.7887486816
  0
LINE
  5
269
100
AcDbEntity
  8
LAYER_FEATURE
100
AcDbLine
 62
7
  6
CONTINUOUS
 10
14.2566060059
 20
10.7887486816
 11
14.5989182627
 21
10.7887486816
  0
LINE
  5
26A
100
AcDbEntity
  8
LAYER_FEATURE
100
AcDbLine
 62
7
  6
CONTINUOUS
 10
14.9474017514
 20
10.7887486816
 11
15.2897140082
 21
10.7887486816
  0
LINE
  5
26B
100
AcDbEntity
  8
LAYER_FEATURE
100
AcDbLine
 62
7
  6
CONTINUOUS
 10
15.6381974969
 20
10.7887486816
 11
15.9805097537
 21
10.7887486816
  0
LINE
  5
26C
100
AcDbEntity
  8
LAYER_FEATURE
100
AcDbLine
 62
7
  6
CONTINUOUS
 10
16.3289932424
 20
10.7887486816
 11
16.6713054992
 21
10.7887486816
  0
LINE
  5
26D
100
AcDbEntity
  8
LAYER_FEATURE
100
AcDbLine
 62
7
  6
CONTINUOUS
 10
17.0197889879
 20
10.7887486816
 11
17.3621012447
 21
10.7887486816
  0
LINE
  5
26E
100
AcDbEntity
  8
LAYER_FEATURE
100
AcDbLine
 62
7
  6
CONTINUOUS
 10
14.6895405864
 20
11.0436087686
 11
14.9171883261
 21
10.8009034948
  0
LINE
  5
26F
100
AcDbEntity
  8
LAYER_FEATURE
100
AcDbLine
 62
7
  6
CONTINUOUS
 10
13.9259998596
 20
10.7977261345
 11
13.9264065105
 21
10.8009034948
  0
LINE
  5
270
100
AcDbEntity
  8
LAYER_FEATURE
100
AcDbLine
 62
7
  6
CONTINUOUS
 10
13.211326722
 20
11.0715812171
 11
13.2942222114
 21
11.0715812171
  0
LINE
  5
271
100
AcDbEntity
  8
LAYER_FEATURE
100
AcDbLine
 62
7
  6
CONTINUOUS
 10
13.9021224675
 20
11.0715812171
 11
13.9850179569
 21
11.0715812171
  0
LINE
  5
272
100
AcDbEntity
  8
LAYER_FEATURE
100
AcDbLine
 62
7
  6
CONTINUOUS
 10
14.592918213
 20
11.0715812171
 11
14.6758137024
 21
11.0715812171
  0
LINE
  5
273
100
AcDbEntity
  8
LAYER_FEATURE
100
AcDbLine
 62
7
  6
CONTINUOUS
 10
15.2837139585
 20
11.0715812171
 11
15.3666094479
 21
11.0715812171
  0
LINE
  5
274
100
AcDbEntity
  8
LAYER_FEATURE
100
AcDbLine
 62
7
  6
CONTINUOUS
 10
15.974509704
 20
11.0715812171
 11
16.0574051934
 21
11.0715812171
  0
LINE
  5
275
100
AcDbEntity
  8
LAYER_FEATURE
100
AcDbLine
 62
7
  6
CONTINUOUS
 10
16.6653054495
 20
11.0715812171
 11
16.7482009389
 21
11.0715812171
  0
LINE
  5
276
100
AcDbEntity
  8
0
100
AcDbLine
 62
7
  6
CONTINUOUS
 10
17.3285583961
 20
11.0995536657
 11
12.6035154968
 21
11.0995536657
  0
LINE
  5
277
100
AcDbEntity
  8
LAYER_FEATURE
100
AcDbLine
 62
7
  6
CONTINUOUS
 10
14.606645097
 20
11.0436087686
 11
14.592918213
 21
11.0715812171
  0
LINE
  5
278
100
AcDbEntity
  8
LAYER_FEATURE
100
AcDbLine
 62
7
  6
CONTINUOUS
 10
14.6758137024
 20
11.0715812171
 11
14.6895405864
 21
11.0436087686
  0
LINE
  5
279
100
AcDbEntity
  8
LAYER_FEATURE
100
AcDbLine
 62
7
  6
CONTINUOUS
 10
14.617202256
 20
10.8009034948
 11
14.606645097
 21
11.0436087686
  0
LINE
  5
27A
100
AcDbEntity
  8
LAYER_FEATURE
100
AcDbLine
 62
7
  6
CONTINUOUS
 10
13.9244934919
 20
11.0715812171
 11
13.9158493515
 21
11.0436087686
  0
LINE
  5
27B
100
AcDbEntity
  8
LAYER_FEATURE
100
AcDbLine
 62
7
  6
CONTINUOUS
 10
13.9269396702
 20
10.8007387359
 11
14.0011874398
 21
11.0410046064
  0
LINE
  5
27C
100
AcDbEntity
  8
LAYER_FEATURE
100
AcDbLine
 62
7
  6
CONTINUOUS
 10
15.3803363319
 20
11.0436087686
 11
15.6079840716
 21
10.8009034948
  0
LINE
  5
27D
100
AcDbEntity
  8
LAYER_FEATURE
100
AcDbLine
 62
7
  6
CONTINUOUS
 10
15.2974408425
 20
11.0436087686
 11
15.2837139585
 21
11.0715812171
  0
LINE
  5
27E
100
AcDbEntity
  8
LAYER_FEATURE
100
AcDbLine
 62
7
  6
CONTINUOUS
 10
15.3666094479
 20
11.0715812171
 11
15.3803363319
 21
11.0436087686
  0
LINE
  5
27F
100
AcDbEntity
  8
LAYER_FEATURE
100
AcDbLine
 62
7
  6
CONTINUOUS
 10
14.6167956051
 20
10.7977261345
 11
14.617202256
 21
10.8009034948
  0
LINE
  5
280
100
AcDbEntity
  8
LAYER_FEATURE
100
AcDbLine
 62
7
  6
CONTINUOUS
 10
16.0711320774
 20
11.0436087686
 11
16.2987798172
 21
10.8009034948
  0
LINE
  5
281
100
AcDbEntity
  8
LAYER_FEATURE
100
AcDbLine
 62
7
  6
CONTINUOUS
 10
15.3079980015
 20
10.8009034948
 11
15.2974408425
 21
11.0436087686
  0
LINE
  5
282
100
AcDbEntity
  8
LAYER_FEATURE
100
AcDbLine
 62
7
  6
CONTINUOUS
 10
14.6152892374
 20
11.0715812171
 11
14.606645097
 21
11.0436087686
  0
LINE
  5
283
100
AcDbEntity
  8
LAYER_FEATURE
100
AcDbLine
 62
7
  6
CONTINUOUS
 10
14.6177354157
 20
10.8007387359
 11
14.6919831853
 21
11.0410046064
  0
LINE
  5
284
100
AcDbEntity
  8
LAYER_FEATURE
100
AcDbLine
 62
7
  6
CONTINUOUS
 10
16.7619278229
 20
11.0436087686
 11
16.9895755627
 21
10.8009034948
  0
LINE
  5
285
100
AcDbEntity
  8
LAYER_FEATURE
100
AcDbLine
 62
7
  6
CONTINUOUS
 10
15.988236588
 20
11.0436087686
 11
15.974509704
 21
11.0715812171
  0
LINE
  5
286
100
AcDbEntity
  8
LAYER_FEATURE
100
AcDbLine
 62
7
  6
CONTINUOUS
 10
16.0574051934
 20
11.0715812171
 11
16.0711320774
 21
11.0436087686
  0
LINE
  5
287
100
AcDbEntity
  8
LAYER_FEATURE
100
AcDbLine
 62
7
  6
CONTINUOUS
 10
15.3075913506
 20
10.7977261345
 11
15.3079980015
 21
10.8009034948
  0
LINE
  5
288
100
AcDbEntity
  8
LAYER_FEATURE
100
AcDbLine
 62
7
  6
CONTINUOUS
 10
15.998793747
 20
10.8009034948
 11
15.988236588
 21
11.0436087686
  0
LINE
  5
289
100
AcDbEntity
  8
LAYER_FEATURE
100
AcDbLine
 62
7
  6
CONTINUOUS
 10
15.3060849829
 20
11.0715812171
 11
15.2974408425
 21
11.0436087686
  0
LINE
  5
28A
100
AcDbEntity
  8
LAYER_FEATURE
100
AcDbLine
 62
7
  6
CONTINUOUS
 10
15.3085311612
 20
10.8007387359
 11
15.3827789308
 21
11.0410046064
  0
LINE
  5
28B
100
AcDbEntity
  8
LAYER_FEATURE
100
AcDbLine
 62
7
  6
CONTINUOUS
 10
16.6790323335
 20
11.0436087686
 11
16.6653054495
 21
11.0715812171
  0
LINE
  5
28C
100
AcDbEntity
  8
LAYER_FEATURE
100
AcDbLine
 62
7
  6
CONTINUOUS
 10
16.7482009389
 20
11.0715812171
 11
16.7619278229
 21
11.0436087686
  0
LINE
  5
28D
100
AcDbEntity
  8
LAYER_FEATURE
100
AcDbLine
 62
7
  6
CONTINUOUS
 10
15.9983870961
 20
10.7977261345
 11
15.998793747
 21
10.8009034948
  0
LINE
  5
28E
100
AcDbEntity
  8
LAYER_FEATURE
100
AcDbLine
 62
7
  6
CONTINUOUS
 10
16.6895894925
 20
10.8009034948
 11
16.6790323335
 21
11.0436087686
  0
LINE
  5
28F
100
AcDbEntity
  8
LAYER_FEATURE
100
AcDbLine
 62
7
  6
CONTINUOUS
 10
15.9968807284
 20
11.0715812171
 11
15.988236588
 21
11.0436087686
  0
LINE
  5
290
100
AcDbEntity
  8
LAYER_FEATURE
100
AcDbLine
 62
7
  6
CONTINUOUS
 10
15.9993269067
 20
10.8007387359
 11
16.0735746763
 21
11.0410046064
  0
LINE
  5
291
100
AcDbEntity
  8
0
100
AcDbLine
 62
7
  6
CONTINUOUS
 10
17.369828079
 20
11.0436087686
 11
17.346949939
 21
11.0902295162
  0
LINE
  5
292
100
AcDbEntity
  8
LAYER_FEATURE
100
AcDbLine
 62
7
  6
CONTINUOUS
 10
16.6891828416
 20
10.7977261345
 11
16.6895894925
 21
10.8009034948
  0
LINE
  5
293
100
AcDbEntity
  8
LAYER_FEATURE
100
AcDbLine
 62
7
  6
CONTINUOUS
 10
16.6876764739
 20
11.0715812171
 11
16.6790323335
 21
11.0436087686
  0
LINE
  5
294
100
AcDbEntity
  8
LAYER_FEATURE
100
AcDbLine
 62
7
  6
CONTINUOUS
 10
16.6901226522
 20
10.8007387359
 11
16.7643704218
 21
11.0410046064
  0
LINE
  5
295
100
AcDbEntity
  8
0
100
AcDbLine
 62
7
  6
CONTINUOUS
 10
13.5717807905
 20
14.2328613042
 11
18.2968236897
 21
14.2328613042
  0
LINE
  5
296
100
AcDbEntity
  8
LAYER_FEATURE
100
AcDbLine
 62
7
  6
CONTINUOUS
 10
17.380385238
 20
10.8009034948
 11
17.369828079
 21
11.0436087686
  0
LINE
  5
297
100
AcDbEntity
  8
LAYER_FEATURE
100
AcDbLine
 62
7
  6
CONTINUOUS
 10
17.3799785871
 20
10.7977261345
 11
17.380385238
 21
10.8009034948
  0
LINE
  5
298
100
AcDbEntity
  8
LAYER_FEATURE
100
AcDbLine
 62
7
  6
CONTINUOUS
 10
18.3380933726
 20
14.1769164071
 11
17.369828079
 21
11.0436087686
  0
LINE
  5
299
100
AcDbEntity
  8
LAYER_FEATURE
100
AcDbLine
 62
7
  6
CONTINUOUS
 10
17.3809183977
 20
10.8007387359
 11
18.3482519602
 21
13.9310312915
  0
LINE
  5
29A
100
AcDbEntity
  8
LAYER_FEATURE
100
AcDbLine
 62
7
  6
CONTINUOUS
 10
18.3486505316
 20
13.9342111333
 11
18.3482438808
 21
13.931033773
  0
LINE
  5
29B
100
AcDbEntity
  8
LAYER_FEATURE
100
AcDbLine
 62
7
  6
CONTINUOUS
 10
18.3486505316
 20
13.9342111333
 11
18.3380933726
 21
14.1769164071
  0
LINE
  5
29C
100
AcDbEntity
  8
0
100
AcDbLine
 62
7
  6
CONTINUOUS
 10
18.3152152326
 20
14.2235371547
 11
18.3380933726
 21
14.1769164071
  0
ARC
  5
29D
100
AcDbEntity
  8
0
100
AcDbCircle
 62
7
  6
CONTINUOUS
 10
3.6945423096
 20
5.2976198968
 40
0.0275
100
AcDbArc
 50
196.7953511265
 51
270.0
  0
ARC
  5
29E
100
AcDbEntity
  8
0
100
AcDbCircle
 62
7
  6
CONTINUOUS
 10
4.0661922427
 20
5.2976198968
 40
0.0275
100
AcDbArc
 50
270.0
 51
343.2046488735
  0
ARC
  5
29F
100
AcDbEntity
  8
LAYER_FEATURE
100
AcDbCircle
 62
7
  6
CONTINUOUS
 10
4.4445423096
 20
5.2976198968
 40
0.0275
100
AcDbArc
 50
196.7953511265
 51
270.0
  0
ARC
  5
2A0
100
AcDbEntity
  8
LAYER_FEATURE
100
AcDbCircle
 62
7
  6
CONTINUOUS
 10
4.8161922427
 20
5.2976198968
 40
0.0275
100
AcDbArc
 50
270.0
 51
343.2046488735
  0
ARC
  5
2A1
100
AcDbEntity
  8
LAYER_FEATURE
100
AcDbCircle
 62
7
  6
CONTINUOUS
 10
5.1945423096
 20
5.2976198968
 40
0.0275
100
AcDbArc
 50
196.7953511265
 51
270.0
  0
ARC
  5
2A2
100
AcDbEntity
  8
LAYER_FEATURE
100
AcDbCircle
 62
7
  6
CONTINUOUS
 10
5.5661922427
 20
5.2976198968
 40
0.0275
100
AcDbArc
 50
270.0
 51
343.2046488735
  0
ARC
  5
2A3
100
AcDbEntity
  8
LAYER_FEATURE
100
AcDbCircle
 62
7
  6
CONTINUOUS
 10
5.9445423096
 20
5.2976198968
 40
0.0275
100
AcDbArc
 50
196.7953511265
 51
270.0
  0
ARC
  5
2A4
100
AcDbEntity
  8
LAYER_FEATURE
100
AcDbCircle
 62
7
  6
CONTINUOUS
 10
6.3161922427
 20
5.2976198968
 40
0.0275
100
AcDbArc
 50
270.0
 51
343.2046488735
  0
ARC
  5
2A5
100
AcDbEntity
  8
LAYER_FEATURE
100
AcDbCircle
 62
7
  6
CONTINUOUS
 10
6.6945423096
 20
5.2976198968
 40
0.0275
100
AcDbArc
 50
196.7953511265
 51
270.0
  0
ARC
  5
2A6
100
AcDbEntity
  8
LAYER_FEATURE
100
AcDbCircle
 62
7
  6
CONTINUOUS
 10
7.0661922427
 20
5.2976198968
 40
0.0275
100
AcDbArc
 50
270.0
 51
343.2046488735
  0
ARC
  5
2A7
100
AcDbEntity
  8
LAYER_FEATURE
100
AcDbCircle
 62
7
  6
CONTINUOUS
 10
7.4445423096
 20
5.2976198968
 40
0.0275
100
AcDbArc
 50
196.7953511265
 51
270.0
  0
ARC
  5
2A8
100
AcDbEntity
  8
LAYER_FEATURE
100
AcDbCircle
 62
7
  6
CONTINUOUS
 10
7.8161922427
 20
5.2976198968
 40
0.0275
100
AcDbArc
 50
270.0
 51
343.2046488735
  0
ARC
  5
2A9
100
AcDbEntity
  8
LAYER_FEATURE
100
AcDbCircle
 62
7
  6
CONTINUOUS
 10
8.5661922427
 20
5.2976198968
 40
0.0275
100
AcDbArc
 50
270.0
 51
343.2046488735
  0
ARC
  5
2AA
100
AcDbEntity
  8
LAYER_FEATURE
100
AcDbCircle
 62
7
  6
CONTINUOUS
 10
8.1945423096
 20
5.2976198968
 40
0.0275
100
AcDbArc
 50
196.7953511265
 51
270.0
  0
ARC
  5
2AB
100
AcDbEntity
  8
0
100
AcDbCircle
 62
7
  6
CONTINUOUS
 10
3.5653672762
 20
5.7551198968
 40
0.015
100
AcDbArc
 50
90.0
 51
180.0
  0
ARC
  5
2AC
100
AcDbEntity
  8
0
100
AcDbCircle
 62
7
  6
CONTINUOUS
 10
8.6953672762
 20
5.7551198968
 40
0.015
100
AcDbArc
 50
0.0
 51
90.0
  0
SPLINE
  5
2AD
100
AcDbEntity
  8
0
100
AcDbSpline
 62
7
  6
CONTINUOUS
 70
0
 71
3
 72
15
 73
11
 74
0
 42
0.0000001
 43
0.0000001
 44
0.0000000001
 40
0.0
 40
0.0
 40
0.0
 40
0.0
 40
0.1294165569
 40
0.2645180781
 40
0.4012970774
 40
0.5362628266
 40
0.6661560434
 40
0.78813941
 40
0.8999194788
 40
1.0
 40
1.0
 40
1.0
 40
1.0
 10
18.2968236897
 20
14.2328613042
 30
0.0
 10
18.2977515431
 20
14.2328613042
 30
0.0
 10
18.2996493474
 20
14.232731096
 30
0.0
 10
18.3024834104
 20
14.2322026626
 30
0.0
 10
18.3052777628
 20
14.231344686
 30
0.0
 10
18.3079256058
 20
14.2301972056
 30
0.0
 10
18.310328353
 20
14.2287983822
 30
0.0
 10
18.3124012442
 20
14.227202298
 30
0.0
 10
18.314059264
 20
14.2254627631
 30
0.0
 10
18.3148991307
 20
14.2241813027
 30
0.0
 10
18.3152152326
 20
14.2235371547
 30
0.0
  0
SPLINE
  5
2AE
100
AcDbEntity
  8
0
100
AcDbSpline
 62
7
  6
CONTINUOUS
 70
0
 71
3
 72
10
 73
6
 74
0
 42
0.0000001
 43
0.0000001
 44
0.0000000001
 40
0.0
 40
0.0
 40
0.0
 40
0.0
 40
0.2343758129
 40
0.4761728829
 40
1.0
 40
1.0
 40
1.0
 40
1.0
 10
12.5937598985
 20
11.0946581748
 30
0.0
 10
12.5936546703
 20
11.0943184097
 30
0.0
 10
12.5935167192
 20
11.0936019305
 30
0.0
 10
12.5935535962
 20
11.0920762286
 30
0.0
 10
12.5939249977
 20
11.0909431737
 30
0.0
 10
12.5942752099
 20
11.0902295162
 30
0.0
  0
SPLINE
  5
2AF
100
AcDbEntity
  8
0
100
AcDbSpline
 62
7
  6
CONTINUOUS
 70
0
 71
3
 72
13
 73
9
 74
0
 42
0.0000001
 43
0.0000001
 44
0.0000000001
 40
0.0
 40
0.0
 40
0.0
 40
0.0
 40
0.0997942201
 40
0.2030647278
 40
0.3128498857
 40
0.4312452013
 40
0.6971835619
 40
1.0
 40
1.0
 40
1.0
 40
1.0
 10
13.5620251921
 20
14.2279658134
 30
0.0
 10
13.5621395552
 20
14.2283350738
 30
0.0
 10
13.5624633597
 20
14.2290611824
 30
0.0
 10
13.5632000524
 20
14.2300349646
 30
0.0
 10
13.5641750467
 20
14.230882729
 30
0.0
 10
13.5658257341
 20
14.2318679606
 30
0.0
 10
13.5683984383
 20
14.2326738483
 30
0.0
 10
13.5706077954
 20
14.2328613042
 30
0.0
 10
13.5717807905
 20
14.2328613042
 30
0.0
  0
SPLINE
  5
2B0
100
AcDbEntity
  8
LAYER_FEATURE
100
AcDbSpline
 62
7
  6
CONTINUOUS
 70
0
 71
3
 72
14
 73
10
 74
0
 42
0.0000001
 43
0.0000001
 44
0.0000000001
 40
0.0
 40
0.0
 40
0.0
 40
0.0
 40
0.1556514136
 40
0.3032868847
 40
0.5688144901
 40
0.6871117093
 40
0.7968511407
 40
0.9001555559
 40
1.0
 40
1.0
 40
1.0
 40
1.0
 10
17.3621012447
 20
10.7887486816
 30
0.0
 10
17.3632070681
 20
10.7887486816
 30
0.0
 10
17.3653643179
 20
10.7888452267
 30
0.0
 10
17.3693658785
 20
10.7894224227
 30
0.0
 10
17.3730183024
 20
10.7905707622
 30
0.0
 10
17.3760431911
 20
10.7923733195
 30
0.0
 10
17.3778296438
 20
10.7939288357
 30
0.0
 10
17.379184354
 20
10.7957125887
 30
0.0
 10
17.3797760663
 20
10.7970462784
 30
0.0
 10
17.3799851792
 20
10.7977240985
 30
0.0
  0
SPLINE
  5
2B1
100
AcDbEntity
  8
LAYER_FEATURE
100
AcDbSpline
 62
7
  6
CONTINUOUS
 70
0
 71
3
 72
15
 73
11
 74
0
 42
0.0000001
 43
0.0000001
 44
0.0000000001
 40
0.0
 40
0.0
 40
0.0
 40
0.0
 40
0.1113513383
 40
0.2305676838
 40
0.3557468092
 40
0.484964467
 40
0.6161930705
 40
0.7473037561
 40
0.8760805218
 40
1.0
 40
1.0
 40
1.0
 40
1.0
 10
16.9895755627
 20
10.8009034948
 30
0.0
 10
16.9904229583
 20
10.800000049
 30
0.0
 10
16.9923125893
 20
10.7982536636
 30
0.0
 10
16.995516077
 20
10.7959178543
 30
0.0
 10
16.9991199855
 20
10.7938334825
 30
0.0
 10
17.0030278505
 20
10.7920492888
 30
0.0
 10
17.0071456551
 20
10.7906113394
 30
0.0
 10
17.0113719427
 20
10.7895521746
 30
0.0
 10
17.0155980297
 20
10.7889046845
 30
0.0
 10
17.0184105145
 20
10.7887486816
 30
0.0
 10
17.0197889879
 20
10.7887486816
 30
0.0
  0
SPLINE
  5
2B2
100
AcDbEntity
  8
LAYER_FEATURE
100
AcDbSpline
 62
7
  6
CONTINUOUS
 70
0
 71
3
 72
14
 73
10
 74
0
 42
0.0000001
 43
0.0000001
 44
0.0000000001
 40
0.0
 40
0.0
 40
0.0
 40
0.0
 40
0.1556514136
 40
0.3032868847
 40
0.5688144901
 40
0.6871117093
 40
0.7968511407
 40
0.9001555559
 40
1.0
 40
1.0
 40
1.0
 40
1.0
 10
16.6713054992
 20
10.7887486816
 30
0.0
 10
16.6724113226
 20
10.7887486816
 30
0.0
 10
16.6745685724
 20
10.7888452267
 30
0.0
 10
16.678570133
 20
10.7894224227
 30
0.0
 10
16.6822225569
 20
10.7905707622
 30
0.0
 10
16.6852474456
 20
10.7923733195
 30
0.0
 10
16.6870338983
 20
10.7939288357
 30
0.0
 10
16.6883886085
 20
10.7957125887
 30
0.0
 10
16.6889803208
 20
10.7970462784
 30
0.0
 10
16.6891894337
 20
10.7977240985
 30
0.0
  0
SPLINE
  5
2B3
100
AcDbEntity
  8
LAYER_FEATURE
100
AcDbSpline
 62
7
  6
CONTINUOUS
 70
0
 71
3
 72
15
 73
11
 74
0
 42
0.0000001
 43
0.0000001
 44
0.0000000001
 40
0.0
 40
0.0
 40
0.0
 40
0.0
 40
0.1113513383
 40
0.2305676838
 40
0.3557468092
 40
0.484964467
 40
0.6161930705
 40
0.7473037561
 40
0.8760805218
 40
1.0
 40
1.0
 40
1.0
 40
1.0
 10
16.2987798172
 20
10.8009034948
 30
0.0
 10
16.2996272128
 20
10.800000049
 30
0.0
 10
16.3015168438
 20
10.7982536636
 30
0.0
 10
16.3047203315
 20
10.7959178543
 30
0.0
 10
16.30832424
 20
10.7938334825
 30
0.0
 10
16.312232105
 20
10.7920492888
 30
0.0
 10
16.3163499096
 20
10.7906113394
 30
0.0
 10
16.3205761972
 20
10.7895521746
 30
0.0
 10
16.3248022842
 20
10.7889046845
 30
0.0
 10
16.327614769
 20
10.7887486816
 30
0.0
 10
16.3289932424
 20
10.7887486816
 30
0.0
  0
SPLINE
  5
2B4
100
AcDbEntity
  8
LAYER_FEATURE
100
AcDbSpline
 62
7
  6
CONTINUOUS
 70
0
 71
3
 72
14
 73
10
 74
0
 42
0.0000001
 43
0.0000001
 44
0.0000000001
 40
0.0
 40
0.0
 40
0.0
 40
0.0
 40
0.1556514136
 40
0.3032868847
 40
0.5688144901
 40
0.6871117093
 40
0.7968511407
 40
0.9001555559
 40
1.0
 40
1.0
 40
1.0
 40
1.0
 10
15.9805097537
 20
10.7887486816
 30
0.0
 10
15.9816155771
 20
10.7887486816
 30
0.0
 10
15.9837728269
 20
10.7888452267
 30
0.0
 10
15.9877743875
 20
10.7894224227
 30
0.0
 10
15.9914268114
 20
10.7905707622
 30
0.0
 10
15.9944517001
 20
10.7923733195
 30
0.0
 10
15.9962381528
 20
10.7939288357
 30
0.0
 10
15.997592863
 20
10.7957125887
 30
0.0
 10
15.9981845753
 20
10.7970462784
 30
0.0
 10
15.9983936882
 20
10.7977240985
 30
0.0
  0
SPLINE
  5
2B5
100
AcDbEntity
  8
LAYER_FEATURE
100
AcDbSpline
 62
7
  6
CONTINUOUS
 70
0
 71
3
 72
15
 73
11
 74
0
 42
0.0000001
 43
0.0000001
 44
0.0000000001
 40
0.0
 40
0.0
 40
0.0
 40
0.0
 40
0.1113513383
 40
0.2305676838
 40
0.3557468092
 40
0.484964467
 40
0.6161930705
 40
0.7473037561
 40
0.8760805218
 40
1.0
 40
1.0
 40
1.0
 40
1.0
 10
15.6079840716
 20
10.8009034948
 30
0.0
 10
15.6088314673
 20
10.800000049
 30
0.0
 10
15.6107210983
 20
10.7982536636
 30
0.0
 10
15.613924586
 20
10.7959178543
 30
0.0
 10
15.6175284945
 20
10.7938334825
 30
0.0
 10
15.6214363595
 20
10.7920492888
 30
0.0
 10
15.6255541641
 20
10.7906113394
 30
0.0
 10
15.6297804517
 20
10.7895521746
 30
0.0
 10
15.6340065387
 20
10.7889046845
 30
0.0
 10
15.6368190235
 20
10.7887486816
 30
0.0
 10
15.6381974969
 20
10.7887486816
 30
0.0
  0
SPLINE
  5
2B6
100
AcDbEntity
  8
LAYER_FEATURE
100
AcDbSpline
 62
7
  6
CONTINUOUS
 70
0
 71
3
 72
14
 73
10
 74
0
 42
0.0000001
 43
0.0000001
 44
0.0000000001
 40
0.0
 40
0.0
 40
0.0
 40
0.0
 40
0.1556514136
 40
0.3032868847
 40
0.5688144901
 40
0.6871117093
 40
0.7968511407
 40
0.9001555559
 40
1.0
 40
1.0
 40
1.0
 40
1.0
 10
15.2897140082
 20
10.7887486816
 30
0.0
 10
15.2908198316
 20
10.7887486816
 30
0.0
 10
15.2929770814
 20
10.7888452267
 30
0.0
 10
15.296978642
 20
10.7894224227
 30
0.0
 10
15.3006310659
 20
10.7905707622
 30
0.0
 10
15.3036559546
 20
10.7923733195
 30
0.0
 10
15.3054424073
 20
10.7939288357
 30
0.0
 10
15.3067971175
 20
10.7957125887
 30
0.0
 10
15.3073888298
 20
10.7970462784
 30
0.0
 10
15.3075979427
 20
10.7977240985
 30
0.0
  0
SPLINE
  5
2B7
100
AcDbEntity
  8
LAYER_FEATURE
100
AcDbSpline
 62
7
  6
CONTINUOUS
 70
0
 71
3
 72
15
 73
11
 74
0
 42
0.0000001
 43
0.0000001
 44
0.0000000001
 40
0.0
 40
0.0
 40
0.0
 40
0.0
 40
0.1113513383
 40
0.2305676838
 40
0.3557468092
 40
0.484964467
 40
0.6161930705
 40
0.7473037561
 40
0.8760805218
 40
1.0
 40
1.0
 40
1.0
 40
1.0
 10
14.9171883261
 20
10.8009034948
 30
0.0
 10
14.9180357218
 20
10.800000049
 30
0.0
 10
14.9199253528
 20
10.7982536636
 30
0.0
 10
14.9231288405
 20
10.7959178543
 30
0.0
 10
14.9267327489
 20
10.7938334825
 30
0.0
 10
14.930640614
 20
10.7920492888
 30
0.0
 10
14.9347584186
 20
10.7906113394
 30
0.0
 10
14.9389847062
 20
10.7895521746
 30
0.0
 10
14.9432107932
 20
10.7889046845
 30
0.0
 10
14.946023278
 20
10.7887486816
 30
0.0
 10
14.9474017514
 20
10.7887486816
 30
0.0
  0
SPLINE
  5
2B8
100
AcDbEntity
  8
LAYER_FEATURE
100
AcDbSpline
 62
7
  6
CONTINUOUS
 70
0
 71
3
 72
14
 73
10
 74
0
 42
0.0000001
 43
0.0000001
 44
0.0000000001
 40
0.0
 40
0.0
 40
0.0
 40
0.0
 40
0.1556514136
 40
0.3032868847
 40
0.5688144901
 40
0.6871117093
 40
0.7968511407
 40
0.9001555559
 40
1.0
 40
1.0
 40
1.0
 40
1.0
 10
14.5989182627
 20
10.7887486816
 30
0.0
 10
14.6000240861
 20
10.7887486816
 30
0.0
 10
14.6021813359
 20
10.7888452267
 30
0.0
 10
14.6061828965
 20
10.7894224227
 30
0.0
 10
14.6098353204
 20
10.7905707622
 30
0.0
 10
14.6128602091
 20
10.7923733195
 30
0.0
 10
14.6146466618
 20
10.7939288357
 30
0.0
 10
14.616001372
 20
10.7957125887
 30
0.0
 10
14.6165930843
 20
10.7970462784
 30
0.0
 10
14.6168021972
 20
10.7977240985
 30
0.0
  0
SPLINE
  5
2B9
100
AcDbEntity
  8
LAYER_FEATURE
100
AcDbSpline
 62
7
  6
CONTINUOUS
 70
0
 71
3
 72
15
 73
11
 74
0
 42
0.0000001
 43
0.0000001
 44
0.0000000001
 40
0.0
 40
0.0
 40
0.0
 40
0.0
 40
0.1113513383
 40
0.2305676838
 40
0.3557468092
 40
0.484964467
 40
0.6161930705
 40
0.7473037561
 40
0.8760805218
 40
1.0
 40
1.0
 40
1.0
 40
1.0
 10
14.2263925806
 20
10.8009034948
 30
0.0
 10
14.2272399763
 20
10.800000049
 30
0.0
 10
14.2291296073
 20
10.7982536636
 30
0.0
 10
14.232333095
 20
10.7959178543
 30
0.0
 10
14.2359370034
 20
10.7938334825
 30
0.0
 10
14.2398448685
 20
10.7920492888
 30
0.0
 10
14.2439626731
 20
10.7906113394
 30
0.0
 10
14.2481889607
 20
10.7895521746
 30
0.0
 10
14.2524150477
 20
10.7889046845
 30
0.0
 10
14.2552275325
 20
10.7887486816
 30
0.0
 10
14.2566060059
 20
10.7887486816
 30
0.0
  0
SPLINE
  5
2BA
100
AcDbEntity
  8
LAYER_FEATURE
100
AcDbSpline
 62
7
  6
CONTINUOUS
 70
0
 71
3
 72
14
 73
10
 74
0
 42
0.0000001
 43
0.0000001
 44
0.0000000001
 40
0.0
 40
0.0
 40
0.0
 40
0.0
 40
0.1556514136
 40
0.3032868847
 40
0.5688144901
 40
0.6871117093
 40
0.7968511407
 40
0.9001555559
 40
1.0
 40
1.0
 40
1.0
 40
1.0
 10
13.9081225172
 20
10.7887486816
 30
0.0
 10
13.9092283406
 20
10.7887486816
 30
0.0
 10
13.9113855904
 20
10.7888452267
 30
0.0
 10
13.915387151
 20
10.7894224227
 30
0.0
 10
13.9190395749
 20
10.7905707622
 30
0.0
 10
13.9220644636
 20
10.7923733195
 30
0.0
 10
13.9238509163
 20
10.7939288357
 30
0.0
 10
13.9252056265
 20
10.7957125887
 30
0.0
 10
13.9257973388
 20
10.7970462784
 30
0.0
 10
13.9260064517
 20
10.7977240985
 30
0.0
  0
SPLINE
  5
2BB
100
AcDbEntity
  8
LAYER_FEATURE
100
AcDbSpline
 62
7
  6
CONTINUOUS
 70
0
 71
3
 72
15
 73
11
 74
0
 42
0.0000001
 43
0.0000001
 44
0.0000000001
 40
0.0
 40
0.0
 40
0.0
 40
0.0
 40
0.1113513383
 40
0.2305676838
 40
0.3557468092
 40
0.484964467
 40
0.6161930705
 40
0.7473037561
 40
0.8760805218
 40
1.0
 40
1.0
 40
1.0
 40
1.0
 10
13.5355968351
 20
10.8009034948
 30
0.0
 10
13.5364442307
 20
10.800000049
 30
0.0
 10
13.5383338618
 20
10.7982536636
 30
0.0
 10
13.5415373495
 20
10.7959178543
 30
0.0
 10
13.5451412579
 20
10.7938334825
 30
0.0
 10
13.549049123
 20
10.7920492888
 30
0.0
 10
13.5531669276
 20
10.7906113394
 30
0.0
 10
13.5573932152
 20
10.7895521746
 30
0.0
 10
13.5616193022
 20
10.7889046845
 30
0.0
 10
13.564431787
 20
10.7887486816
 30
0.0
 10
13.5658102604
 20
10.7887486816
 30
0.0
  0
SPLINE
  5
2BC
100
AcDbEntity
  8
0
100
AcDbSpline
 62
7
  6
CONTINUOUS
 70
0
 71
3
 72
14
 73
10
 74
0
 42
0.0000001
 43
0.0000001
 44
0.0000000001
 40
0.0
 40
0.0
 40
0.0
 40
0.0
 40
0.1556514136
 40
0.3032868847
 40
0.5688144901
 40
0.6871117093
 40
0.7968511407
 40
0.9001555559
 40
1.0
 40
1.0
 40
1.0
 40
1.0
 10
13.2173267717
 20
10.7887486816
 30
0.0
 10
13.2184325951
 20
10.7887486816
 30
0.0
 10
13.2205898449
 20
10.7888452267
 30
0.0
 10
13.2245914055
 20
10.7894224227
 30
0.0
 10
13.2282438294
 20
10.7905707622
 30
0.0
 10
13.2312687181
 20
10.7923733195
 30
0.0
 10
13.2330551708
 20
10.7939288357
 30
0.0
 10
13.234409881
 20
10.7957125887
 30
0.0
 10
13.2350015933
 20
10.7970462784
 30
0.0
 10
13.2352107062
 20
10.7977240985
 30
0.0
  0
SPLINE
  5
2BD
100
AcDbEntity
  8
0
100
AcDbSpline
 62
7
  6
CONTINUOUS
 70
0
 71
3
 72
15
 73
11
 74
0
 42
0.0000001
 43
0.0000001
 44
0.0000000001
 40
0.0
 40
0.0
 40
0.0
 40
0.0
 40
0.1113513383
 40
0.2305676838
 40
0.3557468092
 40
0.484964467
 40
0.6161930705
 40
0.7473037561
 40
0.8760805218
 40
1.0
 40
1.0
 40
1.0
 40
1.0
 10
12.8448010896
 20
10.8009034948
 30
0.0
 10
12.8456484852
 20
10.800000049
 30
0.0
 10
12.8475381163
 20
10.7982536636
 30
0.0
 10
12.850741604
 20
10.7959178543
 30
0.0
 10
12.8543455124
 20
10.7938334825
 30
0.0
 10
12.8582533775
 20
10.7920492888
 30
0.0
 10
12.8623711821
 20
10.7906113394
 30
0.0
 10
12.8665974697
 20
10.7895521746
 30
0.0
 10
12.8708235567
 20
10.7889046845
 30
0.0
 10
12.8736360415
 20
10.7887486816
 30
0.0
 10
12.8750145148
 20
10.7887486816
 30
0.0
  0
SPLINE
  5
2BE
100
AcDbEntity
  8
0
100
AcDbSpline
 62
7
  6
CONTINUOUS
 70
0
 71
3
 72
13
 73
9
 74
0
 42
0.0000001
 43
0.0000001
 44
0.0000000001
 40
0.0
 40
0.0
 40
0.0
 40
0.0
 40
0.3028164381
 40
0.5687547987
 40
0.6871501143
 40
0.7969352722
 40
0.9002057799
 40
1.0
 40
1.0
 40
1.0
 40
1.0
 10
12.6035154968
 20
11.0995536657
 30
0.0
 10
12.6023425018
 20
11.0995536657
 30
0.0
 10
12.6001331447
 20
11.0993662098
 30
0.0
 10
12.5975604405
 20
11.0985603221
 30
0.0
 10
12.5959097531
 20
11.0975750905
 30
0.0
 10
12.5949347588
 20
11.0967273261
 30
0.0
 10
12.5941980661
 20
11.0957535439
 30
0.0
 10
12.5938742616
 20
11.0950274353
 30
0.0
 10
12.5937598985
 20
11.0946581748
 30
0.0
  0
SPLINE
  5
2BF
100
AcDbEntity
  8
0
100
AcDbSpline
 62
7
  6
CONTINUOUS
 70
0
 71
3
 72
15
 73
11
 74
0
 42
0.0000001
 43
0.0000001
 44
0.0000000001
 40
0.0
 40
0.0
 40
0.0
 40
0.0
 40
0.1000805212
 40
0.21186059
 40
0.3338439566
 40
0.4637371734
 40
0.5987029226
 40
0.7354819219
 40
0.8705834431
 40
1.0
 40
1.0
 40
1.0
 40
1.0
 10
17.346949939
 20
11.0902295162
 30
0.0
 10
17.3466338371
 20
11.0908736641
 30
0.0
 10
17.3457939704
 20
11.0921551245
 30
0.0
 10
17.3441359506
 20
11.0938946595
 30
0.0
 10
17.3420630593
 20
11.0954907437
 30
0.0
 10
17.3396603122
 20
11.0968895671
 30
0.0
 10
17.3370124692
 20
11.0980370475
 30
0.0
 10
17.3342181168
 20
11.0988950241
 30
0.0
 10
17.3313840538
 20
11.0994234575
 30
0.0
 10
17.3294862495
 20
11.0995536657
 30
0.0
 10
17.3285583961
 20
11.0995536657
 30
0.0
  0
ENDSEC
  0
SECTION
  2
OBJECTS
  0
DICTIONARY
  5
C
100
AcDbDictionary
280
0
281
1
  3
ACAD_GROUP
350
D
  3
ACAD_MLINESTYLE
350
17
  3
ACAD_LAYOUT
350
1A
  3
ACAD_PLOTSETTINGS
350
19
  3
ACAD_PLOTSTYLENAME
350
E
  0
DICTIONARY
  5
D
102
{ACAD_REACTORS
330
C
102
}
100
AcDbDictionary
280
0
281
1
  0
ACDBDICTIONARYWDFLT
  5
E
102
{ACAD_REACTORS
330
C
102
}
100
AcDbDictionary
281
1
  3
Normal
350
F
100
AcDbDictionaryWithDefault
340
F
  0
DICTIONARY
  5
17
102
{ACAD_REACTORS
330
C
102
}
100
AcDbDictionary
280
0
281
1
  3
Standard
350
18
  0
DICTIONARY
  5
19
102
{ACAD_REACTORS
330
C
102
}
100
AcDbDictionary
281
1
  0
DICTIONARY
  5
1A
102
{ACAD_REACTORS
330
C
102
}
100
AcDbDictionary
281
1
  3
Model
350
2C0
  3
Layout1
350
2C1
  0
ACDBPLACEHOLDER
  5
F
102
{ACAD_REACTORS
330
E
102
}
  0
MLINESTYLE
  5
18
102
{ACAD_REACTORS
330
17
102
}
100
AcDbMlineStyle
  2
STANDARD
 70
0
  3

 62
256
 51
90.0
 52
90.0
 71
2
 49
0.5
 62
256
  6
BYLAYER
 49
-0.5
 62
256
  6
BYLAYER
  0
LAYOUT
  5
2C0
102
{ACAD_REACTORS
330
1A
102
}
100
AcDbPlotSettings
  1

  2
none_device
  4
ANSI_C_(22.00_x_17.00_Inches)
  6

 40
0.0
 41
0.0
 42
0.0
 43
0.0
 44
558.8
 45
431.8
 46
0.0
 47
0.0
 48
0.0
 49
0.0
140
0.0
141
0.0
142
1.0
143
1.0
 70
1024
 72
0
 73
0
 74
0
  7

 75
0
147
1.0
148
0.0
149
0.0
100
AcDbLayout
  1
Model
 70
0
 71
0
 10
0.0
 20
0.0
 11
22.0
 21
17.0
 12
0.0
 22
0.0
 32
0.0
 14
0.0
 24
0.0
 34
0.0
 15
0.0
 25
0.0
 35
0.0
146
0.0
 13
0.0
 23
0.0
 33
0.0
 16
1.0
 26
0.0
 36
0.0
 17
0.0
 27
1.0
 37
0.0
 76
0
330
21C
345
0
346
0
  0
LAYOUT
  5
2C1
102
{ACAD_REACTORS
330
1A
102
}
100
AcDbPlotSettings
  1

  2
none_device
  4
ANSI_C_(22.00_x_17.00_Inches)
  6

 40
0.0
 41
0.0
 42
0.0
 43
0.0
 44
558.8
 45
431.8
 46
0.0
 47
0.0
 48
0.0
 49
0.0
140
0.0
141
0.0
142
1.0
143
1.0
 70
0
 72
0
 73
0
 74
0
  7

 75
0
147
1.0
148
0.0
149
0.0
100
AcDbLayout
  1
Layout1
 70
0
 71
1
 10
0.0
 20
0.0
 11
22.0
 21
17.0
 12
0.0
 22
0.0
 32
0.0
 14
0.0
 24
0.0
 34
0.0
 15
0.0
 25
0.0
 35
0.0
146
0.0
 13
0.0
 23
0.0
 33
0.0
 16
1.0
 26
0.0
 36
0.0
 17
0.0
 27
1.0
 37
0.0
 76
0
330
21D
345
0
346
0
  0
ENDSEC
  0
EOF