999
DXF file: _cgs_temp_output.dxf
999
Pro/ENGINEER 2015110 by Parametric Technology Corporation
  0
SECTION
  2
HEADER
  9
$ACADVER
  1
AC1021
  9
$DWGCODEPAGE
  3
ANSI_1252
  9
$EXTMAX
 10
22.0
 20
17.0
 30
0.0
  9
$EXTMIN
 10
0.0
 20
0.0
 30
0.0
  9
$LIMMIN
 10
0.0
 20
0.0
  9
$LIMMAX
 10
22.0
 20
17.0
  9
$VIEWCTR
 10
11.0
 20
8.5
  9
$VIEWSIZE
 40
17.0
  9
$CLAYER
  8
0
  9
$LTSCALE
 40
1.21
  9
$CELTYPE
  6
BYLAYER
  9
$DIMSCALE
 40
1.0
  9
$DIMASZ
 40
0.1875
  9
$DIMEXO
 40
0.0625
  9
$DIMDLI
 40
0.836
  9
$DIMEXE
 40
0.125
  9
$DIMCEN
 40
0.198
  9
$DIMLFAC
 40
1.0
  9
$DIMBLK
  1
_CLOSED
  9
$DIMALT
 70
0
  9
$DIMALTF
 40
25.4
  9
$DIMTXT
 40
0.15625
  9
$DIMTOL
 70
0
  9
$DIMLIM
 70
0
  9
$DIMTFAC
 40
1.0
  9
$DIMGAP
 40
0.09
  9
$DIMDSEP
 70
46
  9
$AUNITS
 70
0
  9
$PDMODE
 70
3
  9
$PDSIZE
 40
0.3125
  9
$HANDSEED
  5
2C2
  9
$TILEMODE
 70
1
  9
$MEASUREMENT
 70
0
  9
$INSUNITS
 70
1
  0
ENDSEC
  0
SECTION
  2
CLASSES
  0
CLASS
  1
ACDBDICTIONARYWDFLT
  2
AcDbDictionaryWithDefault
  3
AutoCAD 2000
 90
0
 91
1
280
0
281
0
  0
CLASS
  1
ACDBPLACEHOLDER
  2
AcDbPlaceHolder
  3
AutoCAD 2000
 90
0
 91
1
280
0
281
0
  0
CLASS
  1
LAYOUT
  2
AcDbLayout
  3
AutoCAD 2000
 90
0
 91
0
280
0
281
0
  0
ENDSEC
  0
SECTION
  2
TABLES
  0
TABLE
  2
VPORT
  5
8
100
AcDbSymbolTable
 70
2
  0
VPORT
  5
1F4
100
AcDbSymbolTableRecord
100
AcDbViewportTableRecord
  2
*ACTIVE
 70
0
 10
0.0
 20
0.0
 11
1.0
 21
1.0
 12
11.0
 22
8.5
 13
0.0
 23
0.0
 14
1.0
 24
1.0
 15
0.0
 25
0.0
 16
0.0
 26
0.0
 36
1.0
 17
0.0
 27
0.0
 37
0.0
 40
17.0
 41
1.2941176471
 42
50.0
 43
0.0
 44
0.0
 50
0.0
 51
0.0
 71
0
 72
100
 73
1
 74
1
 75
0
 76
0
 77
0
 78
0
  0
ENDTAB
  0
TABLE
  2
LTYPE
  5
5
100
AcDbSymbolTable
 70
6
  0
LTYPE
  5
14
100
AcDbSymbolTableRecord
100
AcDbLinetypeTableRecord
  2
BYBLOCK
 70
0
  3

 72
65
 73
0
 40
0.0
  0
LTYPE
  5
15
100
AcDbSymbolTableRecord
100
AcDbLinetypeTableRecord
  2
BYLAYER
 70
0
  3

 72
65
 73
0
 40
0.0
  0
LTYPE
  5
16
100
AcDbSymbolTableRecord
100
AcDbLinetypeTableRecord
  2
CONTINUOUS
 70
64
  3
Solid line
 72
65
 73
0
 40
0.0
  0
LTYPE
  5
1F5
100
AcDbSymbolTableRecord
100
AcDbLinetypeTableRecord
  2
CENTER
 70
64
  3
____ _ ____ _ ____ _ ____ _ ____ _ ____ _ ____
 72
65
 73
4
 40
0.6
 49
0.375
 74
0
 49
-0.075
 74
0
 49
0.075
 74
0
 49
-0.075
 74
0
  0
LTYPE
  5
1F6
100
AcDbSymbolTableRecord
100
AcDbLinetypeTableRecord
  2
HIDDEN
 70
64
  3
- - - - - - - - - - - - - - - - - - - -
 72
65
 73
2
 40
0.2
 49
0.1
 74
0
 49
-0.1
 74
0
  0
LTYPE
  5
1F7
100
AcDbSymbolTableRecord
100
AcDbLinetypeTableRecord
  2
PHANTOM
 70
64
  3
_____ _ _ _____ _ _ _____ _ _ _____
 72
65
 73
6
 40
0.8
 49
0.45
 74
0
 49
-0.05
 74
0
 49
0.1
 74
0
 49
-0.05
 74
0
 49
0.1
 74
0
 49
-0.05
 74
0
  0
LTYPE
  5
1F8
100
AcDbSymbolTableRecord
100
AcDbLinetypeTableRecord
  2
DOT
 70
64
  3
. . . . . . . . . . . . . . . . . . . .
 72
65
 73
2
 40
0.2
 49
0.1
 74
0
 49
-0.1
 74
0
  0
LTYPE
  5
1F9
100
AcDbSymbolTableRecord
100
AcDbLinetypeTableRecord
  2
DASHED
 70
64
  3
- - - - - - - - - - - - - - - - - - - -
 72
65
 73
2
 40
0.2
 49
0.1
 74
0
 49
-0.1
 74
0
  0
ENDTAB
  0
TABLE
  2
LAYER
  5
2
100
AcDbSymbolTable
 70
36
  0
LAYER
  5
10
100
AcDbSymbolTableRecord
100
AcDbLayerTableRecord
  2
0
 70
0
 62
7
  6
CONTINUOUS
370
-3
390
F
  0
LAYER
  5
1FA
100
AcDbSymbolTableRecord
100
AcDbLayerTableRecord
  2
DEFAULT_1
 70
0
 62
7
  6
CENTER
370
-3
390
F
  0
LAYER
  5
1FB
100
AcDbSymbolTableRecord
100
AcDbLayerTableRecord
  2
DEFAULT_2
 70
0
 62
8
  6
HIDDEN
370
-3
390
F
  0
LAYER
  5
1FC
100
AcDbSymbolTableRecord
100
AcDbLayerTableRecord
  2
DEFAULT_3
 70
0
 62
7
  6
PHANTOM
370
-3
390
F
  0
LAYER
  5
1FD
100
AcDbSymbolTableRecord
100
AcDbLayerTableRecord
  2
01_ALL_DTM_PLN
 70
0
 62
7
  6
CONTINUOUS
370
-3
390
F
  0
LAYER
  5
1FE
100
AcDbSymbolTableRecord
100
AcDbLayerTableRecord
  2
01__ASM_ALL_DTM_PLN
 70
0
 62
7
  6
CONTINUOUS
370
-3
390
F
  0
LAYER
  5
1FF
100
AcDbSymbolTableRecord
100
AcDbLayerTableRecord
  2
01__ASM_DEF_DTM_PLN
 70
0
 62
7
  6
CONTINUOUS
370
-3
390
F
  0
LAYER
  5
200
100
AcDbSymbolTableRecord
100
AcDbLayerTableRecord
  2
01___PRT_ALL_DTM_PLN
 70
0
 62
7
  6
CONTINUOUS
370
-3
390
F
  0
LAYER
  5
201
100
AcDbSymbolTableRecord
100
AcDbLayerTableRecord
  2
01___PRT_DEF_DTM_PLN
 70
0
 62
7
  6
CONTINUOUS
370
-3
390
F
  0
LAYER
  5
202
100
AcDbSymbolTableRecord
100
AcDbLayerTableRecord
  2
02_ALL_AXES
 70
0
 62
7
  6
CONTINUOUS
370
-3
390
F
  0
LAYER
  5
203
100
AcDbSymbolTableRecord
100
AcDbLayerTableRecord
  2
02__ASM_ALL_AXES
 70
0
 62
7
  6
CONTINUOUS
370
-3
390
F
  0
LAYER
  5
204
100
AcDbSymbolTableRecord
100
AcDbLayerTableRecord
  2
02___PRT_ALL_AXES
 70
0
 62
7
  6
CONTINUOUS
370
-3
390
F
  0
LAYER
  5
205
100
AcDbSymbolTableRecord
100
AcDbLayerTableRecord
  2
03_ALL_CURVES
 70
0
 62
7
  6
CONTINUOUS
370
-3
390
F
  0
LAYER
  5
206
100
AcDbSymbolTableRecord
100
AcDbLayerTableRecord
  2
03__ASM_ALL_CURVES
 70
0
 62
7
  6
CONTINUOUS
370
-3
390
F
  0
LAYER
  5
207
100
AcDbSymbolTableRecord
100
AcDbLayerTableRecord
  2
03___PRT_ALL_CURVES
 70
0
 62
7
  6
CONTINUOUS
370
-3
390
F
  0
LAYER
  5
208
100
AcDbSymbolTableRecord
100
AcDbLayerTableRecord
  2
04_ALL_DTM_PNT
 70
0
 62
7
  6
CONTINUOUS
370
-3
390
F
  0
LAYER
  5
209
100
AcDbSymbolTableRecord
100
AcDbLayerTableRecord
  2
04__ASM_ALL_DTM_PNT
 70
0
 62
7
  6
CONTINUOUS
370
-3
390
F
  0
LAYER
  5
20A
100
AcDbSymbolTableRecord
100
AcDbLayerTableRecord
  2
04___PRT_ALL_DTM_PNT
 70
0
 62
7
  6
CONTINUOUS
370
-3
390
F
  0
LAYER
  5
20B
100
AcDbSymbolTableRecord
100
AcDbLayerTableRecord
  2
05_ALL_DTM_CSYS
 70
0
 62
7
  6
CONTINUOUS
370
-3
390
F
  0
LAYER
  5
20C
100
AcDbSymbolTableRecord
100
AcDbLayerTableRecord
  2
05__ASM_ALL_DTM_CSYS
 70
0
 62
7
  6
CONTINUOUS
370
-3
390
F
  0
LAYER
  5
20D
100
AcDbSymbolTableRecord
100
AcDbLayerTableRecord
  2
05__ASM_DEF_DTM_CSYS
 70
0
 62
7
  6
CONTINUOUS
370
-3
390
F
  0
LAYER
  5
20E
100
AcDbSymbolTableRecord
100
AcDbLayerTableRecord
  2
05___PRT_ALL_DTM_CSYS
 70
0
 62
7
  6
CONTINUOUS
370
-3
390
F
  0
LAYER
  5
20F
100
AcDbSymbolTableRecord
100
AcDbLayerTableRecord
  2
05___PRT_DEF_DTM_CSYS
 70
0
 62
7
  6
CONTINUOUS
370
-3
390
F
  0
LAYER
  5
210
100
AcDbSymbolTableRecord
100
AcDbLayerTableRecord
  2
06_ALL_SURFS
 70
0
 62
7
  6
CONTINUOUS
370
-3
390
F
  0
LAYER
  5
211
100
AcDbSymbolTableRecord
100
AcDbLayerTableRecord
  2
06__ASM_ALL_SURFS
 70
0
 62
7
  6
CONTINUOUS
370
-3
390
F
  0
LAYER
  5
212
100
AcDbSymbolTableRecord
100
AcDbLayerTableRecord
  2
06___PRT_ALL_SURFS
 70
0
 62
7
  6
CONTINUOUS
370
-3
390
F
  0
LAYER
  5
213
100
AcDbSymbolTableRecord
100
AcDbLayerTableRecord
  2
07__ASM_ALL_SKELETONS
 70
0
 62
7
  6
CONTINUOUS
370
-3
390
F
  0
LAYER
  5
214
100
AcDbSymbolTableRecord
100
AcDbLayerTableRecord
  2
LAYER_DIM
 70
0
 62
7
  6
CONTINUOUS
370
-3
390
F
  0
LAYER
  5
215
100
AcDbSymbolTableRecord
100
AcDbLayerTableRecord
  2
LAYER_FEATURE
 70
0
 62
7
  6
CONTINUOUS
370
-3
390
F
  0
LAYER
  5
216
100
AcDbSymbolTableRecord
100
AcDbLayerTableRecord
  2
LAYER_GEOM_FEAT
 70
0
 62
7
  6
CONTINUOUS
370
-3
390
F
  0
LAYER
  5
217
100
AcDbSymbolTableRecord
100
AcDbLayerTableRecord
  2
LAYER_PARAMETER_DIM
 70
0
 62
7
  6
CONTINUOUS
370
-3
390
F
  0
LAYER
  5
218
100
AcDbSymbolTableRecord
100
AcDbLayerTableRecord
  2
LAYER_PROTRUSION_FEAT
 70
0
 62
7
  6
CONTINUOUS
370
-3
390
F
  0
LAYER
  5
219
100
AcDbSymbolTableRecord
100
AcDbLayerTableRecord
  2
LAYER_ROUND_FEAT
 70
0
 62
7
  6
CONTINUOUS
370
-3
390
F
  0
ENDTAB
  0
TABLE
  2
STYLE
  5
3
100
AcDbSymbolTable
 70
1
  0
STYLE
  5
11
100
AcDbSymbolTableRecord
100
AcDbTextStyleTableRecord
  2
STANDARD
 70
0
 40
0.0
 41
0.8
 50
0.0
 71
0
 42
0.2
  3
txt
  4

  0
STYLE
  5
21A
100
AcDbSymbolTableRecord
100
AcDbTextStyleTableRecord
  2
TEXTSTYLE_1
 70
0
 40
0.0
 41
0.8
 50
0.0
 71
0
 42
0.2
  3
gdt
  4

  0
ENDTAB
  0
TABLE
  2
VIEW
  5
6
100
AcDbSymbolTable
 70
0
  0
ENDTAB
  0
TABLE
  2
UCS
  5
7
100
AcDbSymbolTable
 70
0
  0
ENDTAB
  0
TABLE
  2
APPID
  5
9
100
AcDbSymbolTable
 70
1
  0
APPID
  5
21B
100
AcDbSymbolTableRecord
100
AcDbRegAppTableRecord
  2
ACAD
 70
0
  0
ENDTAB
  0
TABLE
  2
BLOCK_RECORD
  5
1
100
AcDbSymbolTable
 70
0
  0
BLOCK_RECORD
  5
21C
100
AcDbSymbolTableRecord
100
AcDbBlockTableRecord
  2
*Model_Space
  0
BLOCK_RECORD
  5
21D
100
AcDbSymbolTableRecord
100
AcDbBlockTableRecord
  2
*Paper_Space
  0
ENDTAB
  0
TABLE
  2
DIMSTYLE
  5
A
100
AcDbSymbolTable
 70
1
100
AcDbDimStyleTable
 71
0
  0
DIMSTYLE
105
21E
100
AcDbSymbolTableRecord
100
AcDbDimStyleTableRecord
  2
STANDARD
 70
0
  3

  4

 40
1.0
 41
0.1875
 42
0.0625
 43
0.38
 44
0.125
 45
0.0
 46
0.0
 47
0.0001
 48
0.0001
140
0.15625
141
0.09
142
0.0
143
25.4
144
1.0
145
0.0
146
1.0
147
0.09
 71
0.0
 72
0.0
 73
1
 74
1
 75
0
 76
0
 77
0
 78
4
170
0
171
2
172
0
173
0
174
0
175
0
176
0
177
0
178
0
270
2
271
4
272
4
273
2
274
2
275
0
280
0
281
0
282
0
283
1
284
4
285
0
286
0
287
3
288
0
340
11
278
46
  0
ENDTAB
  0
ENDSEC
  0
SECTION
  2
BLOCKS
  0
BLOCK
  5
20
100
AcDbEntity
  8
0
100
AcDbBlockBegin
  2
*Model_Space
 70
0
 10
0.0
 20
0.0
 30
0.0
  3
*Model_Space
  1

  0
ENDBLK
  5
21
100
AcDbEntity
  8
0
100
AcDbBlockEnd
  0
BLOCK
  5
1C
100
AcDbEntity
  8
0
100
AcDbBlockBegin
  2
*Paper_Space
 70
0
 10
0.0
 20
0.0
 30
0.0
  3
*Paper_Space
  1

  0
ENDBLK
  5
1D
100
AcDbEntity
  8
0
100
AcDbBlockEnd
  0
ENDSEC
  0
SECTION
  2
ENTITIES
  0
MTEXT
  5
21F
100
AcDbEntity
  8
0
100
AcDbMText
 62
7
  6
CONTINUOUS
  7
STANDARD
 71
1
 72
1
 10
15.9560215477
 20
0.9479130325
 30
0.0
 11
1.0
 21
0.0
 31
0.0
 44
0.9
  1
SCALE: 1:1.000
 40
0.3
 41
3.36
  0
LINE
  5
220
100
AcDbEntity
  8
0
100
AcDbLine
 62
7
  6
CONTINUOUS
 10
0.0
 20
0.0
 11
0.0
 21
17.0
  0
LINE
  5
221
100
AcDbEntity
  8
0
100
AcDbLine
 62
7
  6
CONTINUOUS
 10
0.0
 20
0.0
 11
22.0
 21
0.0
  0
LINE
  5
222
100
AcDbEntity
  8
0
100
AcDbLine
 62
7
  6
CONTINUOUS
 10
0.0
 20
17.0
 11
22.0
 21
17.0
  0
LINE
  5
223
100
AcDbEntity
  8
0
100
AcDbLine
 62
7
  6
CONTINUOUS
 10
22.0
 20
0.0
 11
22.0
 21
17.0
  0
LINE
  5
224
100
AcDbEntity
  8
0
100
AcDbLine
 62
7
  6
CONTINUOUS
 10
2.6903672762
 20
5.8351198968
 11
2.6903672762
 21
5.7201198968
  0
LINE
  5
225
100
AcDbEntity
  8
0
100
AcDbLine
 62
7
  6
CONTINUOUS
 10
2.6903672762
 20
5.7201198968
 11
2.8473453078
 21
5.2158874316
  0
LINE
  5
226
100
AcDbEntity
  8
0
100
AcDbLine
 62
7
  6
CONTINUOUS
 10
3.5703672762
 20
5.7201198968
 11
3.5703672762
 21
5.7851198968
  0
LINE
  5
227
100
AcDbEntity
  8
0
100
AcDbLine
 62
7
  6
CONTINUOUS
 10
3.4133892446
 20
5.2158874316
 11
3.5703672762
 21
5.7201198968
  0
LINE
  5
228
100
AcDbEntity
  8
LAYER_FEATURE
100
AcDbLine
 62
7
  6
CONTINUOUS
 10
3.6903672762
 20
5.7851198968
 11
3.6903672762
 21
5.7201198968
  0
LINE
  5
229
100
AcDbEntity
  8
LAYER_FEATURE
100
AcDbLine
 62
7
  6
CONTINUOUS
 10
3.6903672762
 20
5.7201198968
 11
3.8473453078
 21
5.2158874316
  0
LINE
  5
22A
100
AcDbEntity
  8
LAYER_FEATURE
100
AcDbLine
 62
7
  6
CONTINUOUS
 10
4.5703672762
 20
5.7201198968
 11
4.5703672762
 21
5.7851198968
  0
LINE
  5
22B
100
AcDbEntity
  8
LAYER_FEATURE
100
AcDbLine
 62
7
  6
CONTINUOUS
 10
4.6903672762
 20
5.7851198968
 11
4.6903672762
 21
5.7201198968
  0
LINE
  5
22C
100
AcDbEntity
  8
LAYER_FEATURE
100
AcDbLine
 62
7
  6
CONTINUOUS
 10
4.4133892446
 20
5.2158874316
 11
4.5703672762
 21
5.7201198968
  0
LINE
  5
22D
100
AcDbEntity
  8
LAYER_FEATURE
100
AcDbLine
 62
7
  6
CONTINUOUS
 10
4.6903672762
 20
5.7201198968
 11
4.8473453078
 21
5.2158874316
  0
LINE
  5
22E
100
AcDbEntity
  8
LAYER_FEATURE
100
AcDbLine
 62
7
  6
CONTINUOUS
 10
5.5703672762
 20
5.7201198968
 11
5.5703672762
 21
5.7851198968
  0
LINE
  5
22F
100
AcDbEntity
  8
LAYER_FEATURE
100
AcDbLine
 62
7
  6
CONTINUOUS
 10
5.6903672762
 20
5.7851198968
 11
5.6903672762
 21
5.7201198968
  0
LINE
  5
230
100
AcDbEntity
  8
LAYER_FEATURE
100
AcDbLine
 62
7
  6
CONTINUOUS
 10
5.4133892446
 20
5.2158874316
 11
5.5703672762
 21
5.7201198968
  0
LINE
  5
231
100
AcDbEntity
  8
0
100
AcDbLine
 62
7
  6
CONTINUOUS
 10
2.8823546404
 20
5.1901198968
 11
3.3783799119
 21
5.1901198968
  0
LINE
  5
232
100
AcDbEntity
  8
LAYER_FEATURE
100
AcDbLine
 62
7
  6
CONTINUOUS
 10
3.8823546404
 20
5.1901198968
 11
4.3783799119
 21
5.1901198968
  0
LINE
  5
233
100
AcDbEntity
  8
LAYER_FEATURE
100
AcDbLine
 62
7
  6
CONTINUOUS
 10
4.8823546404
 20
5.1901198968
 11
5.3783799119
 21
5.1901198968
  0
LINE
  5
234
100
AcDbEntity
  8
LAYER_FEATURE
100
AcDbLine
 62
7
  6
CONTINUOUS
 10
5.8823546404
 20
5.1901198968
 11
6.3783799119
 21
5.1901198968
  0
LINE
  5
235
100
AcDbEntity
  8
LAYER_FEATURE
100
AcDbLine
 62
7
  6
CONTINUOUS
 10
6.8823546404
 20
5.1901198968
 11
7.3783799119
 21
5.1901198968
  0
LINE
  5
236
100
AcDbEntity
  8
LAYER_FEATURE
100
AcDbLine
 62
7
  6
CONTINUOUS
 10
7.8823546404
 20
5.1901198968
 11
8.3783799119
 21
5.1901198968
  0
LINE
  5
237
100
AcDbEntity
  8
LAYER_FEATURE
100
AcDbLine
 62
7
  6
CONTINUOUS
 10
8.8823546404
 20
5.1901198968
 11
9.3783799119
 21
5.1901198968
  0
LINE
  5
238
100
AcDbEntity
  8
LAYER_FEATURE
100
AcDbLine
 62
7
  6
CONTINUOUS
 10
5.6903672762
 20
5.7201198968
 11
5.8473453078
 21
5.2158874316
  0
LINE
  5
239
100
AcDbEntity
  8
LAYER_FEATURE
100
AcDbLine
 62
7
  6
CONTINUOUS
 10
6.5703672762
 20
5.7201198968
 11
6.5703672762
 21
5.7851198968
  0
LINE
  5
23A
100
AcDbEntity
  8
LAYER_FEATURE
100
AcDbLine
 62
7
  6
CONTINUOUS
 10
6.4133892446
 20
5.2158874316
 11
6.5703672762
 21
5.7201198968
  0
LINE
  5
23B
100
AcDbEntity
  8
LAYER_FEATURE
100
AcDbLine
 62
7
  6
CONTINUOUS
 10
3.5703672762
 20
5.7851198968
 11
3.6903672762
 21
5.7851198968
  0
LINE
  5
23C
100
AcDbEntity
  8
LAYER_FEATURE
100
AcDbLine
 62
7
  6
CONTINUOUS
 10
4.5703672762
 20
5.7851198968
 11
4.6903672762
 21
5.7851198968
  0
LINE
  5
23D
100
AcDbEntity
  8
LAYER_FEATURE
100
AcDbLine
 62
7
  6
CONTINUOUS
 10
5.5703672762
 20
5.7851198968
 11
5.6903672762
 21
5.7851198968
  0
LINE
  5
23E
100
AcDbEntity
  8
LAYER_FEATURE
100
AcDbLine
 62
7
  6
CONTINUOUS
 10
6.5703672762
 20
5.7851198968
 11
6.6903672762
 21
5.7851198968
  0
LINE
  5
23F
100
AcDbEntity
  8
LAYER_FEATURE
100
AcDbLine
 62
7
  6
CONTINUOUS
 10
7.5703672762
 20
5.7851198968
 11
7.6903672762
 21
5.7851198968
  0
LINE
  5
240
100
AcDbEntity
  8
LAYER_FEATURE
100
AcDbLine
 62
7
  6
CONTINUOUS
 10
8.5703672762
 20
5.7851198968
 11
8.6903672762
 21
5.7851198968
  0
LINE
  5
241
100
AcDbEntity
  8
0
100
AcDbLine
 62
7
  6
CONTINUOUS
 10
9.5553672762
 20
5.8501198968
 11
2.7053672762
 21
5.8501198968
  0
LINE
  5
242
100
AcDbEntity
  8
LAYER_FEATURE
100
AcDbLine
 62
7
  6
CONTINUOUS
 10
6.6903672762
 20
5.7851198968
 11
6.6903672762
 21
5.7201198968
  0
LINE
  5
243
100
AcDbEntity
  8
LAYER_FEATURE
100
AcDbLine
 62
7
  6
CONTINUOUS
 10
6.6903672762
 20
5.7201198968
 11
6.8473453078
 21
5.2158874316
  0
LINE
  5
244
100
AcDbEntity
  8
LAYER_FEATURE
100
AcDbLine
 62
7
  6
CONTINUOUS
 10
7.4133892446
 20
5.2158874316
 11
7.5703672762
 21
5.7201198968
  0
LINE
  5
245
100
AcDbEntity
  8
LAYER_FEATURE
100
AcDbLine
 62
7
  6
CONTINUOUS
 10
7.5703672762
 20
5.7201198968
 11
7.5703672762
 21
5.7851198968
  0
LINE
  5
246
100
AcDbEntity
  8
LAYER_FEATURE
100
AcDbLine
 62
7
  6
CONTINUOUS
 10
7.6903672762
 20
5.7851198968
 11
7.6903672762
 21
5.7201198968
  0
LINE
  5
247
100
AcDbEntity
  8
LAYER_FEATURE
100
AcDbLine
 62
7
  6
CONTINUOUS
 10
7.6903672762
 20
5.7201198968
 11
7.8473453078
 21
5.2158874316
  0
LINE
  5
248
100
AcDbEntity
  8
LAYER_FEATURE
100
AcDbLine
 62
7
  6
CONTINUOUS
 10
8.4133892446
 20
5.2158874316
 11
8.5703672762
 21
5.7201198968
  0
LINE
  5
249
100
AcDbEntity
  8
LAYER_FEATURE
100
AcDbLine
 62
7
  6
CONTINUOUS
 10
8.5703672762
 20
5.7201198968
 11
8.5703672762
 21
5.7851198968
  0
LINE
  5
24A
100
AcDbEntity
  8
LAYER_FEATURE
100
AcDbLine
 62
7
  6
CONTINUOUS
 10
8.6903672762
 20
5.7851198968
 11
8.6903672762
 21
5.7201198968
  0
LINE
  5
24B
100
AcDbEntity
  8
LAYER_FEATURE
100
AcDbLine
 62
7
  6
CONTINUOUS
 10
8.6903672762
 20
5.7201198968
 11
8.8473453078
 21
5.2158874316
  0
LINE
  5
24C
100
AcDbEntity
  8
0
100
AcDbLine
 62
7
  6
CONTINUOUS
 10
9.5703672762
 20
5.7201198968
 11
9.5703672762
 21
5.8351198968
  0
LINE
  5
24D
100
AcDbEntity
  8
LAYER_FEATURE
100
AcDbLine
 62
7
  6
CONTINUOUS
 10
9.4133892446
 20
5.2158874316
 11
9.5703672762
 21
5.7201198968
  0
LINE
  5
24E
100
AcDbEntity
  8
0
100
AcDbLine
 62
7
  6
CONTINUOUS
 10
2.6308720839
 20
14.6000477814
 11
2.6308720839
 21
10.6000477814
  0
LINE
  5
24F
100
AcDbEntity
  8
0
100
AcDbLine
 62
7
  6
CONTINUOUS
 10
9.5108720839
 20
10.6000477814
 11
2.6308720839
 21
10.6000477814
  0
LINE
  5
250
100
AcDbEntity
  8
0
100
AcDbLine
 62
7
  6
CONTINUOUS
 10
2.6308720839
 20
14.6000477814
 11
9.5108720839
 21
14.6000477814
  0
LINE
  5
251
100
AcDbEntity
  8
0
100
AcDbLine
 62
7
  6
CONTINUOUS
 10
9.5108720839
 20
10.6000477814
 11
9.5108720839
 21
14.6000477814
  0
LINE
  5
252
100
AcDbEntity
  8
LAYER_FEATURE
100
AcDbLine
 62
7
  6
CONTINUOUS
 10
13.5603552569
 20
5.1306247044
 11
13.5603552569
 21
5.6606247044
  0
LINE
  5
253
100
AcDbEntity
  8
0
100
AcDbLine
 62
7
  6
CONTINUOUS
 10
13.5603552569
 20
5.6606247044
 11
13.5603552569
 21
5.7906247044
  0
LINE
  5
254
100
AcDbEntity
  8
LAYER_FEATURE
100
AcDbLine
 62
7
  6
CONTINUOUS
 10
13.5603552569
 20
5.1306247044
 11
17.5603552569
 21
5.1306247044
  0
LINE
  5
255
100
AcDbEntity
  8
LAYER_FEATURE
100
AcDbLine
 62
7
  6
CONTINUOUS
 10
17.5603552569
 20
5.6606247044
 11
13.5603552569
 21
5.6606247044
  0
LINE
  5
256
100
AcDbEntity
  8
0
100
AcDbLine
 62
7
  6
CONTINUOUS
 10
13.5603552569
 20
5.7906247044
 11
17.5603552569
 21
5.7906247044
  0
LINE
  5
257
100
AcDbEntity
  8
0
100
AcDbLine
 62
7
  6
CONTINUOUS
 10
17.5603552569
 20
5.7906247044
 11
17.5603552569
 21
5.6606247044
  0
LINE
  5
258
100
AcDbEntity
  8
LAYER_FEATURE
100
AcDbLine
 62
7
  6
CONTINUOUS
 10
17.5603552569
 20
5.1306247044
 11
17.5603552569
 21
5.6606247044
  0
LINE
  5
259
100
AcDbEntity
  8
0
100
AcDbLine
 62
7
  6
CONTINUOUS
 10
11.796727662
 20
11.1399583137
 11
11.8318074766
 21
11.0684731673
  0
LINE
  5
25A
100
AcDbEntity
  8
0
100
AcDbLine
 62
7
  6
CONTINUOUS
 10
11.8318074766
 20
11.0684731673
 11
12.1302058309
 21
10.7550372406
  0
LINE
  5
25B
100
AcDbEntity
  8
0
100
AcDbLine
 62
7
  6
CONTINUOUS
 10
12.7644775578
 20
14.2776946627
 11
11.7962122642
 21
11.1443870242
  0
LINE
  5
25C
100
AcDbEntity
  8
LAYER_FEATURE
100
AcDbLine
 62
7
  6
CONTINUOUS
 10
12.7528684706
 20
11.0684731673
 11
13.0512668249
 21
10.7550372406
  0
LINE
  5
25D
100
AcDbEntity
  8
0
100
AcDbLine
 62
7
  6
CONTINUOUS
 10
12.6423411514
 20
11.0684731673
 11
12.62251343
 21
11.1088778152
  0
LINE
  5
25E
100
AcDbEntity
  8
LAYER_FEATURE
100
AcDbLine
 62
7
  6
CONTINUOUS
 10
12.7330407493
 20
11.1088778152
 11
12.7528684706
 21
11.0684731673
  0
LINE
  5
25F
100
AcDbEntity
  8
0
100
AcDbLine
 62
7
  6
CONTINUOUS
 10
12.6515668219
 20
10.7550372406
 11
12.6423411514
 21
11.0684731673
  0
LINE
  5
260
100
AcDbEntity
  8
0
100
AcDbLine
 62
7
  6
CONTINUOUS
 10
12.6510184766
 20
10.7509895922
 11
12.6515668219
 21
10.7550372406
  0
LINE
  5
261
100
AcDbEntity
  8
0
100
AcDbLine
 62
7
  6
CONTINUOUS
 10
12.6548271319
 20
11.1088778152
 11
12.6423411514
 21
11.0684731673
  0
LINE
  5
262
100
AcDbEntity
  8
0
100
AcDbLine
 62
7
  6
CONTINUOUS
 10
12.6522180752
 20
10.7548359881
 11
12.750580244
 21
11.0731360829
  0
LINE
  5
263
100
AcDbEntity
  8
LAYER_FEATURE
100
AcDbLine
 62
7
  6
CONTINUOUS
 10
13.6739294646
 20
11.0684731673
 11
13.9723278189
 21
10.7550372406
  0
LINE
  5
264
100
AcDbEntity
  8
LAYER_FEATURE
100
AcDbLine
 62
7
  6
CONTINUOUS
 10
13.5634021454
 20
11.0684731673
 11
13.543574424
 21
11.1088778152
  0
LINE
  5
265
100
AcDbEntity
  8
LAYER_FEATURE
100
AcDbLine
 62
7
  6
CONTINUOUS
 10
13.6541017433
 20
11.1088778152
 11
13.6739294646
 21
11.0684731673
  0
LINE
  5
266
100
AcDbEntity
  8
LAYER_FEATURE
100
AcDbLine
 62
7
  6
CONTINUOUS
 10
13.5726278159
 20
10.7550372406
 11
13.5634021454
 21
11.0684731673
  0
LINE
  5
267
100
AcDbEntity
  8
LAYER_FEATURE
100
AcDbLine
 62
7
  6
CONTINUOUS
 10
13.5720794706
 20
10.7509895922
 11
13.5726278159
 21
10.7550372406
  0
LINE
  5
268
100
AcDbEntity
  8
0
100
AcDbLine
 62
7
  6
CONTINUOUS
 10
12.1703117385
 20
10.7390198841
 11
12.6271812682
 21
10.7390198841
  0
LINE
  5
269
100
AcDbEntity
  8
LAYER_FEATURE
100
AcDbLine
 62
7
  6
CONTINUOUS
 10
13.0913727325
 20
10.7390198841
 11
13.5482422622
 21
10.7390198841
  0
LINE
  5
26A
100
AcDbEntity
  8
LAYER_FEATURE
100
AcDbLine
 62
7
  6
CONTINUOUS
 10
14.0124337265
 20
10.7390198841
 11
14.4693032562
 21
10.7390198841
  0
LINE
  5
26B
100
AcDbEntity
  8
LAYER_FEATURE
100
AcDbLine
 62
7
  6
CONTINUOUS
 10
14.9334947205
 20
10.7390198841
 11
15.3903642502
 21
10.7390198841
  0
LINE
  5
26C
100
AcDbEntity
  8
LAYER_FEATURE
100
AcDbLine
 62
7
  6
CONTINUOUS
 10
15.8545557145
 20
10.7390198841
 11
16.3114252442
 21
10.7390198841
  0
LINE
  5
26D
100
AcDbEntity
  8
LAYER_FEATURE
100
AcDbLine
 62
7
  6
CONTINUOUS
 10
16.7756167085
 20
10.7390198841
 11
17.2324862382
 21
10.7390198841
  0
LINE
  5
26E
100
AcDbEntity
  8
LAYER_FEATURE
100
AcDbLine
 62
7
  6
CONTINUOUS
 10
17.6966777025
 20
10.7390198841
 11
18.1535472322
 21
10.7390198841
  0
LINE
  5
26F
100
AcDbEntity
  8
LAYER_FEATURE
100
AcDbLine
 62
7
  6
CONTINUOUS
 10
14.5949904586
 20
11.0684731673
 11
14.8933888129
 21
10.7550372406
  0
LINE
  5
270
100
AcDbEntity
  8
LAYER_FEATURE
100
AcDbLine
 62
7
  6
CONTINUOUS
 10
13.5758881259
 20
11.1088778152
 11
13.5634021454
 21
11.0684731673
  0
LINE
  5
271
100
AcDbEntity
  8
LAYER_FEATURE
100
AcDbLine
 62
7
  6
CONTINUOUS
 10
12.62251343
 20
11.1088778152
 11
12.7330407493
 21
11.1088778152
  0
LINE
  5
272
100
AcDbEntity
  8
LAYER_FEATURE
100
AcDbLine
 62
7
  6
CONTINUOUS
 10
13.543574424
 20
11.1088778152
 11
13.6541017433
 21
11.1088778152
  0
LINE
  5
273
100
AcDbEntity
  8
LAYER_FEATURE
100
AcDbLine
 62
7
  6
CONTINUOUS
 10
14.464635418
 20
11.1088778152
 11
14.5751627373
 21
11.1088778152
  0
LINE
  5
274
100
AcDbEntity
  8
LAYER_FEATURE
100
AcDbLine
 62
7
  6
CONTINUOUS
 10
15.385696412
 20
11.1088778152
 11
15.4962237313
 21
11.1088778152
  0
LINE
  5
275
100
AcDbEntity
  8
LAYER_FEATURE
100
AcDbLine
 62
7
  6
CONTINUOUS
 10
16.306757406
 20
11.1088778152
 11
16.4172847253
 21
11.1088778152
  0
LINE
  5
276
100
AcDbEntity
  8
LAYER_FEATURE
100
AcDbLine
 62
7
  6
CONTINUOUS
 10
17.2278184
 20
11.1088778152
 11
17.3383457193
 21
11.1088778152
  0
LINE
  5
277
100
AcDbEntity
  8
0
100
AcDbLine
 62
7
  6
CONTINUOUS
 10
18.1152357578
 20
11.1492824632
 11
11.8059679489
 21
11.1492824632
  0
LINE
  5
278
100
AcDbEntity
  8
LAYER_FEATURE
100
AcDbLine
 62
7
  6
CONTINUOUS
 10
14.4844631394
 20
11.0684731673
 11
14.464635418
 21
11.1088778152
  0
LINE
  5
279
100
AcDbEntity
  8
LAYER_FEATURE
100
AcDbLine
 62
7
  6
CONTINUOUS
 10
14.5751627373
 20
11.1088778152
 11
14.5949904586
 21
11.0684731673
  0
LINE
  5
27A
100
AcDbEntity
  8
LAYER_FEATURE
100
AcDbLine
 62
7
  6
CONTINUOUS
 10
13.5732790692
 20
10.7548359881
 11
13.671641238
 21
11.0731360829
  0
LINE
  5
27B
100
AcDbEntity
  8
LAYER_FEATURE
100
AcDbLine
 62
7
  6
CONTINUOUS
 10
14.4936888099
 20
10.7550372406
 11
14.4844631394
 21
11.0684731673
  0
LINE
  5
27C
100
AcDbEntity
  8
LAYER_FEATURE
100
AcDbLine
 62
7
  6
CONTINUOUS
 10
15.5160514526
 20
11.0684731673
 11
15.8144498069
 21
10.7550372406
  0
LINE
  5
27D
100
AcDbEntity
  8
LAYER_FEATURE
100
AcDbLine
 62
7
  6
CONTINUOUS
 10
14.4931404646
 20
10.7509895922
 11
14.4936888099
 21
10.7550372406
  0
LINE
  5
27E
100
AcDbEntity
  8
LAYER_FEATURE
100
AcDbLine
 62
7
  6
CONTINUOUS
 10
14.4969491199
 20
11.1088778152
 11
14.4844631394
 21
11.0684731673
  0
LINE
  5
27F
100
AcDbEntity
  8
LAYER_FEATURE
100
AcDbLine
 62
7
  6
CONTINUOUS
 10
15.4055241334
 20
11.0684731673
 11
15.385696412
 21
11.1088778152
  0
LINE
  5
280
100
AcDbEntity
  8
LAYER_FEATURE
100
AcDbLine
 62
7
  6
CONTINUOUS
 10
15.4962237313
 20
11.1088778152
 11
15.5160514526
 21
11.0684731673
  0
LINE
  5
281
100
AcDbEntity
  8
LAYER_FEATURE
100
AcDbLine
 62
7
  6
CONTINUOUS
 10
14.4943400632
 20
10.7548359881
 11
14.592702232
 21
11.0731360829
  0
LINE
  5
282
100
AcDbEntity
  8
LAYER_FEATURE
100
AcDbLine
 62
7
  6
CONTINUOUS
 10
16.4371124466
 20
11.0684731673
 11
16.7355108009
 21
10.7550372406
  0
LINE
  5
283
100
AcDbEntity
  8
LAYER_FEATURE
100
AcDbLine
 62
7
  6
CONTINUOUS
 10
15.4147498039
 20
10.7550372406
 11
15.4055241334
 21
11.0684731673
  0
LINE
  5
284
100
AcDbEntity
  8
LAYER_FEATURE
100
AcDbLine
 62
7
  6
CONTINUOUS
 10
15.4142014586
 20
10.7509895922
 11
15.4147498039
 21
10.7550372406
  0
LINE
  5
285
100
AcDbEntity
  8
LAYER_FEATURE
100
AcDbLine
 62
7
  6
CONTINUOUS
 10
16.3265851274
 20
11.0684731673
 11
16.306757406
 21
11.1088778152
  0
LINE
  5
286
100
AcDbEntity
  8
LAYER_FEATURE
100
AcDbLine
 62
7
  6
CONTINUOUS
 10
16.4172847253
 20
11.1088778152
 11
16.4371124466
 21
11.0684731673
  0
LINE
  5
287
100
AcDbEntity
  8
LAYER_FEATURE
100
AcDbLine
 62
7
  6
CONTINUOUS
 10
15.4180101139
 20
11.1088778152
 11
15.4055241334
 21
11.0684731673
  0
LINE
  5
288
100
AcDbEntity
  8
LAYER_FEATURE
100
AcDbLine
 62
7
  6
CONTINUOUS
 10
15.4154010572
 20
10.7548359881
 11
15.513763226
 21
11.0731360829
  0
LINE
  5
289
100
AcDbEntity
  8
LAYER_FEATURE
100
AcDbLine
 62
7
  6
CONTINUOUS
 10
17.3581734407
 20
11.0684731673
 11
17.6565717949
 21
10.7550372406
  0
LINE
  5
28A
100
AcDbEntity
  8
LAYER_FEATURE
100
AcDbLine
 62
7
  6
CONTINUOUS
 10
16.3358107979
 20
10.7550372406
 11
16.3265851274
 21
11.0684731673
  0
LINE
  5
28B
100
AcDbEntity
  8
LAYER_FEATURE
100
AcDbLine
 62
7
  6
CONTINUOUS
 10
16.3352624526
 20
10.7509895922
 11
16.3358107979
 21
10.7550372406
  0
LINE
  5
28C
100
AcDbEntity
  8
LAYER_FEATURE
100
AcDbLine
 62
7
  6
CONTINUOUS
 10
17.2476461214
 20
11.0684731673
 11
17.2278184
 21
11.1088778152
  0
LINE
  5
28D
100
AcDbEntity
  8
LAYER_FEATURE
100
AcDbLine
 62
7
  6
CONTINUOUS
 10
17.3383457193
 20
11.1088778152
 11
17.3581734407
 21
11.0684731673
  0
LINE
  5
28E
100
AcDbEntity
  8
LAYER_FEATURE
100
AcDbLine
 62
7
  6
CONTINUOUS
 10
16.3390711079
 20
11.1088778152
 11
16.3265851274
 21
11.0684731673
  0
LINE
  5
28F
100
AcDbEntity
  8
LAYER_FEATURE
100
AcDbLine
 62
7
  6
CONTINUOUS
 10
16.3364620512
 20
10.7548359881
 11
16.43482422
 21
11.0731360829
  0
LINE
  5
290
100
AcDbEntity
  8
LAYER_FEATURE
100
AcDbLine
 62
7
  6
CONTINUOUS
 10
17.2568717919
 20
10.7550372406
 11
17.2476461214
 21
11.0684731673
  0
LINE
  5
291
100
AcDbEntity
  8
0
100
AcDbLine
 62
7
  6
CONTINUOUS
 10
12.7742332425
 20
14.2825901017
 11
19.0835010514
 21
14.2825901017
  0
LINE
  5
292
100
AcDbEntity
  8
0
100
AcDbLine
 62
7
  6
CONTINUOUS
 10
18.1687071154
 20
11.0684731673
 11
18.1336273007
 21
11.1399583137
  0
LINE
  5
293
100
AcDbEntity
  8
LAYER_FEATURE
100
AcDbLine
 62
7
  6
CONTINUOUS
 10
17.2563234466
 20
10.7509895922
 11
17.2568717919
 21
10.7550372406
  0
LINE
  5
294
100
AcDbEntity
  8
LAYER_FEATURE
100
AcDbLine
 62
7
  6
CONTINUOUS
 10
17.2601321019
 20
11.1088778152
 11
17.2476461214
 21
11.0684731673
  0
LINE
  5
295
100
AcDbEntity
  8
LAYER_FEATURE
100
AcDbLine
 62
7
  6
CONTINUOUS
 10
17.2575230452
 20
10.7548359881
 11
17.355885214
 21
11.0731360829
  0
LINE
  5
296
100
AcDbEntity
  8
LAYER_FEATURE
100
AcDbLine
 62
7
  6
CONTINUOUS
 10
18.1779327859
 20
10.7550372406
 11
18.1687071154
 21
11.0684731673
  0
LINE
  5
297
100
AcDbEntity
  8
LAYER_FEATURE
100
AcDbLine
 62
7
  6
CONTINUOUS
 10
18.1773844406
 20
10.7509895922
 11
18.1779327859
 21
10.7550372406
  0
LINE
  5
298
100
AcDbEntity
  8
LAYER_FEATURE
100
AcDbLine
 62
7
  6
CONTINUOUS
 10
19.136972409
 20
14.2017808058
 11
18.1687071154
 21
11.0684731673
  0
LINE
  5
299
100
AcDbEntity
  8
LAYER_FEATURE
100
AcDbLine
 62
7
  6
CONTINUOUS
 10
18.1785840392
 20
10.7548359881
 11
19.145659755
 21
13.8842941512
  0
LINE
  5
29A
100
AcDbEntity
  8
LAYER_FEATURE
100
AcDbLine
 62
7
  6
CONTINUOUS
 10
19.1461980796
 20
13.8883448791
 11
19.1456497342
 21
13.8842972307
  0
LINE
  5
29B
100
AcDbEntity
  8
LAYER_FEATURE
100
AcDbLine
 62
7
  6
CONTINUOUS
 10
19.1461980796
 20
13.8883448791
 11
19.136972409
 21
14.2017808058
  0
LINE
  5
29C
100
AcDbEntity
  8
0
100
AcDbLine
 62
7
  6
CONTINUOUS
 10
19.1018925943
 20
14.2732659522
 11
19.136972409
 21
14.2017808058
  0
ARC
  5
29D
100
AcDbEntity
  8
0
100
AcDbCircle
 62
7
  6
CONTINUOUS
 10
2.8823546404
 20
5.2267865634
 40
0.0366666667
100
AcDbArc
 50
197.2924493999
 51
270.0
  0
ARC
  5
29E
100
AcDbEntity
  8
0
100
AcDbCircle
 62
7
  6
CONTINUOUS
 10
3.3783799119
 20
5.2267865634
 40
0.0366666667
100
AcDbArc
 50
270.0
 51
342.7075506001
  0
ARC
  5
29F
100
AcDbEntity
  8
LAYER_FEATURE
100
AcDbCircle
 62
7
  6
CONTINUOUS
 10
3.8823546404
 20
5.2267865634
 40
0.0366666667
100
AcDbArc
 50
197.2924493999
 51
270.0
  0
ARC
  5
2A0
100
AcDbEntity
  8
LAYER_FEATURE
100
AcDbCircle
 62
7
  6
CONTINUOUS
 10
4.3783799119
 20
5.2267865634
 40
0.0366666667
100
AcDbArc
 50
270.0
 51
342.7075506001
  0
ARC
  5
2A1
100
AcDbEntity
  8
LAYER_FEATURE
100
AcDbCircle
 62
7
  6
CONTINUOUS
 10
4.8823546404
 20
5.2267865634
 40
0.0366666667
100
AcDbArc
 50
197.2924493999
 51
270.0
  0
ARC
  5
2A2
100
AcDbEntity
  8
LAYER_FEATURE
100
AcDbCircle
 62
7
  6
CONTINUOUS
 10
5.3783799119
 20
5.2267865634
 40
0.0366666667
100
AcDbArc
 50
270.0
 51
342.7075506001
  0
ARC
  5
2A3
100
AcDbEntity
  8
LAYER_FEATURE
100
AcDbCircle
 62
7
  6
CONTINUOUS
 10
5.8823546404
 20
5.2267865634
 40
0.0366666667
100
AcDbArc
 50
197.2924493999
 51
270.0
  0
ARC
  5
2A4
100
AcDbEntity
  8
LAYER_FEATURE
100
AcDbCircle
 62
7
  6
CONTINUOUS
 10
6.3783799119
 20
5.2267865634
 40
0.0366666667
100
AcDbArc
 50
270.0
 51
342.7075506001
  0
ARC
  5
2A5
100
AcDbEntity
  8
LAYER_FEATURE
100
AcDbCircle
 62
7
  6
CONTINUOUS
 10
6.8823546404
 20
5.2267865634
 40
0.0366666667
100
AcDbArc
 50
197.2924493999
 51
270.0
  0
ARC
  5
2A6
100
AcDbEntity
  8
LAYER_FEATURE
100
AcDbCircle
 62
7
  6
CONTINUOUS
 10
7.3783799119
 20
5.2267865634
 40
0.0366666667
100
AcDbArc
 50
270.0
 51
342.7075506001
  0
ARC
  5
2A7
100
AcDbEntity
  8
LAYER_FEATURE
100
AcDbCircle
 62
7
  6
CONTINUOUS
 10
7.8823546404
 20
5.2267865634
 40
0.0366666667
100
AcDbArc
 50
197.2924493999
 51
270.0
  0
ARC
  5
2A8
100
AcDbEntity
  8
LAYER_FEATURE
100
AcDbCircle
 62
7
  6
CONTINUOUS
 10
8.3783799119
 20
5.2267865634
 40
0.0366666667
100
AcDbArc
 50
270.0
 51
342.7075506001
  0
ARC
  5
2A9
100
AcDbEntity
  8
LAYER_FEATURE
100
AcDbCircle
 62
7
  6
CONTINUOUS
 10
9.3783799119
 20
5.2267865634
 40
0.0366666667
100
AcDbArc
 50
270.0
 51
342.7075506001
  0
ARC
  5
2AA
100
AcDbEntity
  8
LAYER_FEATURE
100
AcDbCircle
 62
7
  6
CONTINUOUS
 10
8.8823546404
 20
5.2267865634
 40
0.0366666667
100
AcDbArc
 50
197.2924493999
 51
270.0
  0
ARC
  5
2AB
100
AcDbEntity
  8
0
100
AcDbCircle
 62
7
  6
CONTINUOUS
 10
2.7053672762
 20
5.8351198968
 40
0.015
100
AcDbArc
 50
90.0
 51
180.0
  0
ARC
  5
2AC
100
AcDbEntity
  8
0
100
AcDbCircle
 62
7
  6
CONTINUOUS
 10
9.5553672762
 20
5.8351198968
 40
0.015
100
AcDbArc
 50
0.0
 51
90.0
  0
SPLINE
  5
2AD
100
AcDbEntity
  8
0
100
AcDbSpline
 62
7
  6
CONTINUOUS
 70
0
 71
3
 72
15
 73
11
 74
0
 42
0.0000001
 43
0.0000001
 44
0.0000000001
 40
0.0
 40
0.0
 40
0.0
 40
0.0
 40
0.1294165569
 40
0.2645180781
 40
0.4012970774
 40
0.5362628266
 40
0.6661560434
 40
0.78813941
 40
0.8999194788
 40
1.0
 40
1.0
 40
1.0
 40
1.0
 10
19.0835010514
 20
14.2825901017
 30
0.0
 10
19.0844289049
 20
14.2825901017
 30
0.0
 10
19.0863267092
 20
14.2824598935
 30
0.0
 10
19.0891607722
 20
14.2819314601
 30
0.0
 10
19.0919551245
 20
14.2810734835
 30
0.0
 10
19.0946029676
 20
14.2799260031
 30
0.0
 10
19.0970057147
 20
14.2785271797
 30
0.0
 10
19.0990786059
 20
14.2769310955
 30
0.0
 10
19.1007366257
 20
14.2751915605
 30
0.0
 10
19.1015764924
 20
14.2739101001
 30
0.0
 10
19.1018925943
 20
14.2732659522
 30
0.0
  0
SPLINE
  5
2AE
100
AcDbEntity
  8
0
100
AcDbSpline
 62
7
  6
CONTINUOUS
 70
0
 71
3
 72
10
 73
6
 74
0
 42
0.0000001
 43
0.0000001
 44
0.0000000001
 40
0.0
 40
0.0
 40
0.0
 40
0.0
 40
0.2343758129
 40
0.4761728829
 40
1.0
 40
1.0
 40
1.0
 40
1.0
 10
11.7962123505
 20
11.1443869723
 30
0.0
 10
11.7961071224
 20
11.1440472072
 30
0.0
 10
11.7959691713
 20
11.1433307279
 30
0.0
 10
11.7960060482
 20
11.1418050261
 30
0.0
 10
11.7963774498
 20
11.1406719711
 30
0.0
 10
11.796727662
 20
11.1399583137
 30
0.0
  0
SPLINE
  5
2AF
100
AcDbEntity
  8
0
100
AcDbSpline
 62
7
  6
CONTINUOUS
 70
0
 71
3
 72
13
 73
9
 74
0
 42
0.0000001
 43
0.0000001
 44
0.0000000001
 40
0.0
 40
0.0
 40
0.0
 40
0.0
 40
0.0997942201
 40
0.2030647278
 40
0.3128498857
 40
0.4312452013
 40
0.6971835619
 40
1.0
 40
1.0
 40
1.0
 40
1.0
 10
12.7644776441
 20
14.2776946108
 30
0.0
 10
12.7645920073
 20
14.2780638713
 30
0.0
 10
12.7649158118
 20
14.2787899798
 30
0.0
 10
12.7656525044
 20
14.279763762
 30
0.0
 10
12.7666274988
 20
14.2806115265
 30
0.0
 10
12.7682781861
 20
14.2815967581
 30
0.0
 10
12.7708508904
 20
14.2824026458
 30
0.0
 10
12.7730602475
 20
14.2825901017
 30
0.0
 10
12.7742332425
 20
14.2825901017
 30
0.0
  0
SPLINE
  5
2B0
100
AcDbEntity
  8
LAYER_FEATURE
100
AcDbSpline
 62
7
  6
CONTINUOUS
 70
0
 71
3
 72
14
 73
10
 74
0
 42
0.0000001
 43
0.0000001
 44
0.0000000001
 40
0.0
 40
0.0
 40
0.0
 40
0.0
 40
0.155655511
 40
0.303287306
 40
0.5688079497
 40
0.6871061692
 40
0.7968491719
 40
0.9001568268
 40
1.0
 40
1.0
 40
1.0
 40
1.0
 10
18.1535472322
 20
10.7390198841
 30
0.0
 10
18.1550217028
 20
10.7390198841
 30
0.0
 10
18.1578980434
 20
10.7391485647
 30
0.0
 10
18.1632333991
 20
10.7399181524
 30
0.0
 10
18.1681032172
 20
10.7414492497
 30
0.0
 10
18.172136354
 20
10.7438526827
 30
0.0
 10
18.1745184277
 20
10.7459266646
 30
0.0
 10
18.1763246748
 20
10.7483051191
 30
0.0
 10
18.1771135764
 20
10.7500833876
 30
0.0
 10
18.1773924867
 20
10.7509871068
 30
0.0
  0
SPLINE
  5
2B1
100
AcDbEntity
  8
LAYER_FEATURE
100
AcDbSpline
 62
7
  6
CONTINUOUS
 70
0
 71
3
 72
15
 73
11
 74
0
 42
0.0000001
 43
0.0000001
 44
0.0000000001
 40
0.0
 40
0.0
 40
0.0
 40
0.0
 40
0.1116623419
 40
0.2310660377
 40
0.3563173076
 40
0.4855088763
 40
0.6166364052
 40
0.7475997288
 40
0.8762153269
 40
1.0
 40
1.0
 40
1.0
 40
1.0
 10
17.6565717949
 20
10.7550372406
 30
0.0
 10
17.6577070908
 20
10.7538447323
 30
0.0
 10
17.6602316138
 20
10.7515408343
 30
0.0
 10
17.6644995619
 20
10.7484603209
 30
0.0
 10
17.6692897303
 20
10.7457134168
 30
0.0
 10
17.6744756638
 20
10.743363516
 30
0.0
 10
17.6799341948
 20
10.7414705778
 30
0.0
 10
17.6855325727
 20
10.7400768247
 30
0.0
 10
17.6911287386
 20
10.7392249704
 30
0.0
 10
17.6948524509
 20
10.7390198841
 30
0.0
 10
17.6966777025
 20
10.7390198841
 30
0.0
  0
SPLINE
  5
2B2
100
AcDbEntity
  8
LAYER_FEATURE
100
AcDbSpline
 62
7
  6
CONTINUOUS
 70
0
 71
3
 72
14
 73
10
 74
0
 42
0.0000001
 43
0.0000001
 44
0.0000000001
 40
0.0
 40
0.0
 40
0.0
 40
0.0
 40
0.155655511
 40
0.303287306
 40
0.5688079497
 40
0.6871061692
 40
0.7968491719
 40
0.9001568268
 40
1.0
 40
1.0
 40
1.0
 40
1.0
 10
17.2324862382
 20
10.7390198841
 30
0.0
 10
17.2339607088
 20
10.7390198841
 30
0.0
 10
17.2368370494
 20
10.7391485647
 30
0.0
 10
17.2421724051
 20
10.7399181524
 30
0.0
 10
17.2470422232
 20
10.7414492497
 30
0.0
 10
17.25107536
 20
10.7438526827
 30
0.0
 10
17.2534574337
 20
10.7459266646
 30
0.0
 10
17.2552636808
 20
10.7483051191
 30
0.0
 10
17.2560525824
 20
10.7500833876
 30
0.0
 10
17.2563314927
 20
10.7509871068
 30
0.0
  0
SPLINE
  5
2B3
100
AcDbEntity
  8
LAYER_FEATURE
100
AcDbSpline
 62
7
  6
CONTINUOUS
 70
0
 71
3
 72
15
 73
11
 74
0
 42
0.0000001
 43
0.0000001
 44
0.0000000001
 40
0.0
 40
0.0
 40
0.0
 40
0.0
 40
0.1116623419
 40
0.2310660377
 40
0.3563173076
 40
0.4855088763
 40
0.6166364052
 40
0.7475997288
 40
0.8762153269
 40
1.0
 40
1.0
 40
1.0
 40
1.0
 10
16.7355108009
 20
10.7550372406
 30
0.0
 10
16.7366460968
 20
10.7538447323
 30
0.0
 10
16.7391706198
 20
10.7515408343
 30
0.0
 10
16.7434385679
 20
10.7484603209
 30
0.0
 10
16.7482287363
 20
10.7457134168
 30
0.0
 10
16.7534146698
 20
10.743363516
 30
0.0
 10
16.7588732008
 20
10.7414705778
 30
0.0
 10
16.7644715787
 20
10.7400768247
 30
0.0
 10
16.7700677446
 20
10.7392249704
 30
0.0
 10
16.7737914569
 20
10.7390198841
 30
0.0
 10
16.7756167085
 20
10.7390198841
 30
0.0
  0
SPLINE
  5
2B4
100
AcDbEntity
  8
LAYER_FEATURE
100
AcDbSpline
 62
7
  6
CONTINUOUS
 70
0
 71
3
 72
14
 73
10
 74
0
 42
0.0000001
 43
0.0000001
 44
0.0000000001
 40
0.0
 40
0.0
 40
0.0
 40
0.0
 40
0.155655511
 40
0.303287306
 40
0.5688079497
 40
0.6871061692
 40
0.7968491719
 40
0.9001568268
 40
1.0
 40
1.0
 40
1.0
 40
1.0
 10
16.3114252442
 20
10.7390198841
 30
0.0
 10
16.3128997148
 20
10.7390198841
 30
0.0
 10
16.3157760554
 20
10.7391485647
 30
0.0
 10
16.3211114111
 20
10.7399181524
 30
0.0
 10
16.3259812292
 20
10.7414492497
 30
0.0
 10
16.330014366
 20
10.7438526827
 30
0.0
 10
16.3323964397
 20
10.7459266646
 30
0.0
 10
16.3342026868
 20
10.7483051191
 30
0.0
 10
16.3349915884
 20
10.7500833876
 30
0.0
 10
16.3352704987
 20
10.7509871068
 30
0.0
  0
SPLINE
  5
2B5
100
AcDbEntity
  8
LAYER_FEATURE
100
AcDbSpline
 62
7
  6
CONTINUOUS
 70
0
 71
3
 72
15
 73
11
 74
0
 42
0.0000001
 43
0.0000001
 44
0.0000000001
 40
0.0
 40
0.0
 40
0.0
 40
0.0
 40
0.1116623419
 40
0.2310660377
 40
0.3563173076
 40
0.4855088763
 40
0.6166364052
 40
0.7475997288
 40
0.8762153269
 40
1.0
 40
1.0
 40
1.0
 40
1.0
 10
15.8144498069
 20
10.7550372406
 30
0.0
 10
15.8155851028
 20
10.7538447323
 30
0.0
 10
15.8181096258
 20
10.7515408343
 30
0.0
 10
15.8223775739
 20
10.7484603209
 30
0.0
 10
15.8271677423
 20
10.7457134168
 30
0.0
 10
15.8323536758
 20
10.743363516
 30
0.0
 10
15.8378122068
 20
10.7414705778
 30
0.0
 10
15.8434105847
 20
10.7400768247
 30
0.0
 10
15.8490067506
 20
10.7392249704
 30
0.0
 10
15.8527304629
 20
10.7390198841
 30
0.0
 10
15.8545557145
 20
10.7390198841
 30
0.0
  0
SPLINE
  5
2B6
100
AcDbEntity
  8
LAYER_FEATURE
100
AcDbSpline
 62
7
  6
CONTINUOUS
 70
0
 71
3
 72
14
 73
10
 74
0
 42
0.0000001
 43
0.0000001
 44
0.0000000001
 40
0.0
 40
0.0
 40
0.0
 40
0.0
 40
0.155655511
 40
0.303287306
 40
0.5688079497
 40
0.6871061692
 40
0.7968491719
 40
0.9001568268
 40
1.0
 40
1.0
 40
1.0
 40
1.0
 10
15.3903642502
 20
10.7390198841
 30
0.0
 10
15.3918387208
 20
10.7390198841
 30
0.0
 10
15.3947150614
 20
10.7391485647
 30
0.0
 10
15.4000504171
 20
10.7399181524
 30
0.0
 10
15.4049202352
 20
10.7414492497
 30
0.0
 10
15.408953372
 20
10.7438526827
 30
0.0
 10
15.4113354457
 20
10.7459266646
 30
0.0
 10
15.4131416928
 20
10.7483051191
 30
0.0
 10
15.4139305944
 20
10.7500833876
 30
0.0
 10
15.4142095047
 20
10.7509871068
 30
0.0
  0
SPLINE
  5
2B7
100
AcDbEntity
  8
LAYER_FEATURE
100
AcDbSpline
 62
7
  6
CONTINUOUS
 70
0
 71
3
 72
15
 73
11
 74
0
 42
0.0000001
 43
0.0000001
 44
0.0000000001
 40
0.0
 40
0.0
 40
0.0
 40
0.0
 40
0.1116623419
 40
0.2310660377
 40
0.3563173076
 40
0.4855088763
 40
0.6166364052
 40
0.7475997288
 40
0.8762153269
 40
1.0
 40
1.0
 40
1.0
 40
1.0
 10
14.8933888129
 20
10.7550372406
 30
0.0
 10
14.8945241088
 20
10.7538447323
 30
0.0
 10
14.8970486318
 20
10.7515408343
 30
0.0
 10
14.9013165799
 20
10.7484603209
 30
0.0
 10
14.9061067483
 20
10.7457134168
 30
0.0
 10
14.9112926818
 20
10.743363516
 30
0.0
 10
14.9167512128
 20
10.7414705778
 30
0.0
 10
14.9223495907
 20
10.7400768247
 30
0.0
 10
14.9279457566
 20
10.7392249704
 30
0.0
 10
14.9316694689
 20
10.7390198841
 30
0.0
 10
14.9334947205
 20
10.7390198841
 30
0.0
  0
SPLINE
  5
2B8
100
AcDbEntity
  8
LAYER_FEATURE
100
AcDbSpline
 62
7
  6
CONTINUOUS
 70
0
 71
3
 72
14
 73
10
 74
0
 42
0.0000001
 43
0.0000001
 44
0.0000000001
 40
0.0
 40
0.0
 40
0.0
 40
0.0
 40
0.155655511
 40
0.303287306
 40
0.5688079497
 40
0.6871061692
 40
0.7968491719
 40
0.9001568268
 40
1.0
 40
1.0
 40
1.0
 40
1.0
 10
14.4693032562
 20
10.7390198841
 30
0.0
 10
14.4707777268
 20
10.7390198841
 30
0.0
 10
14.4736540674
 20
10.7391485647
 30
0.0
 10
14.4789894231
 20
10.7399181524
 30
0.0
 10
14.4838592412
 20
10.7414492497
 30
0.0
 10
14.487892378
 20
10.7438526827
 30
0.0
 10
14.4902744517
 20
10.7459266646
 30
0.0
 10
14.4920806988
 20
10.7483051191
 30
0.0
 10
14.4928696004
 20
10.7500833876
 30
0.0
 10
14.4931485107
 20
10.7509871068
 30
0.0
  0
SPLINE
  5
2B9
100
AcDbEntity
  8
LAYER_FEATURE
100
AcDbSpline
 62
7
  6
CONTINUOUS
 70
0
 71
3
 72
15
 73
11
 74
0
 42
0.0000001
 43
0.0000001
 44
0.0000000001
 40
0.0
 40
0.0
 40
0.0
 40
0.0
 40
0.1116623419
 40
0.2310660377
 40
0.3563173076
 40
0.4855088763
 40
0.6166364052
 40
0.7475997288
 40
0.8762153269
 40
1.0
 40
1.0
 40
1.0
 40
1.0
 10
13.9723278189
 20
10.7550372406
 30
0.0
 10
13.9734631148
 20
10.7538447323
 30
0.0
 10
13.9759876378
 20
10.7515408343
 30
0.0
 10
13.9802555859
 20
10.7484603209
 30
0.0
 10
13.9850457543
 20
10.7457134168
 30
0.0
 10
13.9902316877
 20
10.743363516
 30
0.0
 10
13.9956902188
 20
10.7414705778
 30
0.0
 10
14.0012885967
 20
10.7400768247
 30
0.0
 10
14.0068847626
 20
10.7392249704
 30
0.0
 10
14.0106084749
 20
10.7390198841
 30
0.0
 10
14.0124337265
 20
10.7390198841
 30
0.0
  0
SPLINE
  5
2BA
100
AcDbEntity
  8
LAYER_FEATURE
100
AcDbSpline
 62
7
  6
CONTINUOUS
 70
0
 71
3
 72
14
 73
10
 74
0
 42
0.0000001
 43
0.0000001
 44
0.0000000001
 40
0.0
 40
0.0
 40
0.0
 40
0.0
 40
0.155655511
 40
0.303287306
 40
0.5688079497
 40
0.6871061692
 40
0.7968491719
 40
0.9001568268
 40
1.0
 40
1.0
 40
1.0
 40
1.0
 10
13.5482422622
 20
10.7390198841
 30
0.0
 10
13.5497167328
 20
10.7390198841
 30
0.0
 10
13.5525930734
 20
10.7391485647
 30
0.0
 10
13.5579284291
 20
10.7399181524
 30
0.0
 10
13.5627982472
 20
10.7414492497
 30
0.0
 10
13.566831384
 20
10.7438526827
 30
0.0
 10
13.5692134577
 20
10.7459266646
 30
0.0
 10
13.5710197048
 20
10.7483051191
 30
0.0
 10
13.5718086064
 20
10.7500833876
 30
0.0
 10
13.5720875167
 20
10.7509871068
 30
0.0
  0
SPLINE
  5
2BB
100
AcDbEntity
  8
LAYER_FEATURE
100
AcDbSpline
 62
7
  6
CONTINUOUS
 70
0
 71
3
 72
15
 73
11
 74
0
 42
0.0000001
 43
0.0000001
 44
0.0000000001
 40
0.0
 40
0.0
 40
0.0
 40
0.0
 40
0.1116623419
 40
0.2310660377
 40
0.3563173076
 40
0.4855088763
 40
0.6166364052
 40
0.7475997288
 40
0.8762153269
 40
1.0
 40
1.0
 40
1.0
 40
1.0
 10
13.0512668249
 20
10.7550372406
 30
0.0
 10
13.0524021208
 20
10.7538447323
 30
0.0
 10
13.0549266438
 20
10.7515408343
 30
0.0
 10
13.0591945919
 20
10.7484603209
 30
0.0
 10
13.0639847603
 20
10.7457134168
 30
0.0
 10
13.0691706937
 20
10.743363516
 30
0.0
 10
13.0746292248
 20
10.7414705778
 30
0.0
 10
13.0802276027
 20
10.7400768247
 30
0.0
 10
13.0858237686
 20
10.7392249704
 30
0.0
 10
13.0895474809
 20
10.7390198841
 30
0.0
 10
13.0913727325
 20
10.7390198841
 30
0.0
  0
SPLINE
  5
2BC
100
AcDbEntity
  8
0
100
AcDbSpline
 62
7
  6
CONTINUOUS
 70
0
 71
3
 72
14
 73
10
 74
0
 42
0.0000001
 43
0.0000001
 44
0.0000000001
 40
0.0
 40
0.0
 40
0.0
 40
0.0
 40
0.155655511
 40
0.303287306
 40
0.5688079497
 40
0.6871061692
 40
0.7968491719
 40
0.9001568268
 40
1.0
 40
1.0
 40
1.0
 40
1.0
 10
12.6271812682
 20
10.7390198841
 30
0.0
 10
12.6286557388
 20
10.7390198841
 30
0.0
 10
12.6315320794
 20
10.7391485647
 30
0.0
 10
12.6368674351
 20
10.7399181524
 30
0.0
 10
12.6417372532
 20
10.7414492497
 30
0.0
 10
12.64577039
 20
10.7438526827
 30
0.0
 10
12.6481524637
 20
10.7459266646
 30
0.0
 10
12.6499587108
 20
10.7483051191
 30
0.0
 10
12.6507476124
 20
10.7500833876
 30
0.0
 10
12.6510265227
 20
10.7509871068
 30
0.0
  0
SPLINE
  5
2BD
100
AcDbEntity
  8
0
100
AcDbSpline
 62
7
  6
CONTINUOUS
 70
0
 71
3
 72
15
 73
11
 74
0
 42
0.0000001
 43
0.0000001
 44
0.0000000001
 40
0.0
 40
0.0
 40
0.0
 40
0.0
 40
0.1116623419
 40
0.2310660377
 40
0.3563173076
 40
0.4855088763
 40
0.6166364052
 40
0.7475997288
 40
0.8762153269
 40
1.0
 40
1.0
 40
1.0
 40
1.0
 10
12.1302058309
 20
10.7550372406
 30
0.0
 10
12.1313411268
 20
10.7538447323
 30
0.0
 10
12.1338656498
 20
10.7515408343
 30
0.0
 10
12.1381335979
 20
10.7484603209
 30
0.0
 10
12.1429237663
 20
10.7457134168
 30
0.0
 10
12.1481096997
 20
10.743363516
 30
0.0
 10
12.1535682308
 20
10.7414705778
 30
0.0
 10
12.1591666087
 20
10.7400768247
 30
0.0
 10
12.1647627746
 20
10.7392249704
 30
0.0
 10
12.1684864869
 20
10.7390198841
 30
0.0
 10
12.1703117385
 20
10.7390198841
 30
0.0
  0
SPLINE
  5
2BE
100
AcDbEntity
  8
0
100
AcDbSpline
 62
7
  6
CONTINUOUS
 70
0
 71
3
 72
13
 73
9
 74
0
 42
0.0000001
 43
0.0000001
 44
0.0000000001
 40
0.0
 40
0.0
 40
0.0
 40
0.0
 40
0.3028164381
 40
0.5687547987
 40
0.6871501143
 40
0.7969352722
 40
0.9002057799
 40
1.0
 40
1.0
 40
1.0
 40
1.0
 10
11.8059679489
 20
11.1492824632
 30
0.0
 10
11.8047949539
 20
11.1492824632
 30
0.0
 10
11.8025855967
 20
11.1490950073
 30
0.0
 10
11.8000128925
 20
11.1482891196
 30
0.0
 10
11.7983622052
 20
11.147303888
 30
0.0
 10
11.7973872108
 20
11.1464561235
 30
0.0
 10
11.7966505181
 20
11.1454823413
 30
0.0
 10
11.7963267136
 20
11.1447562328
 30
0.0
 10
11.7962123505
 20
11.1443869723
 30
0.0
  0
SPLINE
  5
2BF
100
AcDbEntity
  8
0
100
AcDbSpline
 62
7
  6
CONTINUOUS
 70
0
 71
3
 72
15
 73
11
 74
0
 42
0.0000001
 43
0.0000001
 44
0.0000000001
 40
0.0
 40
0.0
 40
0.0
 40
0.0
 40
0.1000805212
 40
0.21186059
 40
0.3338439566
 40
0.4637371734
 40
0.5987029226
 40
0.7354819219
 40
0.8705834431
 40
1.0
 40
1.0
 40
1.0
 40
1.0
 10
18.1336273007
 20
11.1399583137
 30
0.0
 10
18.1333111988
 20
11.1406024616
 30
0.0
 10
18.1324713321
 20
11.141883922
 30
0.0
 10
18.1308133123
 20
11.143623457
 30
0.0
 10
18.1287404211
 20
11.1452195412
 30
0.0
 10
18.1263376739
 20
11.1466183646
 30
0.0
 10
18.1236898309
 20
11.147765845
 30
0.0
 10
18.1208954785
 20
11.1486238215
 30
0.0
 10
18.1180614155
 20
11.149152255
 30
0.0
 10
18.1161636112
 20
11.1492824632
 30
0.0
 10
18.1152357578
 20
11.1492824632
 30
0.0
  0
ENDSEC
  0
SECTION
  2
OBJECTS
  0
DICTIONARY
  5
C
100
AcDbDictionary
280
0
281
1
  3
ACAD_GROUP
350
D
  3
ACAD_MLINESTYLE
350
17
  3
ACAD_LAYOUT
350
1A
  3
ACAD_PLOTSETTINGS
350
19
  3
ACAD_PLOTSTYLENAME
350
E
  0
DICTIONARY
  5
D
102
{ACAD_REACTORS
330
C
102
}
100
AcDbDictionary
280
0
281
1
  0
ACDBDICTIONARYWDFLT
  5
E
102
{ACAD_REACTORS
330
C
102
}
100
AcDbDictionary
281
1
  3
Normal
350
F
100
AcDbDictionaryWithDefault
340
F
  0
DICTIONARY
  5
17
102
{ACAD_REACTORS
330
C
102
}
100
AcDbDictionary
280
0
281
1
  3
Standard
350
18
  0
DICTIONARY
  5
19
102
{ACAD_REACTORS
330
C
102
}
100
AcDbDictionary
281
1
  0
DICTIONARY
  5
1A
102
{ACAD_REACTORS
330
C
102
}
100
AcDbDictionary
281
1
  3
Model
350
2C0
  3
Layout1
350
2C1
  0
ACDBPLACEHOLDER
  5
F
102
{ACAD_REACTORS
330
E
102
}
  0
MLINESTYLE
  5
18
102
{ACAD_REACTORS
330
17
102
}
100
AcDbMlineStyle
  2
STANDARD
 70
0
  3

 62
256
 51
90.0
 52
90.0
 71
2
 49
0.5
 62
256
  6
BYLAYER
 49
-0.5
 62
256
  6
BYLAYER
  0
LAYOUT
  5
2C0
102
{ACAD_REACTORS
330
1A
102
}
100
AcDbPlotSettings
  1

  2
none_device
  4
ANSI_C_(22.00_x_17.00_Inches)
  6

 40
0.0
 41
0.0
 42
0.0
 43
0.0
 44
558.8
 45
431.8
 46
0.0
 47
0.0
 48
0.0
 49
0.0
140
0.0
141
0.0
142
1.0
143
1.0
 70
1024
 72
0
 73
0
 74
0
  7

 75
0
147
1.0
148
0.0
149
0.0
100
AcDbLayout
  1
Model
 70
0
 71
0
 10
0.0
 20
0.0
 11
22.0
 21
17.0
 12
0.0
 22
0.0
 32
0.0
 14
0.0
 24
0.0
 34
0.0
 15
0.0
 25
0.0
 35
0.0
146
0.0
 13
0.0
 23
0.0
 33
0.0
 16
1.0
 26
0.0
 36
0.0
 17
0.0
 27
1.0
 37
0.0
 76
0
330
21C
345
0
346
0
  0
LAYOUT
  5
2C1
102
{ACAD_REACTORS
330
1A
102
}
100
AcDbPlotSettings
  1

  2
none_device
  4
ANSI_C_(22.00_x_17.00_Inches)
  6

 40
0.0
 41
0.0
 42
0.0
 43
0.0
 44
558.8
 45
431.8
 46
0.0
 47
0.0
 48
0.0
 49
0.0
140
0.0
141
0.0
142
1.0
143
1.0
 70
0
 72
0
 73
0
 74
0
  7

 75
0
147
1.0
148
0.0
149
0.0
100
AcDbLayout
  1
Layout1
 70
0
 71
1
 10
0.0
 20
0.0
 11
22.0
 21
17.0
 12
0.0
 22
0.0
 32
0.0
 14
0.0
 24
0.0
 34
0.0
 15
0.0
 25
0.0
 35
0.0
146
0.0
 13
0.0
 23
0.0
 33
0.0
 16
1.0
 26
0.0
 36
0.0
 17
0.0
 27
1.0
 37
0.0
 76
0
330
21D
345
0
346
0
  0
ENDSEC
  0
EOF