999
DXF file: _cgs_temp_output.dxf
999
Pro/ENGINEER 2015110 by Parametric Technology Corporation
  0
SECTION
  2
HEADER
  9
$ACADVER
  1
AC1021
  9
$DWGCODEPAGE
  3
ANSI_1252
  9
$EXTMAX
 10
22.0
 20
17.0
 30
0.0
  9
$EXTMIN
 10
0.0
 20
0.0
 30
0.0
  9
$LIMMIN
 10
0.0
 20
0.0
  9
$LIMMAX
 10
22.0
 20
17.0
  9
$VIEWCTR
 10
11.0
 20
8.5
  9
$VIEWSIZE
 40
17.0
  9
$CLAYER
  8
0
  9
$LTSCALE
 40
1.21
  9
$CELTYPE
  6
BYLAYER
  9
$DIMSCALE
 40
1.0
  9
$DIMASZ
 40
0.1875
  9
$DIMEXO
 40
0.0625
  9
$DIMDLI
 40
0.836
  9
$DIMEXE
 40
0.125
  9
$DIMCEN
 40
0.198
  9
$DIMLFAC
 40
1.0
  9
$DIMBLK
  1
_CLOSED
  9
$DIMALT
 70
0
  9
$DIMALTF
 40
25.4
  9
$DIMTXT
 40
0.15625
  9
$DIMTOL
 70
0
  9
$DIMLIM
 70
0
  9
$DIMTFAC
 40
1.0
  9
$DIMGAP
 40
0.09
  9
$DIMDSEP
 70
46
  9
$AUNITS
 70
0
  9
$PDMODE
 70
3
  9
$PDSIZE
 40
0.3125
  9
$HANDSEED
  5
2D6
  9
$TILEMODE
 70
1
  9
$MEASUREMENT
 70
0
  9
$INSUNITS
 70
1
  0
ENDSEC
  0
SECTION
  2
CLASSES
  0
CLASS
  1
ACDBDICTIONARYWDFLT
  2
AcDbDictionaryWithDefault
  3
AutoCAD 2000
 90
0
 91
1
280
0
281
0
  0
CLASS
  1
ACDBPLACEHOLDER
  2
AcDbPlaceHolder
  3
AutoCAD 2000
 90
0
 91
1
280
0
281
0
  0
CLASS
  1
LAYOUT
  2
AcDbLayout
  3
AutoCAD 2000
 90
0
 91
0
280
0
281
0
  0
ENDSEC
  0
SECTION
  2
TABLES
  0
TABLE
  2
VPORT
  5
8
100
AcDbSymbolTable
 70
2
  0
VPORT
  5
1F4
100
AcDbSymbolTableRecord
100
AcDbViewportTableRecord
  2
*ACTIVE
 70
0
 10
0.0
 20
0.0
 11
1.0
 21
1.0
 12
11.0
 22
8.5
 13
0.0
 23
0.0
 14
1.0
 24
1.0
 15
0.0
 25
0.0
 16
0.0
 26
0.0
 36
1.0
 17
0.0
 27
0.0
 37
0.0
 40
17.0
 41
1.2941176471
 42
50.0
 43
0.0
 44
0.0
 50
0.0
 51
0.0
 71
0
 72
100
 73
1
 74
1
 75
0
 76
0
 77
0
 78
0
  0
ENDTAB
  0
TABLE
  2
LTYPE
  5
5
100
AcDbSymbolTable
 70
6
  0
LTYPE
  5
14
100
AcDbSymbolTableRecord
100
AcDbLinetypeTableRecord
  2
BYBLOCK
 70
0
  3

 72
65
 73
0
 40
0.0
  0
LTYPE
  5
15
100
AcDbSymbolTableRecord
100
AcDbLinetypeTableRecord
  2
BYLAYER
 70
0
  3

 72
65
 73
0
 40
0.0
  0
LTYPE
  5
16
100
AcDbSymbolTableRecord
100
AcDbLinetypeTableRecord
  2
CONTINUOUS
 70
64
  3
Solid line
 72
65
 73
0
 40
0.0
  0
LTYPE
  5
1F5
100
AcDbSymbolTableRecord
100
AcDbLinetypeTableRecord
  2
CENTER
 70
64
  3
____ _ ____ _ ____ _ ____ _ ____ _ ____ _ ____
 72
65
 73
4
 40
0.6
 49
0.375
 74
0
 49
-0.075
 74
0
 49
0.075
 74
0
 49
-0.075
 74
0
  0
LTYPE
  5
1F6
100
AcDbSymbolTableRecord
100
AcDbLinetypeTableRecord
  2
HIDDEN
 70
64
  3
- - - - - - - - - - - - - - - - - - - -
 72
65
 73
2
 40
0.2
 49
0.1
 74
0
 49
-0.1
 74
0
  0
LTYPE
  5
1F7
100
AcDbSymbolTableRecord
100
AcDbLinetypeTableRecord
  2
PHANTOM
 70
64
  3
_____ _ _ _____ _ _ _____ _ _ _____
 72
65
 73
6
 40
0.8
 49
0.45
 74
0
 49
-0.05
 74
0
 49
0.1
 74
0
 49
-0.05
 74
0
 49
0.1
 74
0
 49
-0.05
 74
0
  0
LTYPE
  5
1F8
100
AcDbSymbolTableRecord
100
AcDbLinetypeTableRecord
  2
DOT
 70
64
  3
. . . . . . . . . . . . . . . . . . . .
 72
65
 73
2
 40
0.2
 49
0.1
 74
0
 49
-0.1
 74
0
  0
LTYPE
  5
1F9
100
AcDbSymbolTableRecord
100
AcDbLinetypeTableRecord
  2
DASHED
 70
64
  3
- - - - - - - - - - - - - - - - - - - -
 72
65
 73
2
 40
0.2
 49
0.1
 74
0
 49
-0.1
 74
0
  0
ENDTAB
  0
TABLE
  2
LAYER
  5
2
100
AcDbSymbolTable
 70
36
  0
LAYER
  5
10
100
AcDbSymbolTableRecord
100
AcDbLayerTableRecord
  2
0
 70
0
 62
7
  6
CONTINUOUS
370
-3
390
F
  0
LAYER
  5
1FA
100
AcDbSymbolTableRecord
100
AcDbLayerTableRecord
  2
DEFAULT_1
 70
0
 62
7
  6
CENTER
370
-3
390
F
  0
LAYER
  5
1FB
100
AcDbSymbolTableRecord
100
AcDbLayerTableRecord
  2
DEFAULT_2
 70
0
 62
8
  6
HIDDEN
370
-3
390
F
  0
LAYER
  5
1FC
100
AcDbSymbolTableRecord
100
AcDbLayerTableRecord
  2
DEFAULT_3
 70
0
 62
7
  6
PHANTOM
370
-3
390
F
  0
LAYER
  5
1FD
100
AcDbSymbolTableRecord
100
AcDbLayerTableRecord
  2
01_ALL_DTM_PLN
 70
0
 62
7
  6
CONTINUOUS
370
-3
390
F
  0
LAYER
  5
1FE
100
AcDbSymbolTableRecord
100
AcDbLayerTableRecord
  2
01__ASM_ALL_DTM_PLN
 70
0
 62
7
  6
CONTINUOUS
370
-3
390
F
  0
LAYER
  5
1FF
100
AcDbSymbolTableRecord
100
AcDbLayerTableRecord
  2
01__ASM_DEF_DTM_PLN
 70
0
 62
7
  6
CONTINUOUS
370
-3
390
F
  0
LAYER
  5
200
100
AcDbSymbolTableRecord
100
AcDbLayerTableRecord
  2
01___PRT_ALL_DTM_PLN
 70
0
 62
7
  6
CONTINUOUS
370
-3
390
F
  0
LAYER
  5
201
100
AcDbSymbolTableRecord
100
AcDbLayerTableRecord
  2
01___PRT_DEF_DTM_PLN
 70
0
 62
7
  6
CONTINUOUS
370
-3
390
F
  0
LAYER
  5
202
100
AcDbSymbolTableRecord
100
AcDbLayerTableRecord
  2
02_ALL_AXES
 70
0
 62
7
  6
CONTINUOUS
370
-3
390
F
  0
LAYER
  5
203
100
AcDbSymbolTableRecord
100
AcDbLayerTableRecord
  2
02__ASM_ALL_AXES
 70
0
 62
7
  6
CONTINUOUS
370
-3
390
F
  0
LAYER
  5
204
100
AcDbSymbolTableRecord
100
AcDbLayerTableRecord
  2
02___PRT_ALL_AXES
 70
0
 62
7
  6
CONTINUOUS
370
-3
390
F
  0
LAYER
  5
205
100
AcDbSymbolTableRecord
100
AcDbLayerTableRecord
  2
03_ALL_CURVES
 70
0
 62
7
  6
CONTINUOUS
370
-3
390
F
  0
LAYER
  5
206
100
AcDbSymbolTableRecord
100
AcDbLayerTableRecord
  2
03__ASM_ALL_CURVES
 70
0
 62
7
  6
CONTINUOUS
370
-3
390
F
  0
LAYER
  5
207
100
AcDbSymbolTableRecord
100
AcDbLayerTableRecord
  2
03___PRT_ALL_CURVES
 70
0
 62
7
  6
CONTINUOUS
370
-3
390
F
  0
LAYER
  5
208
100
AcDbSymbolTableRecord
100
AcDbLayerTableRecord
  2
04_ALL_DTM_PNT
 70
0
 62
7
  6
CONTINUOUS
370
-3
390
F
  0
LAYER
  5
209
100
AcDbSymbolTableRecord
100
AcDbLayerTableRecord
  2
04__ASM_ALL_DTM_PNT
 70
0
 62
7
  6
CONTINUOUS
370
-3
390
F
  0
LAYER
  5
20A
100
AcDbSymbolTableRecord
100
AcDbLayerTableRecord
  2
04___PRT_ALL_DTM_PNT
 70
0
 62
7
  6
CONTINUOUS
370
-3
390
F
  0
LAYER
  5
20B
100
AcDbSymbolTableRecord
100
AcDbLayerTableRecord
  2
05_ALL_DTM_CSYS
 70
0
 62
7
  6
CONTINUOUS
370
-3
390
F
  0
LAYER
  5
20C
100
AcDbSymbolTableRecord
100
AcDbLayerTableRecord
  2
05__ASM_ALL_DTM_CSYS
 70
0
 62
7
  6
CONTINUOUS
370
-3
390
F
  0
LAYER
  5
20D
100
AcDbSymbolTableRecord
100
AcDbLayerTableRecord
  2
05__ASM_DEF_DTM_CSYS
 70
0
 62
7
  6
CONTINUOUS
370
-3
390
F
  0
LAYER
  5
20E
100
AcDbSymbolTableRecord
100
AcDbLayerTableRecord
  2
05___PRT_ALL_DTM_CSYS
 70
0
 62
7
  6
CONTINUOUS
370
-3
390
F
  0
LAYER
  5
20F
100
AcDbSymbolTableRecord
100
AcDbLayerTableRecord
  2
05___PRT_DEF_DTM_CSYS
 70
0
 62
7
  6
CONTINUOUS
370
-3
390
F
  0
LAYER
  5
210
100
AcDbSymbolTableRecord
100
AcDbLayerTableRecord
  2
06_ALL_SURFS
 70
0
 62
7
  6
CONTINUOUS
370
-3
390
F
  0
LAYER
  5
211
100
AcDbSymbolTableRecord
100
AcDbLayerTableRecord
  2
06__ASM_ALL_SURFS
 70
0
 62
7
  6
CONTINUOUS
370
-3
390
F
  0
LAYER
  5
212
100
AcDbSymbolTableRecord
100
AcDbLayerTableRecord
  2
06___PRT_ALL_SURFS
 70
0
 62
7
  6
CONTINUOUS
370
-3
390
F
  0
LAYER
  5
213
100
AcDbSymbolTableRecord
100
AcDbLayerTableRecord
  2
07__ASM_ALL_SKELETONS
 70
0
 62
7
  6
CONTINUOUS
370
-3
390
F
  0
LAYER
  5
214
100
AcDbSymbolTableRecord
100
AcDbLayerTableRecord
  2
LAYER_DIM
 70
0
 62
7
  6
CONTINUOUS
370
-3
390
F
  0
LAYER
  5
215
100
AcDbSymbolTableRecord
100
AcDbLayerTableRecord
  2
LAYER_FEATURE
 70
0
 62
7
  6
CONTINUOUS
370
-3
390
F
  0
LAYER
  5
216
100
AcDbSymbolTableRecord
100
AcDbLayerTableRecord
  2
LAYER_GEOM_FEAT
 70
0
 62
7
  6
CONTINUOUS
370
-3
390
F
  0
LAYER
  5
217
100
AcDbSymbolTableRecord
100
AcDbLayerTableRecord
  2
LAYER_PARAMETER_DIM
 70
0
 62
7
  6
CONTINUOUS
370
-3
390
F
  0
LAYER
  5
218
100
AcDbSymbolTableRecord
100
AcDbLayerTableRecord
  2
LAYER_PROTRUSION_FEAT
 70
0
 62
7
  6
CONTINUOUS
370
-3
390
F
  0
LAYER
  5
219
100
AcDbSymbolTableRecord
100
AcDbLayerTableRecord
  2
LAYER_ROUND_FEAT
 70
0
 62
7
  6
CONTINUOUS
370
-3
390
F
  0
ENDTAB
  0
TABLE
  2
STYLE
  5
3
100
AcDbSymbolTable
 70
1
  0
STYLE
  5
11
100
AcDbSymbolTableRecord
100
AcDbTextStyleTableRecord
  2
STANDARD
 70
0
 40
0.0
 41
0.8
 50
0.0
 71
0
 42
0.2
  3
txt
  4

  0
STYLE
  5
21A
100
AcDbSymbolTableRecord
100
AcDbTextStyleTableRecord
  2
TEXTSTYLE_1
 70
0
 40
0.0
 41
0.8
 50
0.0
 71
0
 42
0.2
  3
gdt
  4

  0
ENDTAB
  0
TABLE
  2
VIEW
  5
6
100
AcDbSymbolTable
 70
0
  0
ENDTAB
  0
TABLE
  2
UCS
  5
7
100
AcDbSymbolTable
 70
0
  0
ENDTAB
  0
TABLE
  2
APPID
  5
9
100
AcDbSymbolTable
 70
1
  0
APPID
  5
21B
100
AcDbSymbolTableRecord
100
AcDbRegAppTableRecord
  2
ACAD
 70
0
  0
ENDTAB
  0
TABLE
  2
BLOCK_RECORD
  5
1
100
AcDbSymbolTable
 70
0
  0
BLOCK_RECORD
  5
21C
100
AcDbSymbolTableRecord
100
AcDbBlockTableRecord
  2
*Model_Space
  0
BLOCK_RECORD
  5
21D
100
AcDbSymbolTableRecord
100
AcDbBlockTableRecord
  2
*Paper_Space
  0
ENDTAB
  0
TABLE
  2
DIMSTYLE
  5
A
100
AcDbSymbolTable
 70
1
100
AcDbDimStyleTable
 71
0
  0
DIMSTYLE
105
21E
100
AcDbSymbolTableRecord
100
AcDbDimStyleTableRecord
  2
STANDARD
 70
0
  3

  4

 40
1.0
 41
0.1875
 42
0.0625
 43
0.38
 44
0.125
 45
0.0
 46
0.0
 47
0.0001
 48
0.0001
140
0.15625
141
0.09
142
0.0
143
25.4
144
1.0
145
0.0
146
1.0
147
0.09
 71
0.0
 72
0.0
 73
1
 74
1
 75
0
 76
0
 77
0
 78
4
170
0
171
2
172
0
173
0
174
0
175
0
176
0
177
0
178
0
270
2
271
4
272
4
273
2
274
2
275
0
280
0
281
0
282
0
283
1
284
4
285
0
286
0
287
3
288
0
340
11
278
46
  0
ENDTAB
  0
ENDSEC
  0
SECTION
  2
BLOCKS
  0
BLOCK
  5
20
100
AcDbEntity
  8
0
100
AcDbBlockBegin
  2
*Model_Space
 70
0
 10
0.0
 20
0.0
 30
0.0
  3
*Model_Space
  1

  0
ENDBLK
  5
21
100
AcDbEntity
  8
0
100
AcDbBlockEnd
  0
BLOCK
  5
1C
100
AcDbEntity
  8
0
100
AcDbBlockBegin
  2
*Paper_Space
 70
0
 10
0.0
 20
0.0
 30
0.0
  3
*Paper_Space
  1

  0
ENDBLK
  5
1D
100
AcDbEntity
  8
0
100
AcDbBlockEnd
  0
ENDSEC
  0
SECTION
  2
ENTITIES
  0
MTEXT
  5
21F
100
AcDbEntity
  8
0
100
AcDbMText
 62
7
  6
CONTINUOUS
  7
STANDARD
 71
1
 72
1
 10
15.9560215477
 20
0.9479130325
 30
0.0
 11
1.0
 21
0.0
 31
0.0
 44
0.9
  1
SCALE: 1:0.500
 40
0.3
 41
3.36
  0
LINE
  5
220
100
AcDbEntity
  8
0
100
AcDbLine
 62
7
  6
CONTINUOUS
 10
0.0
 20
0.0
 11
0.0
 21
17.0
  0
LINE
  5
221
100
AcDbEntity
  8
0
100
AcDbLine
 62
7
  6
CONTINUOUS
 10
0.0
 20
0.0
 11
22.0
 21
0.0
  0
LINE
  5
222
100
AcDbEntity
  8
0
100
AcDbLine
 62
7
  6
CONTINUOUS
 10
0.0
 20
17.0
 11
22.0
 21
17.0
  0
LINE
  5
223
100
AcDbEntity
  8
0
100
AcDbLine
 62
7
  6
CONTINUOUS
 10
22.0
 20
0.0
 11
22.0
 21
17.0
  0
LINE
  5
224
100
AcDbEntity
  8
0
100
AcDbLine
 62
7
  6
CONTINUOUS
 10
3.9116172762
 20
5.7626198968
 11
3.9116172762
 21
5.7251198968
  0
LINE
  5
225
100
AcDbEntity
  8
0
100
AcDbLine
 62
7
  6
CONTINUOUS
 10
3.9116172762
 20
5.7251198968
 11
4.0019409573
 21
5.2867489642
  0
LINE
  5
226
100
AcDbEntity
  8
0
100
AcDbLine
 62
7
  6
CONTINUOUS
 10
4.4116172762
 20
5.7251198968
 11
4.4116172762
 21
5.7476198968
  0
LINE
  5
227
100
AcDbEntity
  8
LAYER_FEATURE
100
AcDbLine
 62
7
  6
CONTINUOUS
 10
4.4741172762
 20
5.7476198968
 11
4.4741172762
 21
5.7251198968
  0
LINE
  5
228
100
AcDbEntity
  8
0
100
AcDbLine
 62
7
  6
CONTINUOUS
 10
4.321293595
 20
5.2867489642
 11
4.4116172762
 21
5.7251198968
  0
LINE
  5
229
100
AcDbEntity
  8
LAYER_FEATURE
100
AcDbLine
 62
7
  6
CONTINUOUS
 10
4.4741172762
 20
5.7251198968
 11
4.5644409573
 21
5.2867489642
  0
LINE
  5
22A
100
AcDbEntity
  8
LAYER_FEATURE
100
AcDbLine
 62
7
  6
CONTINUOUS
 10
4.883793595
 20
5.2867489642
 11
4.9741172762
 21
5.7251198968
  0
LINE
  5
22B
100
AcDbEntity
  8
LAYER_FEATURE
100
AcDbLine
 62
7
  6
CONTINUOUS
 10
4.9741172762
 20
5.7251198968
 11
4.9741172762
 21
5.7476198968
  0
LINE
  5
22C
100
AcDbEntity
  8
LAYER_FEATURE
100
AcDbLine
 62
7
  6
CONTINUOUS
 10
5.0366172762
 20
5.7476198968
 11
5.0366172762
 21
5.7251198968
  0
LINE
  5
22D
100
AcDbEntity
  8
LAYER_FEATURE
100
AcDbLine
 62
7
  6
CONTINUOUS
 10
5.0366172762
 20
5.7251198968
 11
5.1269409573
 21
5.2867489642
  0
LINE
  5
22E
100
AcDbEntity
  8
LAYER_FEATURE
100
AcDbLine
 62
7
  6
CONTINUOUS
 10
5.5366172762
 20
5.7251198968
 11
5.5366172762
 21
5.7476198968
  0
LINE
  5
22F
100
AcDbEntity
  8
LAYER_FEATURE
100
AcDbLine
 62
7
  6
CONTINUOUS
 10
5.446293595
 20
5.2867489642
 11
5.5366172762
 21
5.7251198968
  0
LINE
  5
230
100
AcDbEntity
  8
LAYER_FEATURE
100
AcDbLine
 62
7
  6
CONTINUOUS
 10
5.5991172762
 20
5.7476198968
 11
5.5991172762
 21
5.7251198968
  0
LINE
  5
231
100
AcDbEntity
  8
LAYER_FEATURE
100
AcDbLine
 62
7
  6
CONTINUOUS
 10
5.5991172762
 20
5.7251198968
 11
5.6894409573
 21
5.2867489642
  0
LINE
  5
232
100
AcDbEntity
  8
0
100
AcDbLine
 62
7
  6
CONTINUOUS
 10
4.0223456609
 20
5.2701198968
 11
4.3008888915
 21
5.2701198968
  0
LINE
  5
233
100
AcDbEntity
  8
LAYER_FEATURE
100
AcDbLine
 62
7
  6
CONTINUOUS
 10
4.5848456609
 20
5.2701198968
 11
4.8633888915
 21
5.2701198968
  0
LINE
  5
234
100
AcDbEntity
  8
LAYER_FEATURE
100
AcDbLine
 62
7
  6
CONTINUOUS
 10
5.1473456609
 20
5.2701198968
 11
5.4258888915
 21
5.2701198968
  0
LINE
  5
235
100
AcDbEntity
  8
LAYER_FEATURE
100
AcDbLine
 62
7
  6
CONTINUOUS
 10
5.7098456609
 20
5.2701198968
 11
5.9883888915
 21
5.2701198968
  0
LINE
  5
236
100
AcDbEntity
  8
LAYER_FEATURE
100
AcDbLine
 62
7
  6
CONTINUOUS
 10
6.2723456609
 20
5.2701198968
 11
6.5508888915
 21
5.2701198968
  0
LINE
  5
237
100
AcDbEntity
  8
LAYER_FEATURE
100
AcDbLine
 62
7
  6
CONTINUOUS
 10
6.8348456609
 20
5.2701198968
 11
7.1133888915
 21
5.2701198968
  0
LINE
  5
238
100
AcDbEntity
  8
LAYER_FEATURE
100
AcDbLine
 62
7
  6
CONTINUOUS
 10
7.3973456609
 20
5.2701198968
 11
7.6758888915
 21
5.2701198968
  0
LINE
  5
239
100
AcDbEntity
  8
LAYER_FEATURE
100
AcDbLine
 62
7
  6
CONTINUOUS
 10
7.9598456609
 20
5.2701198968
 11
8.2383888915
 21
5.2701198968
  0
LINE
  5
23A
100
AcDbEntity
  8
LAYER_FEATURE
100
AcDbLine
 62
7
  6
CONTINUOUS
 10
6.0991172762
 20
5.7251198968
 11
6.0991172762
 21
5.7476198968
  0
LINE
  5
23B
100
AcDbEntity
  8
LAYER_FEATURE
100
AcDbLine
 62
7
  6
CONTINUOUS
 10
6.008793595
 20
5.2867489642
 11
6.0991172762
 21
5.7251198968
  0
LINE
  5
23C
100
AcDbEntity
  8
LAYER_FEATURE
100
AcDbLine
 62
7
  6
CONTINUOUS
 10
6.1616172762
 20
5.7476198968
 11
6.1616172762
 21
5.7251198968
  0
LINE
  5
23D
100
AcDbEntity
  8
LAYER_FEATURE
100
AcDbLine
 62
7
  6
CONTINUOUS
 10
6.1616172762
 20
5.7251198968
 11
6.2519409573
 21
5.2867489642
  0
LINE
  5
23E
100
AcDbEntity
  8
LAYER_FEATURE
100
AcDbLine
 62
7
  6
CONTINUOUS
 10
4.4116172762
 20
5.7476198968
 11
4.4741172762
 21
5.7476198968
  0
LINE
  5
23F
100
AcDbEntity
  8
LAYER_FEATURE
100
AcDbLine
 62
7
  6
CONTINUOUS
 10
4.9741172762
 20
5.7476198968
 11
5.0366172762
 21
5.7476198968
  0
LINE
  5
240
100
AcDbEntity
  8
LAYER_FEATURE
100
AcDbLine
 62
7
  6
CONTINUOUS
 10
5.5366172762
 20
5.7476198968
 11
5.5991172762
 21
5.7476198968
  0
LINE
  5
241
100
AcDbEntity
  8
LAYER_FEATURE
100
AcDbLine
 62
7
  6
CONTINUOUS
 10
6.0991172762
 20
5.7476198968
 11
6.1616172762
 21
5.7476198968
  0
LINE
  5
242
100
AcDbEntity
  8
LAYER_FEATURE
100
AcDbLine
 62
7
  6
CONTINUOUS
 10
6.6616172762
 20
5.7476198968
 11
6.7241172762
 21
5.7476198968
  0
LINE
  5
243
100
AcDbEntity
  8
LAYER_FEATURE
100
AcDbLine
 62
7
  6
CONTINUOUS
 10
7.2241172762
 20
5.7476198968
 11
7.2866172762
 21
5.7476198968
  0
LINE
  5
244
100
AcDbEntity
  8
LAYER_FEATURE
100
AcDbLine
 62
7
  6
CONTINUOUS
 10
7.7866172762
 20
5.7476198968
 11
7.8491172762
 21
5.7476198968
  0
LINE
  5
245
100
AcDbEntity
  8
0
100
AcDbLine
 62
7
  6
CONTINUOUS
 10
8.3416172762
 20
5.7701198968
 11
3.9191172762
 21
5.7701198968
  0
LINE
  5
246
100
AcDbEntity
  8
LAYER_FEATURE
100
AcDbLine
 62
7
  6
CONTINUOUS
 10
6.6616172762
 20
5.7251198968
 11
6.6616172762
 21
5.7476198968
  0
LINE
  5
247
100
AcDbEntity
  8
LAYER_FEATURE
100
AcDbLine
 62
7
  6
CONTINUOUS
 10
6.7241172762
 20
5.7476198968
 11
6.7241172762
 21
5.7251198968
  0
LINE
  5
248
100
AcDbEntity
  8
LAYER_FEATURE
100
AcDbLine
 62
7
  6
CONTINUOUS
 10
6.571293595
 20
5.2867489642
 11
6.6616172762
 21
5.7251198968
  0
LINE
  5
249
100
AcDbEntity
  8
LAYER_FEATURE
100
AcDbLine
 62
7
  6
CONTINUOUS
 10
6.7241172762
 20
5.7251198968
 11
6.8144409573
 21
5.2867489642
  0
LINE
  5
24A
100
AcDbEntity
  8
LAYER_FEATURE
100
AcDbLine
 62
7
  6
CONTINUOUS
 10
7.133793595
 20
5.2867489642
 11
7.2241172762
 21
5.7251198968
  0
LINE
  5
24B
100
AcDbEntity
  8
LAYER_FEATURE
100
AcDbLine
 62
7
  6
CONTINUOUS
 10
7.2241172762
 20
5.7251198968
 11
7.2241172762
 21
5.7476198968
  0
LINE
  5
24C
100
AcDbEntity
  8
LAYER_FEATURE
100
AcDbLine
 62
7
  6
CONTINUOUS
 10
7.2866172762
 20
5.7476198968
 11
7.2866172762
 21
5.7251198968
  0
LINE
  5
24D
100
AcDbEntity
  8
LAYER_FEATURE
100
AcDbLine
 62
7
  6
CONTINUOUS
 10
7.2866172762
 20
5.7251198968
 11
7.3769409573
 21
5.2867489642
  0
LINE
  5
24E
100
AcDbEntity
  8
LAYER_FEATURE
100
AcDbLine
 62
7
  6
CONTINUOUS
 10
7.7866172762
 20
5.7251198968
 11
7.7866172762
 21
5.7476198968
  0
LINE
  5
24F
100
AcDbEntity
  8
LAYER_FEATURE
100
AcDbLine
 62
7
  6
CONTINUOUS
 10
7.696293595
 20
5.2867489642
 11
7.7866172762
 21
5.7251198968
  0
LINE
  5
250
100
AcDbEntity
  8
LAYER_FEATURE
100
AcDbLine
 62
7
  6
CONTINUOUS
 10
7.8491172762
 20
5.7476198968
 11
7.8491172762
 21
5.7251198968
  0
LINE
  5
251
100
AcDbEntity
  8
LAYER_FEATURE
100
AcDbLine
 62
7
  6
CONTINUOUS
 10
7.8491172762
 20
5.7251198968
 11
7.9394409573
 21
5.2867489642
  0
LINE
  5
252
100
AcDbEntity
  8
0
100
AcDbLine
 62
7
  6
CONTINUOUS
 10
8.3491172762
 20
5.7251198968
 11
8.3491172762
 21
5.7626198968
  0
LINE
  5
253
100
AcDbEntity
  8
LAYER_FEATURE
100
AcDbLine
 62
7
  6
CONTINUOUS
 10
8.258793595
 20
5.2867489642
 11
8.3491172762
 21
5.7251198968
  0
LINE
  5
254
100
AcDbEntity
  8
0
100
AcDbLine
 62
7
  6
CONTINUOUS
 10
3.8521220839
 20
13.6000477814
 11
3.8521220839
 21
11.6000477814
  0
LINE
  5
255
100
AcDbEntity
  8
0
100
AcDbLine
 62
7
  6
CONTINUOUS
 10
8.2896220839
 20
11.6000477814
 11
3.8521220839
 21
11.6000477814
  0
LINE
  5
256
100
AcDbEntity
  8
0
100
AcDbLine
 62
7
  6
CONTINUOUS
 10
3.8521220839
 20
13.6000477814
 11
8.2896220839
 21
13.6000477814
  0
LINE
  5
257
100
AcDbEntity
  8
0
100
AcDbLine
 62
7
  6
CONTINUOUS
 10
8.2896220839
 20
11.6000477814
 11
8.2896220839
 21
13.6000477814
  0
LINE
  5
258
100
AcDbEntity
  8
LAYER_FEATURE
100
AcDbLine
 62
7
  6
CONTINUOUS
 10
14.5603552569
 20
5.2106247044
 11
14.5603552569
 21
5.6656247044
  0
LINE
  5
259
100
AcDbEntity
  8
0
100
AcDbLine
 62
7
  6
CONTINUOUS
 10
14.5603552569
 20
5.6656247044
 11
14.5603552569
 21
5.7106247044
  0
LINE
  5
25A
100
AcDbEntity
  8
LAYER_FEATURE
100
AcDbLine
 62
7
  6
CONTINUOUS
 10
14.5603552569
 20
5.2106247044
 11
16.5603552569
 21
5.2106247044
  0
LINE
  5
25B
100
AcDbEntity
  8
LAYER_FEATURE
100
AcDbLine
 62
7
  6
CONTINUOUS
 10
16.5603552569
 20
5.6656247044
 11
14.5603552569
 21
5.6656247044
  0
LINE
  5
25C
100
AcDbEntity
  8
0
100
AcDbLine
 62
7
  6
CONTINUOUS
 10
14.5603552569
 20
5.7106247044
 11
16.5603552569
 21
5.7106247044
  0
LINE
  5
25D
100
AcDbEntity
  8
0
100
AcDbLine
 62
7
  6
CONTINUOUS
 10
16.5603552569
 20
5.7106247044
 11
16.5603552569
 21
5.6656247044
  0
LINE
  5
25E
100
AcDbEntity
  8
LAYER_FEATURE
100
AcDbLine
 62
7
  6
CONTINUOUS
 10
16.5603552569
 20
5.2106247044
 11
16.5603552569
 21
5.6656247044
  0
LINE
  5
25F
100
AcDbEntity
  8
0
100
AcDbLine
 62
7
  6
CONTINUOUS
 10
13.1546337968
 20
11.8782185006
 11
13.1660728668
 21
11.8549081268
  0
LINE
  5
260
100
AcDbEntity
  8
0
100
AcDbLine
 62
7
  6
CONTINUOUS
 10
13.1660728668
 20
11.8549081268
 11
13.3829879738
 21
11.5824123853
  0
LINE
  5
261
100
AcDbEntity
  8
0
100
AcDbLine
 62
7
  6
CONTINUOUS
 10
13.6385087447
 20
13.4470866751
 11
13.1543760979
 21
11.8804328559
  0
LINE
  5
262
100
AcDbEntity
  8
0
100
AcDbLine
 62
7
  6
CONTINUOUS
 10
13.6266033638
 20
11.8549081268
 11
13.6197399218
 21
11.8688943511
  0
LINE
  5
263
100
AcDbEntity
  8
LAYER_FEATURE
100
AcDbLine
 62
7
  6
CONTINUOUS
 10
13.6773062339
 20
11.8688943511
 11
13.6841696759
 21
11.8549081268
  0
LINE
  5
264
100
AcDbEntity
  8
0
100
AcDbLine
 62
7
  6
CONTINUOUS
 10
13.6771312318
 20
11.5824123853
 11
13.6266033638
 21
11.8549081268
  0
LINE
  5
265
100
AcDbEntity
  8
0
100
AcDbLine
 62
7
  6
CONTINUOUS
 10
13.676957177
 20
11.5788754886
 11
13.6771312318
 21
11.5824123853
  0
LINE
  5
266
100
AcDbEntity
  8
LAYER_FEATURE
100
AcDbLine
 62
7
  6
CONTINUOUS
 10
13.6841696759
 20
11.8549081268
 11
13.901084783
 21
11.5824123853
  0
LINE
  5
267
100
AcDbEntity
  8
0
100
AcDbLine
 62
7
  6
CONTINUOUS
 10
13.630925434
 20
11.8688943511
 11
13.6266033638
 21
11.8549081268
  0
LINE
  5
268
100
AcDbEntity
  8
LAYER_FEATURE
100
AcDbLine
 62
7
  6
CONTINUOUS
 10
14.1447001729
 20
11.8549081268
 11
14.1378367309
 21
11.8688943511
  0
LINE
  5
269
100
AcDbEntity
  8
0
100
AcDbLine
 62
7
  6
CONTINUOUS
 10
13.6779722578
 20
11.5821524886
 11
13.7404224936
 21
11.784241526
  0
LINE
  5
26A
100
AcDbEntity
  8
LAYER_FEATURE
100
AcDbLine
 62
7
  6
CONTINUOUS
 10
14.202266485
 20
11.8549081268
 11
14.4191815921
 21
11.5824123853
  0
LINE
  5
26B
100
AcDbEntity
  8
LAYER_FEATURE
100
AcDbLine
 62
7
  6
CONTINUOUS
 10
14.195403043
 20
11.8688943511
 11
14.202266485
 21
11.8549081268
  0
LINE
  5
26C
100
AcDbEntity
  8
LAYER_FEATURE
100
AcDbLine
 62
7
  6
CONTINUOUS
 10
14.1952280409
 20
11.5824123853
 11
14.1447001729
 21
11.8549081268
  0
LINE
  5
26D
100
AcDbEntity
  8
LAYER_FEATURE
100
AcDbLine
 62
7
  6
CONTINUOUS
 10
14.1950539861
 20
11.5788754886
 11
14.1952280409
 21
11.5824123853
  0
LINE
  5
26E
100
AcDbEntity
  8
LAYER_FEATURE
100
AcDbLine
 62
7
  6
CONTINUOUS
 10
14.1490222431
 20
11.8688943511
 11
14.1447001729
 21
11.8549081268
  0
LINE
  5
26F
100
AcDbEntity
  8
LAYER_FEATURE
100
AcDbLine
 62
7
  6
CONTINUOUS
 10
14.7203632942
 20
11.8549081268
 11
14.9372784012
 21
11.5824123853
  0
LINE
  5
270
100
AcDbEntity
  8
LAYER_FEATURE
100
AcDbLine
 62
7
  6
CONTINUOUS
 10
14.662796982
 20
11.8549081268
 11
14.65593354
 21
11.8688943511
  0
LINE
  5
271
100
AcDbEntity
  8
LAYER_FEATURE
100
AcDbLine
 62
7
  6
CONTINUOUS
 10
14.1960690669
 20
11.5821524886
 11
14.2585193028
 21
11.784241526
  0
LINE
  5
272
100
AcDbEntity
  8
0
100
AcDbLine
 62
7
  6
CONTINUOUS
 10
13.4068545122
 20
11.5720755912
 11
13.663409817
 21
11.5720755912
  0
LINE
  5
273
100
AcDbEntity
  8
LAYER_FEATURE
100
AcDbLine
 62
7
  6
CONTINUOUS
 10
13.9249513213
 20
11.5720755912
 11
14.1815066262
 21
11.5720755912
  0
LINE
  5
274
100
AcDbEntity
  8
LAYER_FEATURE
100
AcDbLine
 62
7
  6
CONTINUOUS
 10
14.4430481304
 20
11.5720755912
 11
14.6996034353
 21
11.5720755912
  0
LINE
  5
275
100
AcDbEntity
  8
LAYER_FEATURE
100
AcDbLine
 62
7
  6
CONTINUOUS
 10
14.9611449395
 20
11.5720755912
 11
15.2177002444
 21
11.5720755912
  0
LINE
  5
276
100
AcDbEntity
  8
LAYER_FEATURE
100
AcDbLine
 62
7
  6
CONTINUOUS
 10
15.4792417487
 20
11.5720755912
 11
15.7357970535
 21
11.5720755912
  0
LINE
  5
277
100
AcDbEntity
  8
LAYER_FEATURE
100
AcDbLine
 62
7
  6
CONTINUOUS
 10
15.9973385578
 20
11.5720755912
 11
16.2538938627
 21
11.5720755912
  0
LINE
  5
278
100
AcDbEntity
  8
LAYER_FEATURE
100
AcDbLine
 62
7
  6
CONTINUOUS
 10
16.5154353669
 20
11.5720755912
 11
16.7719906718
 21
11.5720755912
  0
LINE
  5
279
100
AcDbEntity
  8
LAYER_FEATURE
100
AcDbLine
 62
7
  6
CONTINUOUS
 10
17.033532176
 20
11.5720755912
 11
17.2900874809
 21
11.5720755912
  0
LINE
  5
27A
100
AcDbEntity
  8
LAYER_FEATURE
100
AcDbLine
 62
7
  6
CONTINUOUS
 10
14.7134998522
 20
11.8688943511
 11
14.7203632942
 21
11.8549081268
  0
LINE
  5
27B
100
AcDbEntity
  8
LAYER_FEATURE
100
AcDbLine
 62
7
  6
CONTINUOUS
 10
14.71332485
 20
11.5824123853
 11
14.662796982
 21
11.8549081268
  0
LINE
  5
27C
100
AcDbEntity
  8
LAYER_FEATURE
100
AcDbLine
 62
7
  6
CONTINUOUS
 10
14.7131507953
 20
11.5788754886
 11
14.71332485
 21
11.5824123853
  0
LINE
  5
27D
100
AcDbEntity
  8
LAYER_FEATURE
100
AcDbLine
 62
7
  6
CONTINUOUS
 10
14.6671190522
 20
11.8688943511
 11
14.662796982
 21
11.8549081268
  0
LINE
  5
27E
100
AcDbEntity
  8
LAYER_FEATURE
100
AcDbLine
 62
7
  6
CONTINUOUS
 10
13.6197399218
 20
11.8688943511
 11
13.6773062339
 21
11.8688943511
  0
LINE
  5
27F
100
AcDbEntity
  8
LAYER_FEATURE
100
AcDbLine
 62
7
  6
CONTINUOUS
 10
14.1378367309
 20
11.8688943511
 11
14.195403043
 21
11.8688943511
  0
LINE
  5
280
100
AcDbEntity
  8
LAYER_FEATURE
100
AcDbLine
 62
7
  6
CONTINUOUS
 10
14.65593354
 20
11.8688943511
 11
14.7134998522
 21
11.8688943511
  0
LINE
  5
281
100
AcDbEntity
  8
LAYER_FEATURE
100
AcDbLine
 62
7
  6
CONTINUOUS
 10
15.1740303492
 20
11.8688943511
 11
15.2315966613
 21
11.8688943511
  0
LINE
  5
282
100
AcDbEntity
  8
LAYER_FEATURE
100
AcDbLine
 62
7
  6
CONTINUOUS
 10
15.6921271583
 20
11.8688943511
 11
15.7496934704
 21
11.8688943511
  0
LINE
  5
283
100
AcDbEntity
  8
LAYER_FEATURE
100
AcDbLine
 62
7
  6
CONTINUOUS
 10
16.2102239674
 20
11.8688943511
 11
16.2677902795
 21
11.8688943511
  0
LINE
  5
284
100
AcDbEntity
  8
LAYER_FEATURE
100
AcDbLine
 62
7
  6
CONTINUOUS
 10
16.7283207765
 20
11.8688943511
 11
16.7858870887
 21
11.8688943511
  0
LINE
  5
285
100
AcDbEntity
  8
0
100
AcDbLine
 62
7
  6
CONTINUOUS
 10
17.2326461862
 20
11.8828805753
 11
13.1592539402
 21
11.8828805753
  0
LINE
  5
286
100
AcDbEntity
  8
LAYER_FEATURE
100
AcDbLine
 62
7
  6
CONTINUOUS
 10
15.2384601033
 20
11.8549081268
 11
15.4553752104
 21
11.5824123853
  0
LINE
  5
287
100
AcDbEntity
  8
LAYER_FEATURE
100
AcDbLine
 62
7
  6
CONTINUOUS
 10
15.1808937912
 20
11.8549081268
 11
15.1740303492
 21
11.8688943511
  0
LINE
  5
288
100
AcDbEntity
  8
LAYER_FEATURE
100
AcDbLine
 62
7
  6
CONTINUOUS
 10
15.2315966613
 20
11.8688943511
 11
15.2384601033
 21
11.8549081268
  0
LINE
  5
289
100
AcDbEntity
  8
LAYER_FEATURE
100
AcDbLine
 62
7
  6
CONTINUOUS
 10
14.714165876
 20
11.5821524886
 11
14.7766161119
 21
11.784241526
  0
LINE
  5
28A
100
AcDbEntity
  8
LAYER_FEATURE
100
AcDbLine
 62
7
  6
CONTINUOUS
 10
15.2314216591
 20
11.5824123853
 11
15.1808937912
 21
11.8549081268
  0
LINE
  5
28B
100
AcDbEntity
  8
LAYER_FEATURE
100
AcDbLine
 62
7
  6
CONTINUOUS
 10
15.2312476044
 20
11.5788754886
 11
15.2314216591
 21
11.5824123853
  0
LINE
  5
28C
100
AcDbEntity
  8
LAYER_FEATURE
100
AcDbLine
 62
7
  6
CONTINUOUS
 10
15.7565569124
 20
11.8549081268
 11
15.9734720195
 21
11.5824123853
  0
LINE
  5
28D
100
AcDbEntity
  8
LAYER_FEATURE
100
AcDbLine
 62
7
  6
CONTINUOUS
 10
15.1852158614
 20
11.8688943511
 11
15.1808937912
 21
11.8549081268
  0
LINE
  5
28E
100
AcDbEntity
  8
LAYER_FEATURE
100
AcDbLine
 62
7
  6
CONTINUOUS
 10
15.6989906003
 20
11.8549081268
 11
15.6921271583
 21
11.8688943511
  0
LINE
  5
28F
100
AcDbEntity
  8
LAYER_FEATURE
100
AcDbLine
 62
7
  6
CONTINUOUS
 10
15.7496934704
 20
11.8688943511
 11
15.7565569124
 21
11.8549081268
  0
LINE
  5
290
100
AcDbEntity
  8
LAYER_FEATURE
100
AcDbLine
 62
7
  6
CONTINUOUS
 10
15.2322626851
 20
11.5821524886
 11
15.294712921
 21
11.784241526
  0
LINE
  5
291
100
AcDbEntity
  8
LAYER_FEATURE
100
AcDbLine
 62
7
  6
CONTINUOUS
 10
15.7495184683
 20
11.5824123853
 11
15.6989906003
 21
11.8549081268
  0
LINE
  5
292
100
AcDbEntity
  8
LAYER_FEATURE
100
AcDbLine
 62
7
  6
CONTINUOUS
 10
15.7493444135
 20
11.5788754886
 11
15.7495184683
 21
11.5824123853
  0
LINE
  5
293
100
AcDbEntity
  8
LAYER_FEATURE
100
AcDbLine
 62
7
  6
CONTINUOUS
 10
16.2746537215
 20
11.8549081268
 11
16.4915688286
 21
11.5824123853
  0
LINE
  5
294
100
AcDbEntity
  8
LAYER_FEATURE
100
AcDbLine
 62
7
  6
CONTINUOUS
 10
15.7033126705
 20
11.8688943511
 11
15.6989906003
 21
11.8549081268
  0
LINE
  5
295
100
AcDbEntity
  8
LAYER_FEATURE
100
AcDbLine
 62
7
  6
CONTINUOUS
 10
16.2170874094
 20
11.8549081268
 11
16.2102239674
 21
11.8688943511
  0
LINE
  5
296
100
AcDbEntity
  8
LAYER_FEATURE
100
AcDbLine
 62
7
  6
CONTINUOUS
 10
16.2677902795
 20
11.8688943511
 11
16.2746537215
 21
11.8549081268
  0
LINE
  5
297
100
AcDbEntity
  8
LAYER_FEATURE
100
AcDbLine
 62
7
  6
CONTINUOUS
 10
15.7503594943
 20
11.5821524886
 11
15.8128097301
 21
11.784241526
  0
LINE
  5
298
100
AcDbEntity
  8
LAYER_FEATURE
100
AcDbLine
 62
7
  6
CONTINUOUS
 10
16.7927505307
 20
11.8549081268
 11
17.0096656377
 21
11.5824123853
  0
LINE
  5
299
100
AcDbEntity
  8
LAYER_FEATURE
100
AcDbLine
 62
7
  6
CONTINUOUS
 10
16.2676152774
 20
11.5824123853
 11
16.2170874094
 21
11.8549081268
  0
LINE
  5
29A
100
AcDbEntity
  8
LAYER_FEATURE
100
AcDbLine
 62
7
  6
CONTINUOUS
 10
16.2674412227
 20
11.5788754886
 11
16.2676152774
 21
11.5824123853
  0
LINE
  5
29B
100
AcDbEntity
  8
LAYER_FEATURE
100
AcDbLine
 62
7
  6
CONTINUOUS
 10
16.7351842185
 20
11.8549081268
 11
16.7283207765
 21
11.8688943511
  0
LINE
  5
29C
100
AcDbEntity
  8
LAYER_FEATURE
100
AcDbLine
 62
7
  6
CONTINUOUS
 10
16.2214094796
 20
11.8688943511
 11
16.2170874094
 21
11.8549081268
  0
LINE
  5
29D
100
AcDbEntity
  8
0
100
AcDbLine
 62
7
  6
CONTINUOUS
 10
13.643386587
 20
13.4495343946
 11
17.716778833
 21
13.4495343946
  0
LINE
  5
29E
100
AcDbEntity
  8
LAYER_FEATURE
100
AcDbLine
 62
7
  6
CONTINUOUS
 10
16.7858870887
 20
11.8688943511
 11
16.7927505307
 21
11.8549081268
  0
LINE
  5
29F
100
AcDbEntity
  8
LAYER_FEATURE
100
AcDbLine
 62
7
  6
CONTINUOUS
 10
16.2684563034
 20
11.5821524886
 11
16.3309065393
 21
11.784241526
  0
LINE
  5
2A0
100
AcDbEntity
  8
LAYER_FEATURE
100
AcDbLine
 62
7
  6
CONTINUOUS
 10
16.7857120865
 20
11.5824123853
 11
16.7351842185
 21
11.8549081268
  0
LINE
  5
2A1
100
AcDbEntity
  8
0
100
AcDbLine
 62
7
  6
CONTINUOUS
 10
17.2532810277
 20
11.8549081268
 11
17.2418419577
 21
11.8782185006
  0
LINE
  5
2A2
100
AcDbEntity
  8
LAYER_FEATURE
100
AcDbLine
 62
7
  6
CONTINUOUS
 10
16.7855380318
 20
11.5788754886
 11
16.7857120865
 21
11.5824123853
  0
LINE
  5
2A3
100
AcDbEntity
  8
LAYER_FEATURE
100
AcDbLine
 62
7
  6
CONTINUOUS
 10
16.7395062887
 20
11.8688943511
 11
16.7351842185
 21
11.8549081268
  0
LINE
  5
2A4
100
AcDbEntity
  8
LAYER_FEATURE
100
AcDbLine
 62
7
  6
CONTINUOUS
 10
16.7865531125
 20
11.5821524886
 11
16.8490033484
 21
11.784241526
  0
LINE
  5
2A5
100
AcDbEntity
  8
LAYER_FEATURE
100
AcDbLine
 62
7
  6
CONTINUOUS
 10
17.3038088957
 20
11.5824123853
 11
17.2532810277
 21
11.8549081268
  0
LINE
  5
2A6
100
AcDbEntity
  8
LAYER_FEATURE
100
AcDbLine
 62
7
  6
CONTINUOUS
 10
17.3036348409
 20
11.5788754886
 11
17.3038088957
 21
11.5824123853
  0
LINE
  5
2A7
100
AcDbEntity
  8
LAYER_FEATURE
100
AcDbLine
 62
7
  6
CONTINUOUS
 10
17.7374136745
 20
13.421561946
 11
17.2532810277
 21
11.8549081268
  0
LINE
  5
2A8
100
AcDbEntity
  8
LAYER_FEATURE
100
AcDbLine
 62
7
  6
CONTINUOUS
 10
17.3046499216
 20
11.5821524886
 11
17.7877696898
 21
13.1455286312
  0
LINE
  5
2A9
100
AcDbEntity
  8
LAYER_FEATURE
100
AcDbLine
 62
7
  6
CONTINUOUS
 10
17.7879415425
 20
13.1490662046
 11
17.7877674877
 21
13.1455293079
  0
LINE
  5
2AA
100
AcDbEntity
  8
0
100
AcDbLine
 62
7
  6
CONTINUOUS
 10
17.7259746045
 20
13.4448723198
 11
17.7374136745
 21
13.421561946
  0
LINE
  5
2AB
100
AcDbEntity
  8
LAYER_FEATURE
100
AcDbLine
 62
7
  6
CONTINUOUS
 10
17.7879415425
 20
13.1490662046
 11
17.7374136745
 21
13.421561946
  0
ARC
  5
2AC
100
AcDbEntity
  8
0
100
AcDbCircle
 62
7
  6
CONTINUOUS
 10
4.0223456609
 20
5.2909532301
 40
0.0208333333
100
AcDbArc
 50
191.6425163769
 51
270.0
  0
ARC
  5
2AD
100
AcDbEntity
  8
0
100
AcDbCircle
 62
7
  6
CONTINUOUS
 10
4.3008888915
 20
5.2909532301
 40
0.0208333333
100
AcDbArc
 50
270.0
 51
348.3574836231
  0
ARC
  5
2AE
100
AcDbEntity
  8
LAYER_FEATURE
100
AcDbCircle
 62
7
  6
CONTINUOUS
 10
4.5848456609
 20
5.2909532301
 40
0.0208333333
100
AcDbArc
 50
191.6425163769
 51
270.0
  0
ARC
  5
2AF
100
AcDbEntity
  8
LAYER_FEATURE
100
AcDbCircle
 62
7
  6
CONTINUOUS
 10
4.8633888915
 20
5.2909532301
 40
0.0208333333
100
AcDbArc
 50
270.0
 51
348.3574836231
  0
ARC
  5
2B0
100
AcDbEntity
  8
LAYER_FEATURE
100
AcDbCircle
 62
7
  6
CONTINUOUS
 10
5.1473456609
 20
5.2909532301
 40
0.0208333333
100
AcDbArc
 50
191.6425163769
 51
270.0
  0
ARC
  5
2B1
100
AcDbEntity
  8
LAYER_FEATURE
100
AcDbCircle
 62
7
  6
CONTINUOUS
 10
5.4258888915
 20
5.2909532301
 40
0.0208333333
100
AcDbArc
 50
270.0
 51
348.3574836231
  0
ARC
  5
2B2
100
AcDbEntity
  8
LAYER_FEATURE
100
AcDbCircle
 62
7
  6
CONTINUOUS
 10
5.7098456609
 20
5.2909532301
 40
0.0208333333
100
AcDbArc
 50
191.6425163769
 51
270.0
  0
ARC
  5
2B3
100
AcDbEntity
  8
LAYER_FEATURE
100
AcDbCircle
 62
7
  6
CONTINUOUS
 10
5.9883888915
 20
5.2909532301
 40
0.0208333333
100
AcDbArc
 50
270.0
 51
348.3574836231
  0
ARC
  5
2B4
100
AcDbEntity
  8
LAYER_FEATURE
100
AcDbCircle
 62
7
  6
CONTINUOUS
 10
6.2723456609
 20
5.2909532301
 40
0.0208333333
100
AcDbArc
 50
191.6425163769
 51
270.0
  0
ARC
  5
2B5
100
AcDbEntity
  8
LAYER_FEATURE
100
AcDbCircle
 62
7
  6
CONTINUOUS
 10
6.5508888915
 20
5.2909532301
 40
0.0208333333
100
AcDbArc
 50
270.0
 51
348.3574836231
  0
ARC
  5
2B6
100
AcDbEntity
  8
LAYER_FEATURE
100
AcDbCircle
 62
7
  6
CONTINUOUS
 10
6.8348456609
 20
5.2909532301
 40
0.0208333333
100
AcDbArc
 50
191.6425163769
 51
270.0
  0
ARC
  5
2B7
100
AcDbEntity
  8
LAYER_FEATURE
100
AcDbCircle
 62
7
  6
CONTINUOUS
 10
7.1133888915
 20
5.2909532301
 40
0.0208333333
100
AcDbArc
 50
270.0
 51
348.3574836231
  0
ARC
  5
2B8
100
AcDbEntity
  8
LAYER_FEATURE
100
AcDbCircle
 62
7
  6
CONTINUOUS
 10
7.3973456609
 20
5.2909532301
 40
0.0208333333
100
AcDbArc
 50
191.6425163769
 51
270.0
  0
ARC
  5
2B9
100
AcDbEntity
  8
LAYER_FEATURE
100
AcDbCircle
 62
7
  6
CONTINUOUS
 10
8.2383888915
 20
5.2909532301
 40
0.0208333333
100
AcDbArc
 50
270.0
 51
348.3574836231
  0
ARC
  5
2BA
100
AcDbEntity
  8
LAYER_FEATURE
100
AcDbCircle
 62
7
  6
CONTINUOUS
 10
7.9598456609
 20
5.2909532301
 40
0.0208333333
100
AcDbArc
 50
191.6425163769
 51
270.0
  0
ARC
  5
2BB
100
AcDbEntity
  8
LAYER_FEATURE
100
AcDbCircle
 62
7
  6
CONTINUOUS
 10
7.6758888915
 20
5.2909532301
 40
0.0208333333
100
AcDbArc
 50
270.0
 51
348.3574836231
  0
ARC
  5
2BC
100
AcDbEntity
  8
0
100
AcDbCircle
 62
7
  6
CONTINUOUS
 10
3.9191172762
 20
5.7626198968
 40
0.0075
100
AcDbArc
 50
90.0
 51
180.0
  0
ARC
  5
2BD
100
AcDbEntity
  8
0
100
AcDbCircle
 62
7
  6
CONTINUOUS
 10
8.3416172762
 20
5.7626198968
 40
0.0075
100
AcDbArc
 50
0.0
 51
90.0
  0
ARC
  5
2BE
100
AcDbEntity
  8
0
100
AcDbCircle
 62
7
  6
CONTINUOUS
 10
13.1567360269
 20
11.8797031212
 40
0.0024701287
100
AcDbArc
 50
162.8176811651
 51
173.1764857032
  0
SPLINE
  5
2BF
100
AcDbEntity
  8
0
100
AcDbSpline
 62
7
  6
CONTINUOUS
 70
0
 71
3
 72
11
 73
7
 74
0
 42
0.0000001
 43
0.0000001
 44
0.0000000001
 40
0.0
 40
0.0
 40
0.0
 40
0.0
 40
0.2646775377
 40
0.5366308069
 40
0.7885558833
 40
1.0
 40
1.0
 40
1.0
 40
1.0
 10
17.716778833
 20
13.4495343946
 30
0.0
 10
17.7177253929
 20
13.4495343946
 30
0.0
 10
17.7196484313
 20
13.4492750674
 30
0.0
 10
17.7223166073
 20
13.4482960388
 30
0.0
 10
17.724539128
 20
13.4468509203
 30
0.0
 10
17.7256414738
 20
13.4455511688
 30
0.0
 10
17.7259746045
 20
13.4448723198
 30
0.0
  0
SPLINE
  5
2C0
100
AcDbEntity
  8
0
100
AcDbSpline
 62
7
  6
CONTINUOUS
 70
0
 71
3
 72
9
 73
5
 74
0
 42
0.0000001
 43
0.0000001
 44
0.0000000001
 40
0.0
 40
0.0
 40
0.0
 40
0.0
 40
0.2357230423
 40
1.0
 40
1.0
 40
1.0
 40
1.0
 10
13.1542833945
 20
11.8799966008
 30
0.0
 10
13.1542663257
 20
11.879854053
 30
0.0
 10
13.1542459316
 20
11.8792428812
 30
0.0
 10
13.1544287332
 20
11.8786363762
 30
0.0
 10
13.1546337968
 20
11.8782185006
 30
0.0
  0
SPLINE
  5
2C1
100
AcDbEntity
  8
0
100
AcDbSpline
 62
7
  6
CONTINUOUS
 70
0
 71
3
 72
11
 73
7
 74
0
 42
0.0000001
 43
0.0000001
 44
0.0000000001
 40
0.0
 40
0.0
 40
0.0
 40
0.0
 40
0.2022219841
 40
0.4299972305
 40
0.6965191172
 40
1.0
 40
1.0
 40
1.0
 40
1.0
 10
13.6385087879
 20
13.4470866492
 30
0.0
 10
13.6386244063
 20
13.4474599628
 30
0.0
 10
13.6390748765
 20
13.44819847
 30
0.0
 10
13.6402083101
 20
13.4489744408
 30
0.0
 10
13.6416943339
 20
13.4494404687
 30
0.0
 10
13.6428000895
 20
13.4495343946
 30
0.0
 10
13.643386587
 20
13.4495343946
 30
0.0
  0
SPLINE
  5
2C2
100
AcDbEntity
  8
LAYER_FEATURE
100
AcDbSpline
 62
7
  6
CONTINUOUS
 70
0
 71
3
 72
12
 73
8
 74
0
 42
0.0000001
 43
0.0000001
 44
0.0000000001
 40
0.0
 40
0.0
 40
0.0
 40
0.0
 40
0.3032630668
 40
0.569225477
 40
0.7966422601
 40
0.9000501014
 40
1.0
 40
1.0
 40
1.0
 40
1.0
 10
17.2900874809
 20
11.5720755912
 30
0.0
 10
17.291717593
 20
11.5720755912
 30
0.0
 10
17.2947894924
 20
11.5723369551
 30
0.0
 10
17.2989151006
 20
11.5736260935
 30
0.0
 10
17.301619133
 20
11.5754932817
 30
0.0
 10
17.3030289087
 20
11.5773519325
 30
0.0
 10
17.3034784426
 20
11.5783614978
 30
0.0
 10
17.3036364381
 20
11.5788749957
 30
0.0
  0
SPLINE
  5
2C3
100
AcDbEntity
  8
LAYER_FEATURE
100
AcDbSpline
 62
7
  6
CONTINUOUS
 70
0
 71
3
 72
12
 73
8
 74
0
 42
0.0000001
 43
0.0000001
 44
0.0000000001
 40
0.0
 40
0.0
 40
0.0
 40
0.0
 40
0.108126449
 40
0.22539559
 40
0.4791440121
 40
0.7441414743
 40
1.0
 40
1.0
 40
1.0
 40
1.0
 10
17.0096656377
 20
11.5824123853
 30
0.0
 10
17.0102659722
 20
11.5816582259
 30
0.0
 10
17.0116515123
 20
11.5801907293
 30
0.0
 10
17.0149768657
 20
11.5774953405
 30
0.0
 10
17.0199885974
 20
11.574739514
 30
0.0
 10
17.0265988377
 20
11.5726238453
 30
0.0
 10
17.031251242
 20
11.5720755912
 30
0.0
 10
17.033532176
 20
11.5720755912
 30
0.0
  0
SPLINE
  5
2C4
100
AcDbEntity
  8
LAYER_FEATURE
100
AcDbSpline
 62
7
  6
CONTINUOUS
 70
0
 71
3
 72
12
 73
8
 74
0
 42
0.0000001
 43
0.0000001
 44
0.0000000001
 40
0.0
 40
0.0
 40
0.0
 40
0.0
 40
0.3032630668
 40
0.569225477
 40
0.7966422601
 40
0.9000501014
 40
1.0
 40
1.0
 40
1.0
 40
1.0
 10
16.7719906718
 20
11.5720755912
 30
0.0
 10
16.7736207839
 20
11.5720755912
 30
0.0
 10
16.7766926833
 20
11.5723369551
 30
0.0
 10
16.7808182915
 20
11.5736260935
 30
0.0
 10
16.7835223239
 20
11.5754932817
 30
0.0
 10
16.7849320995
 20
11.5773519325
 30
0.0
 10
16.7853816335
 20
11.5783614978
 30
0.0
 10
16.785539629
 20
11.5788749957
 30
0.0
  0
SPLINE
  5
2C5
100
AcDbEntity
  8
LAYER_FEATURE
100
AcDbSpline
 62
7
  6
CONTINUOUS
 70
0
 71
3
 72
12
 73
8
 74
0
 42
0.0000001
 43
0.0000001
 44
0.0000000001
 40
0.0
 40
0.0
 40
0.0
 40
0.0
 40
0.108126449
 40
0.22539559
 40
0.4791440121
 40
0.7441414743
 40
1.0
 40
1.0
 40
1.0
 40
1.0
 10
16.4915688286
 20
11.5824123853
 30
0.0
 10
16.4921691631
 20
11.5816582259
 30
0.0
 10
16.4935547032
 20
11.5801907293
 30
0.0
 10
16.4968800566
 20
11.5774953405
 30
0.0
 10
16.5018917882
 20
11.574739514
 30
0.0
 10
16.5085020286
 20
11.5726238453
 30
0.0
 10
16.5131544329
 20
11.5720755912
 30
0.0
 10
16.5154353669
 20
11.5720755912
 30
0.0
  0
SPLINE
  5
2C6
100
AcDbEntity
  8
LAYER_FEATURE
100
AcDbSpline
 62
7
  6
CONTINUOUS
 70
0
 71
3
 72
12
 73
8
 74
0
 42
0.0000001
 43
0.0000001
 44
0.0000000001
 40
0.0
 40
0.0
 40
0.0
 40
0.0
 40
0.3032630668
 40
0.569225477
 40
0.7966422601
 40
0.9000501014
 40
1.0
 40
1.0
 40
1.0
 40
1.0
 10
16.2538938627
 20
11.5720755912
 30
0.0
 10
16.2555239748
 20
11.5720755912
 30
0.0
 10
16.2585958741
 20
11.5723369551
 30
0.0
 10
16.2627214824
 20
11.5736260935
 30
0.0
 10
16.2654255148
 20
11.5754932817
 30
0.0
 10
16.2668352904
 20
11.5773519325
 30
0.0
 10
16.2672848244
 20
11.5783614978
 30
0.0
 10
16.2674428199
 20
11.5788749957
 30
0.0
  0
SPLINE
  5
2C7
100
AcDbEntity
  8
LAYER_FEATURE
100
AcDbSpline
 62
7
  6
CONTINUOUS
 70
0
 71
3
 72
12
 73
8
 74
0
 42
0.0000001
 43
0.0000001
 44
0.0000000001
 40
0.0
 40
0.0
 40
0.0
 40
0.0
 40
0.108126449
 40
0.22539559
 40
0.4791440121
 40
0.7441414743
 40
1.0
 40
1.0
 40
1.0
 40
1.0
 10
15.9734720195
 20
11.5824123853
 30
0.0
 10
15.9740723539
 20
11.5816582259
 30
0.0
 10
15.975457894
 20
11.5801907293
 30
0.0
 10
15.9787832475
 20
11.5774953405
 30
0.0
 10
15.9837949791
 20
11.574739514
 30
0.0
 10
15.9904052195
 20
11.5726238453
 30
0.0
 10
15.9950576238
 20
11.5720755912
 30
0.0
 10
15.9973385578
 20
11.5720755912
 30
0.0
  0
SPLINE
  5
2C8
100
AcDbEntity
  8
LAYER_FEATURE
100
AcDbSpline
 62
7
  6
CONTINUOUS
 70
0
 71
3
 72
12
 73
8
 74
0
 42
0.0000001
 43
0.0000001
 44
0.0000000001
 40
0.0
 40
0.0
 40
0.0
 40
0.0
 40
0.3032630668
 40
0.569225477
 40
0.7966422601
 40
0.9000501014
 40
1.0
 40
1.0
 40
1.0
 40
1.0
 10
15.7357970535
 20
11.5720755912
 30
0.0
 10
15.7374271656
 20
11.5720755912
 30
0.0
 10
15.740499065
 20
11.5723369551
 30
0.0
 10
15.7446246732
 20
11.5736260935
 30
0.0
 10
15.7473287057
 20
11.5754932817
 30
0.0
 10
15.7487384813
 20
11.5773519325
 30
0.0
 10
15.7491880153
 20
11.5783614978
 30
0.0
 10
15.7493460108
 20
11.5788749957
 30
0.0
  0
SPLINE
  5
2C9
100
AcDbEntity
  8
LAYER_FEATURE
100
AcDbSpline
 62
7
  6
CONTINUOUS
 70
0
 71
3
 72
12
 73
8
 74
0
 42
0.0000001
 43
0.0000001
 44
0.0000000001
 40
0.0
 40
0.0
 40
0.0
 40
0.0
 40
0.108126449
 40
0.22539559
 40
0.4791440121
 40
0.7441414743
 40
1.0
 40
1.0
 40
1.0
 40
1.0
 10
15.4553752104
 20
11.5824123853
 30
0.0
 10
15.4559755448
 20
11.5816582259
 30
0.0
 10
15.4573610849
 20
11.5801907293
 30
0.0
 10
15.4606864383
 20
11.5774953405
 30
0.0
 10
15.46569817
 20
11.574739514
 30
0.0
 10
15.4723084103
 20
11.5726238453
 30
0.0
 10
15.4769608146
 20
11.5720755912
 30
0.0
 10
15.4792417487
 20
11.5720755912
 30
0.0
  0
SPLINE
  5
2CA
100
AcDbEntity
  8
LAYER_FEATURE
100
AcDbSpline
 62
7
  6
CONTINUOUS
 70
0
 71
3
 72
12
 73
8
 74
0
 42
0.0000001
 43
0.0000001
 44
0.0000000001
 40
0.0
 40
0.0
 40
0.0
 40
0.0
 40
0.3032630668
 40
0.569225477
 40
0.7966422601
 40
0.9000501014
 40
1.0
 40
1.0
 40
1.0
 40
1.0
 10
15.2177002444
 20
11.5720755912
 30
0.0
 10
15.2193303565
 20
11.5720755912
 30
0.0
 10
15.2224022559
 20
11.5723369551
 30
0.0
 10
15.2265278641
 20
11.5736260935
 30
0.0
 10
15.2292318965
 20
11.5754932817
 30
0.0
 10
15.2306416722
 20
11.5773519325
 30
0.0
 10
15.2310912061
 20
11.5783614978
 30
0.0
 10
15.2312492016
 20
11.5788749957
 30
0.0
  0
SPLINE
  5
2CB
100
AcDbEntity
  8
LAYER_FEATURE
100
AcDbSpline
 62
7
  6
CONTINUOUS
 70
0
 71
3
 72
12
 73
8
 74
0
 42
0.0000001
 43
0.0000001
 44
0.0000000001
 40
0.0
 40
0.0
 40
0.0
 40
0.0
 40
0.108126449
 40
0.22539559
 40
0.4791440121
 40
0.7441414743
 40
1.0
 40
1.0
 40
1.0
 40
1.0
 10
14.9372784012
 20
11.5824123853
 30
0.0
 10
14.9378787357
 20
11.5816582259
 30
0.0
 10
14.9392642758
 20
11.5801907293
 30
0.0
 10
14.9425896292
 20
11.5774953405
 30
0.0
 10
14.9476013609
 20
11.574739514
 30
0.0
 10
14.9542116012
 20
11.5726238453
 30
0.0
 10
14.9588640055
 20
11.5720755912
 30
0.0
 10
14.9611449395
 20
11.5720755912
 30
0.0
  0
SPLINE
  5
2CC
100
AcDbEntity
  8
LAYER_FEATURE
100
AcDbSpline
 62
7
  6
CONTINUOUS
 70
0
 71
3
 72
12
 73
8
 74
0
 42
0.0000001
 43
0.0000001
 44
0.0000000001
 40
0.0
 40
0.0
 40
0.0
 40
0.0
 40
0.3032630668
 40
0.569225477
 40
0.7966422601
 40
0.9000501014
 40
1.0
 40
1.0
 40
1.0
 40
1.0
 10
14.6996034353
 20
11.5720755912
 30
0.0
 10
14.7012335474
 20
11.5720755912
 30
0.0
 10
14.7043054468
 20
11.5723369551
 30
0.0
 10
14.708431055
 20
11.5736260935
 30
0.0
 10
14.7111350874
 20
11.5754932817
 30
0.0
 10
14.712544863
 20
11.5773519325
 30
0.0
 10
14.712994397
 20
11.5783614978
 30
0.0
 10
14.7131523925
 20
11.5788749957
 30
0.0
  0
SPLINE
  5
2CD
100
AcDbEntity
  8
LAYER_FEATURE
100
AcDbSpline
 62
7
  6
CONTINUOUS
 70
0
 71
3
 72
12
 73
8
 74
0
 42
0.0000001
 43
0.0000001
 44
0.0000000001
 40
0.0
 40
0.0
 40
0.0
 40
0.0
 40
0.108126449
 40
0.22539559
 40
0.4791440121
 40
0.7441414743
 40
1.0
 40
1.0
 40
1.0
 40
1.0
 10
14.4191815921
 20
11.5824123853
 30
0.0
 10
14.4197819265
 20
11.5816582259
 30
0.0
 10
14.4211674667
 20
11.5801907293
 30
0.0
 10
14.4244928201
 20
11.5774953405
 30
0.0
 10
14.4295045517
 20
11.574739514
 30
0.0
 10
14.4361147921
 20
11.5726238453
 30
0.0
 10
14.4407671964
 20
11.5720755912
 30
0.0
 10
14.4430481304
 20
11.5720755912
 30
0.0
  0
SPLINE
  5
2CE
100
AcDbEntity
  8
LAYER_FEATURE
100
AcDbSpline
 62
7
  6
CONTINUOUS
 70
0
 71
3
 72
12
 73
8
 74
0
 42
0.0000001
 43
0.0000001
 44
0.0000000001
 40
0.0
 40
0.0
 40
0.0
 40
0.0
 40
0.3032630668
 40
0.569225477
 40
0.7966422601
 40
0.9000501014
 40
1.0
 40
1.0
 40
1.0
 40
1.0
 10
14.1815066262
 20
11.5720755912
 30
0.0
 10
14.1831367383
 20
11.5720755912
 30
0.0
 10
14.1862086376
 20
11.5723369551
 30
0.0
 10
14.1903342459
 20
11.5736260935
 30
0.0
 10
14.1930382783
 20
11.5754932817
 30
0.0
 10
14.1944480539
 20
11.5773519325
 30
0.0
 10
14.1948975879
 20
11.5783614978
 30
0.0
 10
14.1950555834
 20
11.5788749957
 30
0.0
  0
SPLINE
  5
2CF
100
AcDbEntity
  8
LAYER_FEATURE
100
AcDbSpline
 62
7
  6
CONTINUOUS
 70
0
 71
3
 72
12
 73
8
 74
0
 42
0.0000001
 43
0.0000001
 44
0.0000000001
 40
0.0
 40
0.0
 40
0.0
 40
0.0
 40
0.108126449
 40
0.22539559
 40
0.4791440121
 40
0.7441414743
 40
1.0
 40
1.0
 40
1.0
 40
1.0
 10
13.901084783
 20
11.5824123853
 30
0.0
 10
13.9016851174
 20
11.5816582259
 30
0.0
 10
13.9030706575
 20
11.5801907293
 30
0.0
 10
13.906396011
 20
11.5774953405
 30
0.0
 10
13.9114077426
 20
11.574739514
 30
0.0
 10
13.918017983
 20
11.5726238453
 30
0.0
 10
13.9226703873
 20
11.5720755912
 30
0.0
 10
13.9249513213
 20
11.5720755912
 30
0.0
  0
SPLINE
  5
2D0
100
AcDbEntity
  8
0
100
AcDbSpline
 62
7
  6
CONTINUOUS
 70
0
 71
3
 72
12
 73
8
 74
0
 42
0.0000001
 43
0.0000001
 44
0.0000000001
 40
0.0
 40
0.0
 40
0.0
 40
0.0
 40
0.3032630668
 40
0.569225477
 40
0.7966422601
 40
0.9000501014
 40
1.0
 40
1.0
 40
1.0
 40
1.0
 10
13.663409817
 20
11.5720755912
 30
0.0
 10
13.6650399291
 20
11.5720755912
 30
0.0
 10
13.6681118285
 20
11.5723369551
 30
0.0
 10
13.6722374367
 20
11.5736260935
 30
0.0
 10
13.6749414691
 20
11.5754932817
 30
0.0
 10
13.6763512448
 20
11.5773519325
 30
0.0
 10
13.6768007788
 20
11.5783614978
 30
0.0
 10
13.6769587743
 20
11.5788749957
 30
0.0
  0
SPLINE
  5
2D1
100
AcDbEntity
  8
0
100
AcDbSpline
 62
7
  6
CONTINUOUS
 70
0
 71
3
 72
12
 73
8
 74
0
 42
0.0000001
 43
0.0000001
 44
0.0000000001
 40
0.0
 40
0.0
 40
0.0
 40
0.0
 40
0.108126449
 40
0.22539559
 40
0.4791440121
 40
0.7441414743
 40
1.0
 40
1.0
 40
1.0
 40
1.0
 10
13.3829879738
 20
11.5824123853
 30
0.0
 10
13.3835883083
 20
11.5816582259
 30
0.0
 10
13.3849738484
 20
11.5801907293
 30
0.0
 10
13.3882992018
 20
11.5774953405
 30
0.0
 10
13.3933109335
 20
11.574739514
 30
0.0
 10
13.3999211738
 20
11.5726238453
 30
0.0
 10
13.4045735781
 20
11.5720755912
 30
0.0
 10
13.4068545122
 20
11.5720755912
 30
0.0
  0
SPLINE
  5
2D2
100
AcDbEntity
  8
0
100
AcDbSpline
 62
7
  6
CONTINUOUS
 70
0
 71
3
 72
11
 73
7
 74
0
 42
0.0000001
 43
0.0000001
 44
0.0000000001
 40
0.0
 40
0.0
 40
0.0
 40
0.0
 40
0.3034808828
 40
0.5700027695
 40
0.7977780159
 40
1.0
 40
1.0
 40
1.0
 40
1.0
 10
13.1592539402
 20
11.8828805753
 30
0.0
 10
13.1586674427
 20
11.8828805753
 30
0.0
 10
13.1575616871
 20
11.8827866494
 30
0.0
 10
13.1560756633
 20
11.8823206215
 30
0.0
 10
13.1549422296
 20
11.8815446507
 30
0.0
 10
13.1544917595
 20
11.8808061436
 30
0.0
 10
13.1543761411
 20
11.8804328299
 30
0.0
  0
SPLINE
  5
2D3
100
AcDbEntity
  8
0
100
AcDbSpline
 62
7
  6
CONTINUOUS
 70
0
 71
3
 72
11
 73
7
 74
0
 42
0.0000001
 43
0.0000001
 44
0.0000000001
 40
0.0
 40
0.0
 40
0.0
 40
0.0
 40
0.2114441167
 40
0.4633691931
 40
0.7353224623
 40
1.0
 40
1.0
 40
1.0
 40
1.0
 10
17.2418419577
 20
11.8782185006
 30
0.0
 10
17.241508827
 20
11.8788973496
 30
0.0
 10
17.2404064811
 20
11.880197101
 30
0.0
 10
17.2381839604
 20
11.8816422195
 30
0.0
 10
17.2355157845
 20
11.8826212481
 30
0.0
 10
17.2335927461
 20
11.8828805753
 30
0.0
 10
17.2326461862
 20
11.8828805753
 30
0.0
  0
ENDSEC
  0
SECTION
  2
OBJECTS
  0
DICTIONARY
  5
C
100
AcDbDictionary
280
0
281
1
  3
ACAD_GROUP
350
D
  3
ACAD_MLINESTYLE
350
17
  3
ACAD_LAYOUT
350
1A
  3
ACAD_PLOTSETTINGS
350
19
  3
ACAD_PLOTSTYLENAME
350
E
  0
DICTIONARY
  5
D
102
{ACAD_REACTORS
330
C
102
}
100
AcDbDictionary
280
0
281
1
  0
ACDBDICTIONARYWDFLT
  5
E
102
{ACAD_REACTORS
330
C
102
}
100
AcDbDictionary
281
1
  3
Normal
350
F
100
AcDbDictionaryWithDefault
340
F
  0
DICTIONARY
  5
17
102
{ACAD_REACTORS
330
C
102
}
100
AcDbDictionary
280
0
281
1
  3
Standard
350
18
  0
DICTIONARY
  5
19
102
{ACAD_REACTORS
330
C
102
}
100
AcDbDictionary
281
1
  0
DICTIONARY
  5
1A
102
{ACAD_REACTORS
330
C
102
}
100
AcDbDictionary
281
1
  3
Model
350
2D4
  3
Layout1
350
2D5
  0
ACDBPLACEHOLDER
  5
F
102
{ACAD_REACTORS
330
E
102
}
  0
MLINESTYLE
  5
18
102
{ACAD_REACTORS
330
17
102
}
100
AcDbMlineStyle
  2
STANDARD
 70
0
  3

 62
256
 51
90.0
 52
90.0
 71
2
 49
0.5
 62
256
  6
BYLAYER
 49
-0.5
 62
256
  6
BYLAYER
  0
LAYOUT
  5
2D4
102
{ACAD_REACTORS
330
1A
102
}
100
AcDbPlotSettings
  1

  2
none_device
  4
ANSI_C_(22.00_x_17.00_Inches)
  6

 40
0.0
 41
0.0
 42
0.0
 43
0.0
 44
558.8
 45
431.8
 46
0.0
 47
0.0
 48
0.0
 49
0.0
140
0.0
141
0.0
142
1.0
143
1.0
 70
1024
 72
0
 73
0
 74
0
  7

 75
0
147
1.0
148
0.0
149
0.0
100
AcDbLayout
  1
Model
 70
0
 71
0
 10
0.0
 20
0.0
 11
22.0
 21
17.0
 12
0.0
 22
0.0
 32
0.0
 14
0.0
 24
0.0
 34
0.0
 15
0.0
 25
0.0
 35
0.0
146
0.0
 13
0.0
 23
0.0
 33
0.0
 16
1.0
 26
0.0
 36
0.0
 17
0.0
 27
1.0
 37
0.0
 76
0
330
21C
345
0
346
0
  0
LAYOUT
  5
2D5
102
{ACAD_REACTORS
330
1A
102
}
100
AcDbPlotSettings
  1

  2
none_device
  4
ANSI_C_(22.00_x_17.00_Inches)
  6

 40
0.0
 41
0.0
 42
0.0
 43
0.0
 44
558.8
 45
431.8
 46
0.0
 47
0.0
 48
0.0
 49
0.0
140
0.0
141
0.0
142
1.0
143
1.0
 70
0
 72
0
 73
0
 74
0
  7

 75
0
147
1.0
148
0.0
149
0.0
100
AcDbLayout
  1
Layout1
 70
0
 71
1
 10
0.0
 20
0.0
 11
22.0
 21
17.0
 12
0.0
 22
0.0
 32
0.0
 14
0.0
 24
0.0
 34
0.0
 15
0.0
 25
0.0
 35
0.0
146
0.0
 13
0.0
 23
0.0
 33
0.0
 16
1.0
 26
0.0
 36
0.0
 17
0.0
 27
1.0
 37
0.0
 76
0
330
21D
345
0
346
0
  0
ENDSEC
  0
EOF