999
DXF file: _cgs_temp_output.dxf
999
Pro/ENGINEER 2015110 by Parametric Technology Corporation
  0
SECTION
  2
HEADER
  9
$ACADVER
  1
AC1021
  9
$DWGCODEPAGE
  3
ANSI_1252
  9
$EXTMAX
 10
22.0
 20
17.0
 30
0.0
  9
$EXTMIN
 10
0.0
 20
0.0
 30
0.0
  9
$LIMMIN
 10
0.0
 20
0.0
  9
$LIMMAX
 10
22.0
 20
17.0
  9
$VIEWCTR
 10
11.0
 20
8.5
  9
$VIEWSIZE
 40
17.0
  9
$CLAYER
  8
0
  9
$LTSCALE
 40
1.21
  9
$CELTYPE
  6
BYLAYER
  9
$DIMSCALE
 40
1.0
  9
$DIMASZ
 40
0.1875
  9
$DIMEXO
 40
0.0625
  9
$DIMDLI
 40
0.836
  9
$DIMEXE
 40
0.125
  9
$DIMCEN
 40
0.198
  9
$DIMLFAC
 40
1.0
  9
$DIMBLK
  1
_CLOSED
  9
$DIMALT
 70
0
  9
$DIMALTF
 40
25.4
  9
$DIMTXT
 40
0.15625
  9
$DIMTOL
 70
0
  9
$DIMLIM
 70
0
  9
$DIMTFAC
 40
1.0
  9
$DIMGAP
 40
0.09
  9
$DIMDSEP
 70
46
  9
$AUNITS
 70
0
  9
$PDMODE
 70
3
  9
$PDSIZE
 40
0.3125
  9
$HANDSEED
  5
2D5
  9
$TILEMODE
 70
1
  9
$MEASUREMENT
 70
0
  9
$INSUNITS
 70
1
  0
ENDSEC
  0
SECTION
  2
CLASSES
  0
CLASS
  1
ACDBDICTIONARYWDFLT
  2
AcDbDictionaryWithDefault
  3
AutoCAD 2000
 90
0
 91
1
280
0
281
0
  0
CLASS
  1
ACDBPLACEHOLDER
  2
AcDbPlaceHolder
  3
AutoCAD 2000
 90
0
 91
1
280
0
281
0
  0
CLASS
  1
LAYOUT
  2
AcDbLayout
  3
AutoCAD 2000
 90
0
 91
0
280
0
281
0
  0
ENDSEC
  0
SECTION
  2
TABLES
  0
TABLE
  2
VPORT
  5
8
100
AcDbSymbolTable
 70
2
  0
VPORT
  5
1F4
100
AcDbSymbolTableRecord
100
AcDbViewportTableRecord
  2
*ACTIVE
 70
0
 10
0.0
 20
0.0
 11
1.0
 21
1.0
 12
11.0
 22
8.5
 13
0.0
 23
0.0
 14
1.0
 24
1.0
 15
0.0
 25
0.0
 16
0.0
 26
0.0
 36
1.0
 17
0.0
 27
0.0
 37
0.0
 40
17.0
 41
1.2941176471
 42
50.0
 43
0.0
 44
0.0
 50
0.0
 51
0.0
 71
0
 72
100
 73
1
 74
1
 75
0
 76
0
 77
0
 78
0
  0
ENDTAB
  0
TABLE
  2
LTYPE
  5
5
100
AcDbSymbolTable
 70
6
  0
LTYPE
  5
14
100
AcDbSymbolTableRecord
100
AcDbLinetypeTableRecord
  2
BYBLOCK
 70
0
  3

 72
65
 73
0
 40
0.0
  0
LTYPE
  5
15
100
AcDbSymbolTableRecord
100
AcDbLinetypeTableRecord
  2
BYLAYER
 70
0
  3

 72
65
 73
0
 40
0.0
  0
LTYPE
  5
16
100
AcDbSymbolTableRecord
100
AcDbLinetypeTableRecord
  2
CONTINUOUS
 70
64
  3
Solid line
 72
65
 73
0
 40
0.0
  0
LTYPE
  5
1F5
100
AcDbSymbolTableRecord
100
AcDbLinetypeTableRecord
  2
CENTER
 70
64
  3
____ _ ____ _ ____ _ ____ _ ____ _ ____ _ ____
 72
65
 73
4
 40
0.6
 49
0.375
 74
0
 49
-0.075
 74
0
 49
0.075
 74
0
 49
-0.075
 74
0
  0
LTYPE
  5
1F6
100
AcDbSymbolTableRecord
100
AcDbLinetypeTableRecord
  2
HIDDEN
 70
64
  3
- - - - - - - - - - - - - - - - - - - -
 72
65
 73
2
 40
0.2
 49
0.1
 74
0
 49
-0.1
 74
0
  0
LTYPE
  5
1F7
100
AcDbSymbolTableRecord
100
AcDbLinetypeTableRecord
  2
PHANTOM
 70
64
  3
_____ _ _ _____ _ _ _____ _ _ _____
 72
65
 73
6
 40
0.8
 49
0.45
 74
0
 49
-0.05
 74
0
 49
0.1
 74
0
 49
-0.05
 74
0
 49
0.1
 74
0
 49
-0.05
 74
0
  0
LTYPE
  5
1F8
100
AcDbSymbolTableRecord
100
AcDbLinetypeTableRecord
  2
DOT
 70
64
  3
. . . . . . . . . . . . . . . . . . . .
 72
65
 73
2
 40
0.2
 49
0.1
 74
0
 49
-0.1
 74
0
  0
LTYPE
  5
1F9
100
AcDbSymbolTableRecord
100
AcDbLinetypeTableRecord
  2
DASHED
 70
64
  3
- - - - - - - - - - - - - - - - - - - -
 72
65
 73
2
 40
0.2
 49
0.1
 74
0
 49
-0.1
 74
0
  0
ENDTAB
  0
TABLE
  2
LAYER
  5
2
100
AcDbSymbolTable
 70
36
  0
LAYER
  5
10
100
AcDbSymbolTableRecord
100
AcDbLayerTableRecord
  2
0
 70
0
 62
7
  6
CONTINUOUS
370
-3
390
F
  0
LAYER
  5
1FA
100
AcDbSymbolTableRecord
100
AcDbLayerTableRecord
  2
DEFAULT_1
 70
0
 62
7
  6
CENTER
370
-3
390
F
  0
LAYER
  5
1FB
100
AcDbSymbolTableRecord
100
AcDbLayerTableRecord
  2
DEFAULT_2
 70
0
 62
8
  6
HIDDEN
370
-3
390
F
  0
LAYER
  5
1FC
100
AcDbSymbolTableRecord
100
AcDbLayerTableRecord
  2
DEFAULT_3
 70
0
 62
7
  6
PHANTOM
370
-3
390
F
  0
LAYER
  5
1FD
100
AcDbSymbolTableRecord
100
AcDbLayerTableRecord
  2
01_ALL_DTM_PLN
 70
0
 62
7
  6
CONTINUOUS
370
-3
390
F
  0
LAYER
  5
1FE
100
AcDbSymbolTableRecord
100
AcDbLayerTableRecord
  2
01__ASM_ALL_DTM_PLN
 70
0
 62
7
  6
CONTINUOUS
370
-3
390
F
  0
LAYER
  5
1FF
100
AcDbSymbolTableRecord
100
AcDbLayerTableRecord
  2
01__ASM_DEF_DTM_PLN
 70
0
 62
7
  6
CONTINUOUS
370
-3
390
F
  0
LAYER
  5
200
100
AcDbSymbolTableRecord
100
AcDbLayerTableRecord
  2
01___PRT_ALL_DTM_PLN
 70
0
 62
7
  6
CONTINUOUS
370
-3
390
F
  0
LAYER
  5
201
100
AcDbSymbolTableRecord
100
AcDbLayerTableRecord
  2
01___PRT_DEF_DTM_PLN
 70
0
 62
7
  6
CONTINUOUS
370
-3
390
F
  0
LAYER
  5
202
100
AcDbSymbolTableRecord
100
AcDbLayerTableRecord
  2
02_ALL_AXES
 70
0
 62
7
  6
CONTINUOUS
370
-3
390
F
  0
LAYER
  5
203
100
AcDbSymbolTableRecord
100
AcDbLayerTableRecord
  2
02__ASM_ALL_AXES
 70
0
 62
7
  6
CONTINUOUS
370
-3
390
F
  0
LAYER
  5
204
100
AcDbSymbolTableRecord
100
AcDbLayerTableRecord
  2
02___PRT_ALL_AXES
 70
0
 62
7
  6
CONTINUOUS
370
-3
390
F
  0
LAYER
  5
205
100
AcDbSymbolTableRecord
100
AcDbLayerTableRecord
  2
03_ALL_CURVES
 70
0
 62
7
  6
CONTINUOUS
370
-3
390
F
  0
LAYER
  5
206
100
AcDbSymbolTableRecord
100
AcDbLayerTableRecord
  2
03__ASM_ALL_CURVES
 70
0
 62
7
  6
CONTINUOUS
370
-3
390
F
  0
LAYER
  5
207
100
AcDbSymbolTableRecord
100
AcDbLayerTableRecord
  2
03___PRT_ALL_CURVES
 70
0
 62
7
  6
CONTINUOUS
370
-3
390
F
  0
LAYER
  5
208
100
AcDbSymbolTableRecord
100
AcDbLayerTableRecord
  2
04_ALL_DTM_PNT
 70
0
 62
7
  6
CONTINUOUS
370
-3
390
F
  0
LAYER
  5
209
100
AcDbSymbolTableRecord
100
AcDbLayerTableRecord
  2
04__ASM_ALL_DTM_PNT
 70
0
 62
7
  6
CONTINUOUS
370
-3
390
F
  0
LAYER
  5
20A
100
AcDbSymbolTableRecord
100
AcDbLayerTableRecord
  2
04___PRT_ALL_DTM_PNT
 70
0
 62
7
  6
CONTINUOUS
370
-3
390
F
  0
LAYER
  5
20B
100
AcDbSymbolTableRecord
100
AcDbLayerTableRecord
  2
05_ALL_DTM_CSYS
 70
0
 62
7
  6
CONTINUOUS
370
-3
390
F
  0
LAYER
  5
20C
100
AcDbSymbolTableRecord
100
AcDbLayerTableRecord
  2
05__ASM_ALL_DTM_CSYS
 70
0
 62
7
  6
CONTINUOUS
370
-3
390
F
  0
LAYER
  5
20D
100
AcDbSymbolTableRecord
100
AcDbLayerTableRecord
  2
05__ASM_DEF_DTM_CSYS
 70
0
 62
7
  6
CONTINUOUS
370
-3
390
F
  0
LAYER
  5
20E
100
AcDbSymbolTableRecord
100
AcDbLayerTableRecord
  2
05___PRT_ALL_DTM_CSYS
 70
0
 62
7
  6
CONTINUOUS
370
-3
390
F
  0
LAYER
  5
20F
100
AcDbSymbolTableRecord
100
AcDbLayerTableRecord
  2
05___PRT_DEF_DTM_CSYS
 70
0
 62
7
  6
CONTINUOUS
370
-3
390
F
  0
LAYER
  5
210
100
AcDbSymbolTableRecord
100
AcDbLayerTableRecord
  2
06_ALL_SURFS
 70
0
 62
7
  6
CONTINUOUS
370
-3
390
F
  0
LAYER
  5
211
100
AcDbSymbolTableRecord
100
AcDbLayerTableRecord
  2
06__ASM_ALL_SURFS
 70
0
 62
7
  6
CONTINUOUS
370
-3
390
F
  0
LAYER
  5
212
100
AcDbSymbolTableRecord
100
AcDbLayerTableRecord
  2
06___PRT_ALL_SURFS
 70
0
 62
7
  6
CONTINUOUS
370
-3
390
F
  0
LAYER
  5
213
100
AcDbSymbolTableRecord
100
AcDbLayerTableRecord
  2
07__ASM_ALL_SKELETONS
 70
0
 62
7
  6
CONTINUOUS
370
-3
390
F
  0
LAYER
  5
214
100
AcDbSymbolTableRecord
100
AcDbLayerTableRecord
  2
LAYER_DIM
 70
0
 62
7
  6
CONTINUOUS
370
-3
390
F
  0
LAYER
  5
215
100
AcDbSymbolTableRecord
100
AcDbLayerTableRecord
  2
LAYER_FEATURE
 70
0
 62
7
  6
CONTINUOUS
370
-3
390
F
  0
LAYER
  5
216
100
AcDbSymbolTableRecord
100
AcDbLayerTableRecord
  2
LAYER_GEOM_FEAT
 70
0
 62
7
  6
CONTINUOUS
370
-3
390
F
  0
LAYER
  5
217
100
AcDbSymbolTableRecord
100
AcDbLayerTableRecord
  2
LAYER_PARAMETER_DIM
 70
0
 62
7
  6
CONTINUOUS
370
-3
390
F
  0
LAYER
  5
218
100
AcDbSymbolTableRecord
100
AcDbLayerTableRecord
  2
LAYER_PROTRUSION_FEAT
 70
0
 62
7
  6
CONTINUOUS
370
-3
390
F
  0
LAYER
  5
219
100
AcDbSymbolTableRecord
100
AcDbLayerTableRecord
  2
LAYER_ROUND_FEAT
 70
0
 62
7
  6
CONTINUOUS
370
-3
390
F
  0
ENDTAB
  0
TABLE
  2
STYLE
  5
3
100
AcDbSymbolTable
 70
1
  0
STYLE
  5
11
100
AcDbSymbolTableRecord
100
AcDbTextStyleTableRecord
  2
STANDARD
 70
0
 40
0.0
 41
0.8
 50
0.0
 71
0
 42
0.2
  3
txt
  4

  0
STYLE
  5
21A
100
AcDbSymbolTableRecord
100
AcDbTextStyleTableRecord
  2
TEXTSTYLE_1
 70
0
 40
0.0
 41
0.8
 50
0.0
 71
0
 42
0.2
  3
gdt
  4

  0
ENDTAB
  0
TABLE
  2
VIEW
  5
6
100
AcDbSymbolTable
 70
0
  0
ENDTAB
  0
TABLE
  2
UCS
  5
7
100
AcDbSymbolTable
 70
0
  0
ENDTAB
  0
TABLE
  2
APPID
  5
9
100
AcDbSymbolTable
 70
1
  0
APPID
  5
21B
100
AcDbSymbolTableRecord
100
AcDbRegAppTableRecord
  2
ACAD
 70
0
  0
ENDTAB
  0
TABLE
  2
BLOCK_RECORD
  5
1
100
AcDbSymbolTable
 70
0
  0
BLOCK_RECORD
  5
21C
100
AcDbSymbolTableRecord
100
AcDbBlockTableRecord
  2
*Model_Space
  0
BLOCK_RECORD
  5
21D
100
AcDbSymbolTableRecord
100
AcDbBlockTableRecord
  2
*Paper_Space
  0
ENDTAB
  0
TABLE
  2
DIMSTYLE
  5
A
100
AcDbSymbolTable
 70
1
100
AcDbDimStyleTable
 71
0
  0
DIMSTYLE
105
21E
100
AcDbSymbolTableRecord
100
AcDbDimStyleTableRecord
  2
STANDARD
 70
0
  3

  4

 40
1.0
 41
0.1875
 42
0.0625
 43
0.38
 44
0.125
 45
0.0
 46
0.0
 47
0.0001
 48
0.0001
140
0.15625
141
0.09
142
0.0
143
25.4
144
1.0
145
0.0
146
1.0
147
0.09
 71
0.0
 72
0.0
 73
1
 74
1
 75
0
 76
0
 77
0
 78
4
170
0
171
2
172
0
173
0
174
0
175
0
176
0
177
0
178
0
270
2
271
4
272
4
273
2
274
2
275
0
280
0
281
0
282
0
283
1
284
4
285
0
286
0
287
3
288
0
340
11
278
46
  0
ENDTAB
  0
ENDSEC
  0
SECTION
  2
BLOCKS
  0
BLOCK
  5
20
100
AcDbEntity
  8
0
100
AcDbBlockBegin
  2
*Model_Space
 70
0
 10
0.0
 20
0.0
 30
0.0
  3
*Model_Space
  1

  0
ENDBLK
  5
21
100
AcDbEntity
  8
0
100
AcDbBlockEnd
  0
BLOCK
  5
1C
100
AcDbEntity
  8
0
100
AcDbBlockBegin
  2
*Paper_Space
 70
0
 10
0.0
 20
0.0
 30
0.0
  3
*Paper_Space
  1

  0
ENDBLK
  5
1D
100
AcDbEntity
  8
0
100
AcDbBlockEnd
  0
ENDSEC
  0
SECTION
  2
ENTITIES
  0
MTEXT
  5
21F
100
AcDbEntity
  8
0
100
AcDbMText
 62
7
  6
CONTINUOUS
  7
STANDARD
 71
1
 72
1
 10
15.9560215477
 20
0.9479130325
 30
0.0
 11
1.0
 21
0.0
 31
0.0
 44
0.9
  1
SCALE: 1:0.500
 40
0.3
 41
3.36
  0
LINE
  5
220
100
AcDbEntity
  8
0
100
AcDbLine
 62
7
  6
CONTINUOUS
 10
0.0
 20
0.0
 11
0.0
 21
17.0
  0
LINE
  5
221
100
AcDbEntity
  8
0
100
AcDbLine
 62
7
  6
CONTINUOUS
 10
0.0
 20
0.0
 11
22.0
 21
0.0
  0
LINE
  5
222
100
AcDbEntity
  8
0
100
AcDbLine
 62
7
  6
CONTINUOUS
 10
0.0
 20
17.0
 11
22.0
 21
17.0
  0
LINE
  5
223
100
AcDbEntity
  8
0
100
AcDbLine
 62
7
  6
CONTINUOUS
 10
22.0
 20
0.0
 11
22.0
 21
17.0
  0
LINE
  5
224
100
AcDbEntity
  8
0
100
AcDbLine
 62
7
  6
CONTINUOUS
 10
3.3013672762
 20
5.7226198968
 11
3.3013672762
 21
5.6851198968
  0
LINE
  5
225
100
AcDbEntity
  8
0
100
AcDbLine
 62
7
  6
CONTINUOUS
 10
3.3013672762
 20
5.6851198968
 11
3.4128441234
 21
5.3283939855
  0
LINE
  5
226
100
AcDbEntity
  8
0
100
AcDbLine
 62
7
  6
CONTINUOUS
 10
3.9263672762
 20
5.6851198968
 11
3.9263672762
 21
5.7076198968
  0
LINE
  5
227
100
AcDbEntity
  8
LAYER_FEATURE
100
AcDbLine
 62
7
  6
CONTINUOUS
 10
4.0203672762
 20
5.7076198968
 11
4.0203672762
 21
5.6851198968
  0
LINE
  5
228
100
AcDbEntity
  8
0
100
AcDbLine
 62
7
  6
CONTINUOUS
 10
3.8148904289
 20
5.3283939855
 11
3.9263672762
 21
5.6851198968
  0
LINE
  5
229
100
AcDbEntity
  8
LAYER_FEATURE
100
AcDbLine
 62
7
  6
CONTINUOUS
 10
4.0203672762
 20
5.6851198968
 11
4.1318441234
 21
5.3283939855
  0
LINE
  5
22A
100
AcDbEntity
  8
LAYER_FEATURE
100
AcDbLine
 62
7
  6
CONTINUOUS
 10
4.6453672762
 20
5.6851198968
 11
4.6453672762
 21
5.7076198968
  0
LINE
  5
22B
100
AcDbEntity
  8
LAYER_FEATURE
100
AcDbLine
 62
7
  6
CONTINUOUS
 10
4.7393672762
 20
5.7076198968
 11
4.7393672762
 21
5.6851198968
  0
LINE
  5
22C
100
AcDbEntity
  8
LAYER_FEATURE
100
AcDbLine
 62
7
  6
CONTINUOUS
 10
4.5338904289
 20
5.3283939855
 11
4.6453672762
 21
5.6851198968
  0
LINE
  5
22D
100
AcDbEntity
  8
LAYER_FEATURE
100
AcDbLine
 62
7
  6
CONTINUOUS
 10
4.7393672762
 20
5.6851198968
 11
4.8508441234
 21
5.3283939855
  0
LINE
  5
22E
100
AcDbEntity
  8
LAYER_FEATURE
100
AcDbLine
 62
7
  6
CONTINUOUS
 10
5.3643672762
 20
5.6851198968
 11
5.3643672762
 21
5.7076198968
  0
LINE
  5
22F
100
AcDbEntity
  8
LAYER_FEATURE
100
AcDbLine
 62
7
  6
CONTINUOUS
 10
5.2528904289
 20
5.3283939855
 11
5.3643672762
 21
5.6851198968
  0
LINE
  5
230
100
AcDbEntity
  8
LAYER_FEATURE
100
AcDbLine
 62
7
  6
CONTINUOUS
 10
5.4583672762
 20
5.7076198968
 11
5.4583672762
 21
5.6851198968
  0
LINE
  5
231
100
AcDbEntity
  8
LAYER_FEATURE
100
AcDbLine
 62
7
  6
CONTINUOUS
 10
5.4583672762
 20
5.6851198968
 11
5.5698441234
 21
5.3283939855
  0
LINE
  5
232
100
AcDbEntity
  8
0
100
AcDbLine
 62
7
  6
CONTINUOUS
 10
3.4377003729
 20
5.3101198968
 11
3.7900341795
 21
5.3101198968
  0
LINE
  5
233
100
AcDbEntity
  8
LAYER_FEATURE
100
AcDbLine
 62
7
  6
CONTINUOUS
 10
4.1567003729
 20
5.3101198968
 11
4.5090341795
 21
5.3101198968
  0
LINE
  5
234
100
AcDbEntity
  8
LAYER_FEATURE
100
AcDbLine
 62
7
  6
CONTINUOUS
 10
4.8757003729
 20
5.3101198968
 11
5.2280341795
 21
5.3101198968
  0
LINE
  5
235
100
AcDbEntity
  8
LAYER_FEATURE
100
AcDbLine
 62
7
  6
CONTINUOUS
 10
5.5947003729
 20
5.3101198968
 11
5.9470341795
 21
5.3101198968
  0
LINE
  5
236
100
AcDbEntity
  8
LAYER_FEATURE
100
AcDbLine
 62
7
  6
CONTINUOUS
 10
6.3137003729
 20
5.3101198968
 11
6.6660341795
 21
5.3101198968
  0
LINE
  5
237
100
AcDbEntity
  8
LAYER_FEATURE
100
AcDbLine
 62
7
  6
CONTINUOUS
 10
7.0327003729
 20
5.3101198968
 11
7.3850341795
 21
5.3101198968
  0
LINE
  5
238
100
AcDbEntity
  8
LAYER_FEATURE
100
AcDbLine
 62
7
  6
CONTINUOUS
 10
7.7517003729
 20
5.3101198968
 11
8.1040341795
 21
5.3101198968
  0
LINE
  5
239
100
AcDbEntity
  8
LAYER_FEATURE
100
AcDbLine
 62
7
  6
CONTINUOUS
 10
8.4707003729
 20
5.3101198968
 11
8.8230341795
 21
5.3101198968
  0
LINE
  5
23A
100
AcDbEntity
  8
LAYER_FEATURE
100
AcDbLine
 62
7
  6
CONTINUOUS
 10
6.0833672762
 20
5.6851198968
 11
6.0833672762
 21
5.7076198968
  0
LINE
  5
23B
100
AcDbEntity
  8
LAYER_FEATURE
100
AcDbLine
 62
7
  6
CONTINUOUS
 10
5.9718904289
 20
5.3283939855
 11
6.0833672762
 21
5.6851198968
  0
LINE
  5
23C
100
AcDbEntity
  8
LAYER_FEATURE
100
AcDbLine
 62
7
  6
CONTINUOUS
 10
6.1773672762
 20
5.7076198968
 11
6.1773672762
 21
5.6851198968
  0
LINE
  5
23D
100
AcDbEntity
  8
LAYER_FEATURE
100
AcDbLine
 62
7
  6
CONTINUOUS
 10
3.9263672762
 20
5.7076198968
 11
4.0203672762
 21
5.7076198968
  0
LINE
  5
23E
100
AcDbEntity
  8
LAYER_FEATURE
100
AcDbLine
 62
7
  6
CONTINUOUS
 10
4.6453672762
 20
5.7076198968
 11
4.7393672762
 21
5.7076198968
  0
LINE
  5
23F
100
AcDbEntity
  8
LAYER_FEATURE
100
AcDbLine
 62
7
  6
CONTINUOUS
 10
5.3643672762
 20
5.7076198968
 11
5.4583672762
 21
5.7076198968
  0
LINE
  5
240
100
AcDbEntity
  8
LAYER_FEATURE
100
AcDbLine
 62
7
  6
CONTINUOUS
 10
6.0833672762
 20
5.7076198968
 11
6.1773672762
 21
5.7076198968
  0
LINE
  5
241
100
AcDbEntity
  8
LAYER_FEATURE
100
AcDbLine
 62
7
  6
CONTINUOUS
 10
6.8023672762
 20
5.7076198968
 11
6.8963672762
 21
5.7076198968
  0
LINE
  5
242
100
AcDbEntity
  8
LAYER_FEATURE
100
AcDbLine
 62
7
  6
CONTINUOUS
 10
7.5213672762
 20
5.7076198968
 11
7.6153672762
 21
5.7076198968
  0
LINE
  5
243
100
AcDbEntity
  8
LAYER_FEATURE
100
AcDbLine
 62
7
  6
CONTINUOUS
 10
8.2403672762
 20
5.7076198968
 11
8.3343672762
 21
5.7076198968
  0
LINE
  5
244
100
AcDbEntity
  8
0
100
AcDbLine
 62
7
  6
CONTINUOUS
 10
8.9518672762
 20
5.7301198968
 11
3.3088672762
 21
5.7301198968
  0
LINE
  5
245
100
AcDbEntity
  8
LAYER_FEATURE
100
AcDbLine
 62
7
  6
CONTINUOUS
 10
6.1773672762
 20
5.6851198968
 11
6.2888441234
 21
5.3283939855
  0
LINE
  5
246
100
AcDbEntity
  8
LAYER_FEATURE
100
AcDbLine
 62
7
  6
CONTINUOUS
 10
6.6908904289
 20
5.3283939855
 11
6.8023672762
 21
5.6851198968
  0
LINE
  5
247
100
AcDbEntity
  8
LAYER_FEATURE
100
AcDbLine
 62
7
  6
CONTINUOUS
 10
6.8023672762
 20
5.6851198968
 11
6.8023672762
 21
5.7076198968
  0
LINE
  5
248
100
AcDbEntity
  8
LAYER_FEATURE
100
AcDbLine
 62
7
  6
CONTINUOUS
 10
6.8963672762
 20
5.7076198968
 11
6.8963672762
 21
5.6851198968
  0
LINE
  5
249
100
AcDbEntity
  8
LAYER_FEATURE
100
AcDbLine
 62
7
  6
CONTINUOUS
 10
6.8963672762
 20
5.6851198968
 11
7.0078441234
 21
5.3283939855
  0
LINE
  5
24A
100
AcDbEntity
  8
LAYER_FEATURE
100
AcDbLine
 62
7
  6
CONTINUOUS
 10
7.4098904289
 20
5.3283939855
 11
7.5213672762
 21
5.6851198968
  0
LINE
  5
24B
100
AcDbEntity
  8
LAYER_FEATURE
100
AcDbLine
 62
7
  6
CONTINUOUS
 10
7.5213672762
 20
5.6851198968
 11
7.5213672762
 21
5.7076198968
  0
LINE
  5
24C
100
AcDbEntity
  8
LAYER_FEATURE
100
AcDbLine
 62
7
  6
CONTINUOUS
 10
7.6153672762
 20
5.7076198968
 11
7.6153672762
 21
5.6851198968
  0
LINE
  5
24D
100
AcDbEntity
  8
LAYER_FEATURE
100
AcDbLine
 62
7
  6
CONTINUOUS
 10
7.6153672762
 20
5.6851198968
 11
7.7268441234
 21
5.3283939855
  0
LINE
  5
24E
100
AcDbEntity
  8
LAYER_FEATURE
100
AcDbLine
 62
7
  6
CONTINUOUS
 10
8.1288904289
 20
5.3283939855
 11
8.2403672762
 21
5.6851198968
  0
LINE
  5
24F
100
AcDbEntity
  8
LAYER_FEATURE
100
AcDbLine
 62
7
  6
CONTINUOUS
 10
8.2403672762
 20
5.6851198968
 11
8.2403672762
 21
5.7076198968
  0
LINE
  5
250
100
AcDbEntity
  8
LAYER_FEATURE
100
AcDbLine
 62
7
  6
CONTINUOUS
 10
8.3343672762
 20
5.7076198968
 11
8.3343672762
 21
5.6851198968
  0
LINE
  5
251
100
AcDbEntity
  8
LAYER_FEATURE
100
AcDbLine
 62
7
  6
CONTINUOUS
 10
8.3343672762
 20
5.6851198968
 11
8.4458441234
 21
5.3283939855
  0
LINE
  5
252
100
AcDbEntity
  8
0
100
AcDbLine
 62
7
  6
CONTINUOUS
 10
8.9593672762
 20
5.6851198968
 11
8.9593672762
 21
5.7226198968
  0
LINE
  5
253
100
AcDbEntity
  8
LAYER_FEATURE
100
AcDbLine
 62
7
  6
CONTINUOUS
 10
8.8478904289
 20
5.3283939855
 11
8.9593672762
 21
5.6851198968
  0
LINE
  5
254
100
AcDbEntity
  8
0
100
AcDbLine
 62
7
  6
CONTINUOUS
 10
3.2418720839
 20
13.6000477814
 11
3.2418720839
 21
11.6000477814
  0
LINE
  5
255
100
AcDbEntity
  8
0
100
AcDbLine
 62
7
  6
CONTINUOUS
 10
8.8998720839
 20
11.6000477814
 11
3.2418720839
 21
11.6000477814
  0
LINE
  5
256
100
AcDbEntity
  8
0
100
AcDbLine
 62
7
  6
CONTINUOUS
 10
3.2418720839
 20
13.6000477814
 11
8.8998720839
 21
13.6000477814
  0
LINE
  5
257
100
AcDbEntity
  8
0
100
AcDbLine
 62
7
  6
CONTINUOUS
 10
8.8998720839
 20
11.6000477814
 11
8.8998720839
 21
13.6000477814
  0
LINE
  5
258
100
AcDbEntity
  8
LAYER_FEATURE
100
AcDbLine
 62
7
  6
CONTINUOUS
 10
14.5603552569
 20
5.2506247044
 11
14.5603552569
 21
5.6256247044
  0
LINE
  5
259
100
AcDbEntity
  8
0
100
AcDbLine
 62
7
  6
CONTINUOUS
 10
14.5603552569
 20
5.6256247044
 11
14.5603552569
 21
5.6706247044
  0
LINE
  5
25A
100
AcDbEntity
  8
LAYER_FEATURE
100
AcDbLine
 62
7
  6
CONTINUOUS
 10
14.5603552569
 20
5.2506247044
 11
16.5603552569
 21
5.2506247044
  0
LINE
  5
25B
100
AcDbEntity
  8
LAYER_FEATURE
100
AcDbLine
 62
7
  6
CONTINUOUS
 10
16.5603552569
 20
5.6256247044
 11
14.5603552569
 21
5.6256247044
  0
LINE
  5
25C
100
AcDbEntity
  8
0
100
AcDbLine
 62
7
  6
CONTINUOUS
 10
14.5603552569
 20
5.6706247044
 11
16.5603552569
 21
5.6706247044
  0
LINE
  5
25D
100
AcDbEntity
  8
0
100
AcDbLine
 62
7
  6
CONTINUOUS
 10
16.5603552569
 20
5.6706247044
 11
16.5603552569
 21
5.6256247044
  0
LINE
  5
25E
100
AcDbEntity
  8
LAYER_FEATURE
100
AcDbLine
 62
7
  6
CONTINUOUS
 10
16.5603552569
 20
5.2506247044
 11
16.5603552569
 21
5.6256247044
  0
LINE
  5
25F
100
AcDbEntity
  8
0
100
AcDbLine
 62
7
  6
CONTINUOUS
 10
12.6146823951
 20
11.8533541019
 11
12.6261214651
 21
11.830043728
  0
LINE
  5
260
100
AcDbEntity
  8
0
100
AcDbLine
 62
7
  6
CONTINUOUS
 10
12.6144255047
 20
11.8555682097
 11
12.6146823951
 21
11.8533541019
  0
LINE
  5
261
100
AcDbEntity
  8
0
100
AcDbLine
 62
7
  6
CONTINUOUS
 10
13.0985573431
 20
13.4222222764
 11
12.6144246962
 21
11.8555684571
  0
LINE
  5
262
100
AcDbEntity
  8
0
100
AcDbLine
 62
7
  6
CONTINUOUS
 10
12.6261214651
 20
11.830043728
 11
12.8376147787
 21
11.6082993457
  0
LINE
  5
263
100
AcDbEntity
  8
0
100
AcDbLine
 62
7
  6
CONTINUOUS
 10
13.2079239485
 20
11.6082993457
 11
13.2017845864
 21
11.830043728
  0
LINE
  5
264
100
AcDbEntity
  8
0
100
AcDbLine
 62
7
  6
CONTINUOUS
 10
13.2017845864
 20
11.830043728
 11
13.1949211444
 21
11.8440299523
  0
LINE
  5
265
100
AcDbEntity
  8
LAYER_FEATURE
100
AcDbLine
 62
7
  6
CONTINUOUS
 10
13.2815008778
 20
11.8440299523
 11
13.2883643198
 21
11.830043728
  0
LINE
  5
266
100
AcDbEntity
  8
0
100
AcDbLine
 62
7
  6
CONTINUOUS
 10
13.207533331
 20
11.6054414156
 11
13.2079239485
 21
11.6082993457
  0
LINE
  5
267
100
AcDbEntity
  8
LAYER_FEATURE
100
AcDbLine
 62
7
  6
CONTINUOUS
 10
13.2883643198
 20
11.830043728
 11
13.4998576334
 21
11.6082993457
  0
LINE
  5
268
100
AcDbEntity
  8
0
100
AcDbLine
 62
7
  6
CONTINUOUS
 10
13.2061066566
 20
11.8440299523
 11
13.2017845864
 21
11.830043728
  0
LINE
  5
269
100
AcDbEntity
  8
0
100
AcDbLine
 62
7
  6
CONTINUOUS
 10
13.2083813685
 20
11.6081579922
 11
13.2812913282
 21
11.8440947081
  0
LINE
  5
26A
100
AcDbEntity
  8
LAYER_FEATURE
100
AcDbLine
 62
7
  6
CONTINUOUS
 10
13.8701668032
 20
11.6082993457
 11
13.8640274411
 21
11.830043728
  0
LINE
  5
26B
100
AcDbEntity
  8
LAYER_FEATURE
100
AcDbLine
 62
7
  6
CONTINUOUS
 10
13.8640274411
 20
11.830043728
 11
13.8571639991
 21
11.8440299523
  0
LINE
  5
26C
100
AcDbEntity
  8
LAYER_FEATURE
100
AcDbLine
 62
7
  6
CONTINUOUS
 10
13.9437437325
 20
11.8440299523
 11
13.9506071745
 21
11.830043728
  0
LINE
  5
26D
100
AcDbEntity
  8
LAYER_FEATURE
100
AcDbLine
 62
7
  6
CONTINUOUS
 10
13.8697761857
 20
11.6054414156
 11
13.8701668032
 21
11.6082993457
  0
LINE
  5
26E
100
AcDbEntity
  8
LAYER_FEATURE
100
AcDbLine
 62
7
  6
CONTINUOUS
 10
13.9506071745
 20
11.830043728
 11
14.1621004881
 21
11.6082993457
  0
LINE
  5
26F
100
AcDbEntity
  8
LAYER_FEATURE
100
AcDbLine
 62
7
  6
CONTINUOUS
 10
13.8683495113
 20
11.8440299523
 11
13.8640274411
 21
11.830043728
  0
LINE
  5
270
100
AcDbEntity
  8
LAYER_FEATURE
100
AcDbLine
 62
7
  6
CONTINUOUS
 10
13.8706242232
 20
11.6081579922
 11
13.9435341829
 21
11.8440947081
  0
LINE
  5
271
100
AcDbEntity
  8
LAYER_FEATURE
100
AcDbLine
 62
7
  6
CONTINUOUS
 10
14.6128500292
 20
11.830043728
 11
14.8243433428
 21
11.6082993457
  0
LINE
  5
272
100
AcDbEntity
  8
LAYER_FEATURE
100
AcDbLine
 62
7
  6
CONTINUOUS
 10
14.5262702957
 20
11.830043728
 11
14.5194068537
 21
11.8440299523
  0
LINE
  5
273
100
AcDbEntity
  8
LAYER_FEATURE
100
AcDbLine
 62
7
  6
CONTINUOUS
 10
14.6059865872
 20
11.8440299523
 11
14.6128500292
 21
11.830043728
  0
LINE
  5
274
100
AcDbEntity
  8
LAYER_FEATURE
100
AcDbLine
 62
7
  6
CONTINUOUS
 10
14.5324096578
 20
11.6082993457
 11
14.5262702957
 21
11.830043728
  0
LINE
  5
275
100
AcDbEntity
  8
LAYER_FEATURE
100
AcDbLine
 62
7
  6
CONTINUOUS
 10
14.5320190404
 20
11.6054414156
 11
14.5324096578
 21
11.6082993457
  0
LINE
  5
276
100
AcDbEntity
  8
0
100
AcDbLine
 62
7
  6
CONTINUOUS
 10
12.8660832627
 20
11.5969399899
 11
13.1906041888
 21
11.5969399899
  0
LINE
  5
277
100
AcDbEntity
  8
LAYER_FEATURE
100
AcDbLine
 62
7
  6
CONTINUOUS
 10
13.5283261174
 20
11.5969399899
 11
13.8528470435
 21
11.5969399899
  0
LINE
  5
278
100
AcDbEntity
  8
LAYER_FEATURE
100
AcDbLine
 62
7
  6
CONTINUOUS
 10
14.190568972
 20
11.5969399899
 11
14.5150898982
 21
11.5969399899
  0
LINE
  5
279
100
AcDbEntity
  8
LAYER_FEATURE
100
AcDbLine
 62
7
  6
CONTINUOUS
 10
14.8528118267
 20
11.5969399899
 11
15.1773327529
 21
11.5969399899
  0
LINE
  5
27A
100
AcDbEntity
  8
LAYER_FEATURE
100
AcDbLine
 62
7
  6
CONTINUOUS
 10
15.5150546814
 20
11.5969399899
 11
15.8395756075
 21
11.5969399899
  0
LINE
  5
27B
100
AcDbEntity
  8
LAYER_FEATURE
100
AcDbLine
 62
7
  6
CONTINUOUS
 10
16.1772975361
 20
11.5969399899
 11
16.5018184622
 21
11.5969399899
  0
LINE
  5
27C
100
AcDbEntity
  8
LAYER_FEATURE
100
AcDbLine
 62
7
  6
CONTINUOUS
 10
16.8395403908
 20
11.5969399899
 11
17.1640613169
 21
11.5969399899
  0
LINE
  5
27D
100
AcDbEntity
  8
LAYER_FEATURE
100
AcDbLine
 62
7
  6
CONTINUOUS
 10
17.5017832455
 20
11.5969399899
 11
17.8263041716
 21
11.5969399899
  0
LINE
  5
27E
100
AcDbEntity
  8
LAYER_FEATURE
100
AcDbLine
 62
7
  6
CONTINUOUS
 10
14.5305923659
 20
11.8440299523
 11
14.5262702957
 21
11.830043728
  0
LINE
  5
27F
100
AcDbEntity
  8
LAYER_FEATURE
100
AcDbLine
 62
7
  6
CONTINUOUS
 10
14.5328670779
 20
11.6081579922
 11
14.6057770376
 21
11.8440947081
  0
LINE
  5
280
100
AcDbEntity
  8
LAYER_FEATURE
100
AcDbLine
 62
7
  6
CONTINUOUS
 10
13.1949211444
 20
11.8440299523
 11
13.2815008778
 21
11.8440299523
  0
LINE
  5
281
100
AcDbEntity
  8
LAYER_FEATURE
100
AcDbLine
 62
7
  6
CONTINUOUS
 10
13.8571639991
 20
11.8440299523
 11
13.9437437325
 21
11.8440299523
  0
LINE
  5
282
100
AcDbEntity
  8
LAYER_FEATURE
100
AcDbLine
 62
7
  6
CONTINUOUS
 10
14.5194068537
 20
11.8440299523
 11
14.6059865872
 21
11.8440299523
  0
LINE
  5
283
100
AcDbEntity
  8
LAYER_FEATURE
100
AcDbLine
 62
7
  6
CONTINUOUS
 10
15.1816497084
 20
11.8440299523
 11
15.2682294419
 21
11.8440299523
  0
LINE
  5
284
100
AcDbEntity
  8
LAYER_FEATURE
100
AcDbLine
 62
7
  6
CONTINUOUS
 10
15.8438925631
 20
11.8440299523
 11
15.9304722966
 21
11.8440299523
  0
LINE
  5
285
100
AcDbEntity
  8
LAYER_FEATURE
100
AcDbLine
 62
7
  6
CONTINUOUS
 10
16.5061354178
 20
11.8440299523
 11
16.5927151512
 21
11.8440299523
  0
LINE
  5
286
100
AcDbEntity
  8
LAYER_FEATURE
100
AcDbLine
 62
7
  6
CONTINUOUS
 10
17.1683782725
 20
11.8440299523
 11
17.2549580059
 21
11.8440299523
  0
LINE
  5
287
100
AcDbEntity
  8
0
100
AcDbLine
 62
7
  6
CONTINUOUS
 10
17.8168497277
 20
11.8580161766
 11
12.6193025386
 21
11.8580161766
  0
LINE
  5
288
100
AcDbEntity
  8
LAYER_FEATURE
100
AcDbLine
 62
7
  6
CONTINUOUS
 10
15.2750928839
 20
11.830043728
 11
15.4865861975
 21
11.6082993457
  0
LINE
  5
289
100
AcDbEntity
  8
LAYER_FEATURE
100
AcDbLine
 62
7
  6
CONTINUOUS
 10
15.1885131504
 20
11.830043728
 11
15.1816497084
 21
11.8440299523
  0
LINE
  5
28A
100
AcDbEntity
  8
LAYER_FEATURE
100
AcDbLine
 62
7
  6
CONTINUOUS
 10
15.2682294419
 20
11.8440299523
 11
15.2750928839
 21
11.830043728
  0
LINE
  5
28B
100
AcDbEntity
  8
LAYER_FEATURE
100
AcDbLine
 62
7
  6
CONTINUOUS
 10
15.1946525125
 20
11.6082993457
 11
15.1885131504
 21
11.830043728
  0
LINE
  5
28C
100
AcDbEntity
  8
LAYER_FEATURE
100
AcDbLine
 62
7
  6
CONTINUOUS
 10
15.194261895
 20
11.6054414156
 11
15.1946525125
 21
11.6082993457
  0
LINE
  5
28D
100
AcDbEntity
  8
LAYER_FEATURE
100
AcDbLine
 62
7
  6
CONTINUOUS
 10
15.1928352206
 20
11.8440299523
 11
15.1885131504
 21
11.830043728
  0
LINE
  5
28E
100
AcDbEntity
  8
LAYER_FEATURE
100
AcDbLine
 62
7
  6
CONTINUOUS
 10
15.1951099326
 20
11.6081579922
 11
15.2680198923
 21
11.8440947081
  0
LINE
  5
28F
100
AcDbEntity
  8
LAYER_FEATURE
100
AcDbLine
 62
7
  6
CONTINUOUS
 10
15.9373357386
 20
11.830043728
 11
16.1488290522
 21
11.6082993457
  0
LINE
  5
290
100
AcDbEntity
  8
LAYER_FEATURE
100
AcDbLine
 62
7
  6
CONTINUOUS
 10
15.8507560051
 20
11.830043728
 11
15.8438925631
 21
11.8440299523
  0
LINE
  5
291
100
AcDbEntity
  8
LAYER_FEATURE
100
AcDbLine
 62
7
  6
CONTINUOUS
 10
15.9304722966
 20
11.8440299523
 11
15.9373357386
 21
11.830043728
  0
LINE
  5
292
100
AcDbEntity
  8
LAYER_FEATURE
100
AcDbLine
 62
7
  6
CONTINUOUS
 10
15.8568953672
 20
11.6082993457
 11
15.8507560051
 21
11.830043728
  0
LINE
  5
293
100
AcDbEntity
  8
LAYER_FEATURE
100
AcDbLine
 62
7
  6
CONTINUOUS
 10
16.5995785932
 20
11.830043728
 11
16.8110719069
 21
11.6082993457
  0
LINE
  5
294
100
AcDbEntity
  8
LAYER_FEATURE
100
AcDbLine
 62
7
  6
CONTINUOUS
 10
15.8565047497
 20
11.6054414156
 11
15.8568953672
 21
11.6082993457
  0
LINE
  5
295
100
AcDbEntity
  8
LAYER_FEATURE
100
AcDbLine
 62
7
  6
CONTINUOUS
 10
15.8550780753
 20
11.8440299523
 11
15.8507560051
 21
11.830043728
  0
LINE
  5
296
100
AcDbEntity
  8
LAYER_FEATURE
100
AcDbLine
 62
7
  6
CONTINUOUS
 10
15.8573527873
 20
11.6081579922
 11
15.930262747
 21
11.8440947081
  0
LINE
  5
297
100
AcDbEntity
  8
LAYER_FEATURE
100
AcDbLine
 62
7
  6
CONTINUOUS
 10
17.2618214479
 20
11.830043728
 11
17.4733147615
 21
11.6082993457
  0
LINE
  5
298
100
AcDbEntity
  8
LAYER_FEATURE
100
AcDbLine
 62
7
  6
CONTINUOUS
 10
16.5129988598
 20
11.830043728
 11
16.5061354178
 21
11.8440299523
  0
LINE
  5
299
100
AcDbEntity
  8
LAYER_FEATURE
100
AcDbLine
 62
7
  6
CONTINUOUS
 10
16.5927151512
 20
11.8440299523
 11
16.5995785932
 21
11.830043728
  0
LINE
  5
29A
100
AcDbEntity
  8
LAYER_FEATURE
100
AcDbLine
 62
7
  6
CONTINUOUS
 10
16.5191382219
 20
11.6082993457
 11
16.5129988598
 21
11.830043728
  0
LINE
  5
29B
100
AcDbEntity
  8
0
100
AcDbLine
 62
7
  6
CONTINUOUS
 10
13.1034351854
 20
13.4246699959
 11
18.3009823745
 21
13.4246699959
  0
LINE
  5
29C
100
AcDbEntity
  8
LAYER_FEATURE
100
AcDbLine
 62
7
  6
CONTINUOUS
 10
16.5187476044
 20
11.6054414156
 11
16.5191382219
 21
11.6082993457
  0
LINE
  5
29D
100
AcDbEntity
  8
LAYER_FEATURE
100
AcDbLine
 62
7
  6
CONTINUOUS
 10
16.51732093
 20
11.8440299523
 11
16.5129988598
 21
11.830043728
  0
LINE
  5
29E
100
AcDbEntity
  8
LAYER_FEATURE
100
AcDbLine
 62
7
  6
CONTINUOUS
 10
16.519595642
 20
11.6081579922
 11
16.5925056016
 21
11.8440947081
  0
LINE
  5
29F
100
AcDbEntity
  8
LAYER_FEATURE
100
AcDbLine
 62
7
  6
CONTINUOUS
 10
17.1752417145
 20
11.830043728
 11
17.1683782725
 21
11.8440299523
  0
LINE
  5
2A0
100
AcDbEntity
  8
LAYER_FEATURE
100
AcDbLine
 62
7
  6
CONTINUOUS
 10
17.2549580059
 20
11.8440299523
 11
17.2618214479
 21
11.830043728
  0
LINE
  5
2A1
100
AcDbEntity
  8
LAYER_FEATURE
100
AcDbLine
 62
7
  6
CONTINUOUS
 10
17.1813810766
 20
11.6082993457
 11
17.1752417145
 21
11.830043728
  0
LINE
  5
2A2
100
AcDbEntity
  8
LAYER_FEATURE
100
AcDbLine
 62
7
  6
CONTINUOUS
 10
17.1809904591
 20
11.6054414156
 11
17.1813810766
 21
11.6082993457
  0
LINE
  5
2A3
100
AcDbEntity
  8
0
100
AcDbLine
 62
7
  6
CONTINUOUS
 10
17.8374845692
 20
11.830043728
 11
17.8260454992
 21
11.8533541019
  0
LINE
  5
2A4
100
AcDbEntity
  8
LAYER_FEATURE
100
AcDbLine
 62
7
  6
CONTINUOUS
 10
17.1795637847
 20
11.8440299523
 11
17.1752417145
 21
11.830043728
  0
LINE
  5
2A5
100
AcDbEntity
  8
LAYER_FEATURE
100
AcDbLine
 62
7
  6
CONTINUOUS
 10
17.1818384967
 20
11.6081579922
 11
17.2547484563
 21
11.8440947081
  0
LINE
  5
2A6
100
AcDbEntity
  8
LAYER_FEATURE
100
AcDbLine
 62
7
  6
CONTINUOUS
 10
17.8436239313
 20
11.6082993457
 11
17.8374845692
 21
11.830043728
  0
LINE
  5
2A7
100
AcDbEntity
  8
LAYER_FEATURE
100
AcDbLine
 62
7
  6
CONTINUOUS
 10
17.8432333138
 20
11.6054414156
 11
17.8436239313
 21
11.6082993457
  0
LINE
  5
2A8
100
AcDbEntity
  8
LAYER_FEATURE
100
AcDbLine
 62
7
  6
CONTINUOUS
 10
18.321617216
 20
13.3966975473
 11
17.8374845692
 21
11.830043728
  0
LINE
  5
2A9
100
AcDbEntity
  8
LAYER_FEATURE
100
AcDbLine
 62
7
  6
CONTINUOUS
 10
17.8440813514
 20
11.6081579922
 11
18.327373771
 21
13.1720928352
  0
LINE
  5
2AA
100
AcDbEntity
  8
LAYER_FEATURE
100
AcDbLine
 62
7
  6
CONTINUOUS
 10
18.3277565781
 20
13.1749531649
 11
18.321617216
 21
13.3966975473
  0
LINE
  5
2AB
100
AcDbEntity
  8
LAYER_FEATURE
100
AcDbLine
 62
7
  6
CONTINUOUS
 10
18.3277565781
 20
13.1749531649
 11
18.3273659606
 21
13.1720952348
  0
LINE
  5
2AC
100
AcDbEntity
  8
0
100
AcDbLine
 62
7
  6
CONTINUOUS
 10
18.310178146
 20
13.4200079211
 11
18.321617216
 21
13.3966975473
  0
ARC
  5
2AD
100
AcDbEntity
  8
0
100
AcDbCircle
 62
7
  6
CONTINUOUS
 10
3.4377003729
 20
5.3361615634
 40
0.0260416667
100
AcDbArc
 50
197.3540246363
 51
270.0
  0
ARC
  5
2AE
100
AcDbEntity
  8
0
100
AcDbCircle
 62
7
  6
CONTINUOUS
 10
3.7900341795
 20
5.3361615634
 40
0.0260416667
100
AcDbArc
 50
270.0
 51
342.6459753637
  0
ARC
  5
2AF
100
AcDbEntity
  8
LAYER_FEATURE
100
AcDbCircle
 62
7
  6
CONTINUOUS
 10
4.1567003729
 20
5.3361615634
 40
0.0260416667
100
AcDbArc
 50
197.3540246363
 51
270.0
  0
ARC
  5
2B0
100
AcDbEntity
  8
LAYER_FEATURE
100
AcDbCircle
 62
7
  6
CONTINUOUS
 10
4.5090341795
 20
5.3361615634
 40
0.0260416667
100
AcDbArc
 50
270.0
 51
342.6459753637
  0
ARC
  5
2B1
100
AcDbEntity
  8
LAYER_FEATURE
100
AcDbCircle
 62
7
  6
CONTINUOUS
 10
4.8757003729
 20
5.3361615634
 40
0.0260416667
100
AcDbArc
 50
197.3540246363
 51
270.0
  0
ARC
  5
2B2
100
AcDbEntity
  8
LAYER_FEATURE
100
AcDbCircle
 62
7
  6
CONTINUOUS
 10
5.2280341795
 20
5.3361615634
 40
0.0260416667
100
AcDbArc
 50
270.0
 51
342.6459753637
  0
ARC
  5
2B3
100
AcDbEntity
  8
LAYER_FEATURE
100
AcDbCircle
 62
7
  6
CONTINUOUS
 10
5.5947003729
 20
5.3361615634
 40
0.0260416667
100
AcDbArc
 50
197.3540246363
 51
270.0
  0
ARC
  5
2B4
100
AcDbEntity
  8
LAYER_FEATURE
100
AcDbCircle
 62
7
  6
CONTINUOUS
 10
5.9470341795
 20
5.3361615634
 40
0.0260416667
100
AcDbArc
 50
270.0
 51
342.6459753637
  0
ARC
  5
2B5
100
AcDbEntity
  8
LAYER_FEATURE
100
AcDbCircle
 62
7
  6
CONTINUOUS
 10
6.3137003729
 20
5.3361615634
 40
0.0260416667
100
AcDbArc
 50
197.3540246363
 51
270.0
  0
ARC
  5
2B6
100
AcDbEntity
  8
LAYER_FEATURE
100
AcDbCircle
 62
7
  6
CONTINUOUS
 10
6.6660341795
 20
5.3361615634
 40
0.0260416667
100
AcDbArc
 50
270.0
 51
342.6459753637
  0
ARC
  5
2B7
100
AcDbEntity
  8
LAYER_FEATURE
100
AcDbCircle
 62
7
  6
CONTINUOUS
 10
7.0327003729
 20
5.3361615634
 40
0.0260416667
100
AcDbArc
 50
197.3540246363
 51
270.0
  0
ARC
  5
2B8
100
AcDbEntity
  8
LAYER_FEATURE
100
AcDbCircle
 62
7
  6
CONTINUOUS
 10
7.3850341795
 20
5.3361615634
 40
0.0260416667
100
AcDbArc
 50
270.0
 51
342.6459753637
  0
ARC
  5
2B9
100
AcDbEntity
  8
LAYER_FEATURE
100
AcDbCircle
 62
7
  6
CONTINUOUS
 10
7.7517003729
 20
5.3361615634
 40
0.0260416667
100
AcDbArc
 50
197.3540246363
 51
270.0
  0
ARC
  5
2BA
100
AcDbEntity
  8
LAYER_FEATURE
100
AcDbCircle
 62
7
  6
CONTINUOUS
 10
8.8230341795
 20
5.3361615634
 40
0.0260416667
100
AcDbArc
 50
270.0
 51
342.6459753637
  0
ARC
  5
2BB
100
AcDbEntity
  8
LAYER_FEATURE
100
AcDbCircle
 62
7
  6
CONTINUOUS
 10
8.4707003729
 20
5.3361615634
 40
0.0260416667
100
AcDbArc
 50
197.3540246363
 51
270.0
  0
ARC
  5
2BC
100
AcDbEntity
  8
LAYER_FEATURE
100
AcDbCircle
 62
7
  6
CONTINUOUS
 10
8.1040341795
 20
5.3361615634
 40
0.0260416667
100
AcDbArc
 50
270.0
 51
342.6459753637
  0
ARC
  5
2BD
100
AcDbEntity
  8
0
100
AcDbCircle
 62
7
  6
CONTINUOUS
 10
3.3088672762
 20
5.7226198968
 40
0.0075
100
AcDbArc
 50
90.0
 51
180.0
  0
ARC
  5
2BE
100
AcDbEntity
  8
0
100
AcDbCircle
 62
7
  6
CONTINUOUS
 10
8.9518672762
 20
5.7226198968
 40
0.0075
100
AcDbArc
 50
0.0
 51
90.0
  0
SPLINE
  5
2BF
100
AcDbEntity
  8
0
100
AcDbSpline
 62
7
  6
CONTINUOUS
 70
0
 71
3
 72
11
 73
7
 74
0
 42
0.0000001
 43
0.0000001
 44
0.0000000001
 40
0.0
 40
0.0
 40
0.0
 40
0.0
 40
0.2644444522
 40
0.5366447956
 40
0.7886683147
 40
1.0
 40
1.0
 40
1.0
 40
1.0
 10
18.3009823745
 20
13.4246699959
 30
0.0
 10
18.3019280334
 20
13.4246699959
 30
0.0
 10
18.3038501725
 20
13.4244076139
 30
0.0
 10
18.3065211241
 20
13.4234344544
 30
0.0
 10
18.3087403852
 20
13.4219834414
 30
0.0
 10
18.3098452162
 20
13.4206863607
 30
0.0
 10
18.310178146
 20
13.4200079211
 30
0.0
  0
SPLINE
  5
2C0
100
AcDbEntity
  8
0
100
AcDbSpline
 62
7
  6
CONTINUOUS
 70
0
 71
3
 72
11
 73
7
 74
0
 42
0.0000001
 43
0.0000001
 44
0.0000000001
 40
0.0
 40
0.0
 40
0.0
 40
0.0
 40
0.2022595964
 40
0.4301234434
 40
0.6973865799
 40
1.0
 40
1.0
 40
1.0
 40
1.0
 10
13.0985579085
 20
13.4222221036
 30
0.0
 10
13.0986715167
 20
13.4225961023
 30
0.0
 10
13.0991231834
 20
13.4233349936
 30
0.0
 10
13.1002579662
 20
13.4241118198
 30
0.0
 10
13.1017455349
 20
13.424572609
 30
0.0
 10
13.1028503751
 20
13.4246699959
 30
0.0
 10
13.1034351854
 20
13.4246699959
 30
0.0
  0
SPLINE
  5
2C1
100
AcDbEntity
  8
LAYER_FEATURE
100
AcDbSpline
 62
7
  6
CONTINUOUS
 70
0
 71
3
 72
13
 73
9
 74
0
 42
0.0000001
 43
0.0000001
 44
0.0000000001
 40
0.0
 40
0.0
 40
0.0
 40
0.0
 40
0.3030256445
 40
0.5686454346
 40
0.6869871043
 40
0.7967712801
 40
0.9001183474
 40
1.0
 40
1.0
 40
1.0
 40
1.0
 10
17.8263041716
 20
11.5969399899
 30
0.0
 10
17.8283420758
 20
11.5969399899
 30
0.0
 10
17.8321777459
 20
11.5972627121
 30
0.0
 10
17.8366417657
 20
11.5986651348
 30
0.0
 10
17.8395067421
 20
11.6003724201
 30
0.0
 10
17.8411984653
 20
11.6018453426
 30
0.0
 10
17.8424813283
 20
11.6035346119
 30
0.0
 10
17.8430416134
 20
11.6047975915
 30
0.0
 10
17.8432397139
 20
11.6054394386
 30
0.0
  0
SPLINE
  5
2C2
100
AcDbEntity
  8
LAYER_FEATURE
100
AcDbSpline
 62
7
  6
CONTINUOUS
 70
0
 71
3
 72
11
 73
7
 74
0
 42
0.0000001
 43
0.0000001
 44
0.0000000001
 40
0.0
 40
0.0
 40
0.0
 40
0.0
 40
0.2310280713
 40
0.4854993885
 40
0.7476174618
 40
1.0
 40
1.0
 40
1.0
 40
1.0
 10
17.4733147615
 20
11.6082993457
 30
0.0
 10
17.4749813124
 20
11.6065520172
 30
0.0
 10
17.4790050196
 20
11.6033699911
 30
0.0
 10
17.4860173724
 20
11.5998312648
 30
0.0
 10
17.4937594535
 20
11.5975284952
 30
0.0
 10
17.4991454006
 20
11.5969399899
 30
0.0
 10
17.5017832455
 20
11.5969399899
 30
0.0
  0
SPLINE
  5
2C3
100
AcDbEntity
  8
LAYER_FEATURE
100
AcDbSpline
 62
7
  6
CONTINUOUS
 70
0
 71
3
 72
13
 73
9
 74
0
 42
0.0000001
 43
0.0000001
 44
0.0000000001
 40
0.0
 40
0.0
 40
0.0
 40
0.0
 40
0.3030256445
 40
0.5686454346
 40
0.6869871043
 40
0.7967712801
 40
0.9001183474
 40
1.0
 40
1.0
 40
1.0
 40
1.0
 10
17.1640613169
 20
11.5969399899
 30
0.0
 10
17.1660992211
 20
11.5969399899
 30
0.0
 10
17.1699348912
 20
11.5972627121
 30
0.0
 10
17.1743989111
 20
11.5986651348
 30
0.0
 10
17.1772638874
 20
11.6003724201
 30
0.0
 10
17.1789556106
 20
11.6018453426
 30
0.0
 10
17.1802384736
 20
11.6035346119
 30
0.0
 10
17.1807987587
 20
11.6047975915
 30
0.0
 10
17.1809968592
 20
11.6054394386
 30
0.0
  0
SPLINE
  5
2C4
100
AcDbEntity
  8
LAYER_FEATURE
100
AcDbSpline
 62
7
  6
CONTINUOUS
 70
0
 71
3
 72
11
 73
7
 74
0
 42
0.0000001
 43
0.0000001
 44
0.0000000001
 40
0.0
 40
0.0
 40
0.0
 40
0.0
 40
0.2310280713
 40
0.4854993885
 40
0.7476174618
 40
1.0
 40
1.0
 40
1.0
 40
1.0
 10
16.8110719069
 20
11.6082993457
 30
0.0
 10
16.8127384577
 20
11.6065520172
 30
0.0
 10
16.8167621649
 20
11.6033699911
 30
0.0
 10
16.8237745178
 20
11.5998312648
 30
0.0
 10
16.8315165988
 20
11.5975284952
 30
0.0
 10
16.8369025459
 20
11.5969399899
 30
0.0
 10
16.8395403908
 20
11.5969399899
 30
0.0
  0
SPLINE
  5
2C5
100
AcDbEntity
  8
LAYER_FEATURE
100
AcDbSpline
 62
7
  6
CONTINUOUS
 70
0
 71
3
 72
13
 73
9
 74
0
 42
0.0000001
 43
0.0000001
 44
0.0000000001
 40
0.0
 40
0.0
 40
0.0
 40
0.0
 40
0.3030256445
 40
0.5686454346
 40
0.6869871043
 40
0.7967712801
 40
0.9001183474
 40
1.0
 40
1.0
 40
1.0
 40
1.0
 10
16.5018184622
 20
11.5969399899
 30
0.0
 10
16.5038563664
 20
11.5969399899
 30
0.0
 10
16.5076920365
 20
11.5972627121
 30
0.0
 10
16.5121560564
 20
11.5986651348
 30
0.0
 10
16.5150210327
 20
11.6003724201
 30
0.0
 10
16.5167127559
 20
11.6018453426
 30
0.0
 10
16.517995619
 20
11.6035346119
 30
0.0
 10
16.518555904
 20
11.6047975915
 30
0.0
 10
16.5187540045
 20
11.6054394386
 30
0.0
  0
SPLINE
  5
2C6
100
AcDbEntity
  8
LAYER_FEATURE
100
AcDbSpline
 62
7
  6
CONTINUOUS
 70
0
 71
3
 72
11
 73
7
 74
0
 42
0.0000001
 43
0.0000001
 44
0.0000000001
 40
0.0
 40
0.0
 40
0.0
 40
0.0
 40
0.2310280713
 40
0.4854993885
 40
0.7476174618
 40
1.0
 40
1.0
 40
1.0
 40
1.0
 10
16.1488290522
 20
11.6082993457
 30
0.0
 10
16.150495603
 20
11.6065520172
 30
0.0
 10
16.1545193103
 20
11.6033699911
 30
0.0
 10
16.1615316631
 20
11.5998312648
 30
0.0
 10
16.1692737441
 20
11.5975284952
 30
0.0
 10
16.1746596912
 20
11.5969399899
 30
0.0
 10
16.1772975361
 20
11.5969399899
 30
0.0
  0
SPLINE
  5
2C7
100
AcDbEntity
  8
LAYER_FEATURE
100
AcDbSpline
 62
7
  6
CONTINUOUS
 70
0
 71
3
 72
13
 73
9
 74
0
 42
0.0000001
 43
0.0000001
 44
0.0000000001
 40
0.0
 40
0.0
 40
0.0
 40
0.0
 40
0.3030256445
 40
0.5686454346
 40
0.6869871043
 40
0.7967712801
 40
0.9001183474
 40
1.0
 40
1.0
 40
1.0
 40
1.0
 10
15.8395756075
 20
11.5969399899
 30
0.0
 10
15.8416135117
 20
11.5969399899
 30
0.0
 10
15.8454491818
 20
11.5972627121
 30
0.0
 10
15.8499132017
 20
11.5986651348
 30
0.0
 10
15.852778178
 20
11.6003724201
 30
0.0
 10
15.8544699012
 20
11.6018453426
 30
0.0
 10
15.8557527643
 20
11.6035346119
 30
0.0
 10
15.8563130493
 20
11.6047975915
 30
0.0
 10
15.8565111498
 20
11.6054394386
 30
0.0
  0
SPLINE
  5
2C8
100
AcDbEntity
  8
LAYER_FEATURE
100
AcDbSpline
 62
7
  6
CONTINUOUS
 70
0
 71
3
 72
11
 73
7
 74
0
 42
0.0000001
 43
0.0000001
 44
0.0000000001
 40
0.0
 40
0.0
 40
0.0
 40
0.0
 40
0.2310280713
 40
0.4854993885
 40
0.7476174618
 40
1.0
 40
1.0
 40
1.0
 40
1.0
 10
15.4865861975
 20
11.6082993457
 30
0.0
 10
15.4882527483
 20
11.6065520172
 30
0.0
 10
15.4922764556
 20
11.6033699911
 30
0.0
 10
15.4992888084
 20
11.5998312648
 30
0.0
 10
15.5070308894
 20
11.5975284952
 30
0.0
 10
15.5124168365
 20
11.5969399899
 30
0.0
 10
15.5150546814
 20
11.5969399899
 30
0.0
  0
SPLINE
  5
2C9
100
AcDbEntity
  8
LAYER_FEATURE
100
AcDbSpline
 62
7
  6
CONTINUOUS
 70
0
 71
3
 72
13
 73
9
 74
0
 42
0.0000001
 43
0.0000001
 44
0.0000000001
 40
0.0
 40
0.0
 40
0.0
 40
0.0
 40
0.3030256445
 40
0.5686454346
 40
0.6869871043
 40
0.7967712801
 40
0.9001183474
 40
1.0
 40
1.0
 40
1.0
 40
1.0
 10
15.1773327529
 20
11.5969399899
 30
0.0
 10
15.179370657
 20
11.5969399899
 30
0.0
 10
15.1832063271
 20
11.5972627121
 30
0.0
 10
15.187670347
 20
11.5986651348
 30
0.0
 10
15.1905353234
 20
11.6003724201
 30
0.0
 10
15.1922270466
 20
11.6018453426
 30
0.0
 10
15.1935099096
 20
11.6035346119
 30
0.0
 10
15.1940701946
 20
11.6047975915
 30
0.0
 10
15.1942682951
 20
11.6054394386
 30
0.0
  0
SPLINE
  5
2CA
100
AcDbEntity
  8
LAYER_FEATURE
100
AcDbSpline
 62
7
  6
CONTINUOUS
 70
0
 71
3
 72
11
 73
7
 74
0
 42
0.0000001
 43
0.0000001
 44
0.0000000001
 40
0.0
 40
0.0
 40
0.0
 40
0.0
 40
0.2310280713
 40
0.4854993885
 40
0.7476174618
 40
1.0
 40
1.0
 40
1.0
 40
1.0
 10
14.8243433428
 20
11.6082993457
 30
0.0
 10
14.8260098936
 20
11.6065520172
 30
0.0
 10
14.8300336009
 20
11.6033699911
 30
0.0
 10
14.8370459537
 20
11.5998312648
 30
0.0
 10
14.8447880347
 20
11.5975284952
 30
0.0
 10
14.8501739819
 20
11.5969399899
 30
0.0
 10
14.8528118267
 20
11.5969399899
 30
0.0
  0
SPLINE
  5
2CB
100
AcDbEntity
  8
LAYER_FEATURE
100
AcDbSpline
 62
7
  6
CONTINUOUS
 70
0
 71
3
 72
13
 73
9
 74
0
 42
0.0000001
 43
0.0000001
 44
0.0000000001
 40
0.0
 40
0.0
 40
0.0
 40
0.0
 40
0.3030256445
 40
0.5686454346
 40
0.6869871043
 40
0.7967712801
 40
0.9001183474
 40
1.0
 40
1.0
 40
1.0
 40
1.0
 10
14.5150898982
 20
11.5969399899
 30
0.0
 10
14.5171278023
 20
11.5969399899
 30
0.0
 10
14.5209634724
 20
11.5972627121
 30
0.0
 10
14.5254274923
 20
11.5986651348
 30
0.0
 10
14.5282924687
 20
11.6003724201
 30
0.0
 10
14.5299841919
 20
11.6018453426
 30
0.0
 10
14.5312670549
 20
11.6035346119
 30
0.0
 10
14.5318273399
 20
11.6047975915
 30
0.0
 10
14.5320254404
 20
11.6054394386
 30
0.0
  0
SPLINE
  5
2CC
100
AcDbEntity
  8
LAYER_FEATURE
100
AcDbSpline
 62
7
  6
CONTINUOUS
 70
0
 71
3
 72
11
 73
7
 74
0
 42
0.0000001
 43
0.0000001
 44
0.0000000001
 40
0.0
 40
0.0
 40
0.0
 40
0.0
 40
0.2310280713
 40
0.4854993885
 40
0.7476174618
 40
1.0
 40
1.0
 40
1.0
 40
1.0
 10
14.1621004881
 20
11.6082993457
 30
0.0
 10
14.1637670389
 20
11.6065520172
 30
0.0
 10
14.1677907462
 20
11.6033699911
 30
0.0
 10
14.174803099
 20
11.5998312648
 30
0.0
 10
14.18254518
 20
11.5975284952
 30
0.0
 10
14.1879311272
 20
11.5969399899
 30
0.0
 10
14.190568972
 20
11.5969399899
 30
0.0
  0
SPLINE
  5
2CD
100
AcDbEntity
  8
LAYER_FEATURE
100
AcDbSpline
 62
7
  6
CONTINUOUS
 70
0
 71
3
 72
13
 73
9
 74
0
 42
0.0000001
 43
0.0000001
 44
0.0000000001
 40
0.0
 40
0.0
 40
0.0
 40
0.0
 40
0.3030256445
 40
0.5686454346
 40
0.6869871043
 40
0.7967712801
 40
0.9001183474
 40
1.0
 40
1.0
 40
1.0
 40
1.0
 10
13.8528470435
 20
11.5969399899
 30
0.0
 10
13.8548849476
 20
11.5969399899
 30
0.0
 10
13.8587206178
 20
11.5972627121
 30
0.0
 10
13.8631846376
 20
11.5986651348
 30
0.0
 10
13.866049614
 20
11.6003724201
 30
0.0
 10
13.8677413372
 20
11.6018453426
 30
0.0
 10
13.8690242002
 20
11.6035346119
 30
0.0
 10
13.8695844852
 20
11.6047975915
 30
0.0
 10
13.8697825858
 20
11.6054394386
 30
0.0
  0
SPLINE
  5
2CE
100
AcDbEntity
  8
LAYER_FEATURE
100
AcDbSpline
 62
7
  6
CONTINUOUS
 70
0
 71
3
 72
11
 73
7
 74
0
 42
0.0000001
 43
0.0000001
 44
0.0000000001
 40
0.0
 40
0.0
 40
0.0
 40
0.0
 40
0.2310280713
 40
0.4854993885
 40
0.7476174618
 40
1.0
 40
1.0
 40
1.0
 40
1.0
 10
13.4998576334
 20
11.6082993457
 30
0.0
 10
13.5015241842
 20
11.6065520172
 30
0.0
 10
13.5055478915
 20
11.6033699911
 30
0.0
 10
13.5125602443
 20
11.5998312648
 30
0.0
 10
13.5203023254
 20
11.5975284952
 30
0.0
 10
13.5256882725
 20
11.5969399899
 30
0.0
 10
13.5283261174
 20
11.5969399899
 30
0.0
  0
SPLINE
  5
2CF
100
AcDbEntity
  8
0
100
AcDbSpline
 62
7
  6
CONTINUOUS
 70
0
 71
3
 72
13
 73
9
 74
0
 42
0.0000001
 43
0.0000001
 44
0.0000000001
 40
0.0
 40
0.0
 40
0.0
 40
0.0
 40
0.3030256445
 40
0.5686454346
 40
0.6869871043
 40
0.7967712801
 40
0.9001183474
 40
1.0
 40
1.0
 40
1.0
 40
1.0
 10
13.1906041888
 20
11.5969399899
 30
0.0
 10
13.1926420929
 20
11.5969399899
 30
0.0
 10
13.1964777631
 20
11.5972627121
 30
0.0
 10
13.2009417829
 20
11.5986651348
 30
0.0
 10
13.2038067593
 20
11.6003724201
 30
0.0
 10
13.2054984825
 20
11.6018453426
 30
0.0
 10
13.2067813455
 20
11.6035346119
 30
0.0
 10
13.2073416306
 20
11.6047975915
 30
0.0
 10
13.2075397311
 20
11.6054394386
 30
0.0
  0
SPLINE
  5
2D0
100
AcDbEntity
  8
0
100
AcDbSpline
 62
7
  6
CONTINUOUS
 70
0
 71
3
 72
11
 73
7
 74
0
 42
0.0000001
 43
0.0000001
 44
0.0000000001
 40
0.0
 40
0.0
 40
0.0
 40
0.0
 40
0.2310280713
 40
0.4854993885
 40
0.7476174618
 40
1.0
 40
1.0
 40
1.0
 40
1.0
 10
12.8376147787
 20
11.6082993457
 30
0.0
 10
12.8392813296
 20
11.6065520172
 30
0.0
 10
12.8433050368
 20
11.6033699911
 30
0.0
 10
12.8503173896
 20
11.5998312648
 30
0.0
 10
12.8580594707
 20
11.5975284952
 30
0.0
 10
12.8634454178
 20
11.5969399899
 30
0.0
 10
12.8660832627
 20
11.5969399899
 30
0.0
  0
SPLINE
  5
2D1
100
AcDbEntity
  8
0
100
AcDbSpline
 62
7
  6
CONTINUOUS
 70
0
 71
3
 72
11
 73
7
 74
0
 42
0.0000001
 43
0.0000001
 44
0.0000000001
 40
0.0
 40
0.0
 40
0.0
 40
0.0
 40
0.3026134201
 40
0.5698765566
 40
0.7977404036
 40
1.0
 40
1.0
 40
1.0
 40
1.0
 10
12.6193025386
 20
11.8580161766
 30
0.0
 10
12.6187177283
 20
11.8580161766
 30
0.0
 10
12.617612888
 20
11.8579187897
 30
0.0
 10
12.6161253194
 20
11.8574580005
 30
0.0
 10
12.6149905365
 20
11.8566811743
 30
0.0
 10
12.6145388699
 20
11.8559422831
 30
0.0
 10
12.6144252617
 20
11.8555682843
 30
0.0
  0
SPLINE
  5
2D2
100
AcDbEntity
  8
0
100
AcDbSpline
 62
7
  6
CONTINUOUS
 70
0
 71
3
 72
11
 73
7
 74
0
 42
0.0000001
 43
0.0000001
 44
0.0000000001
 40
0.0
 40
0.0
 40
0.0
 40
0.0
 40
0.2113316853
 40
0.4633552044
 40
0.7355555478
 40
1.0
 40
1.0
 40
1.0
 40
1.0
 10
17.8260454992
 20
11.8533541019
 30
0.0
 10
17.8257125694
 20
11.8540325414
 30
0.0
 10
17.8246077384
 20
11.8553296222
 30
0.0
 10
17.8223884773
 20
11.8567806351
 30
0.0
 10
17.8197175257
 20
11.8577537946
 30
0.0
 10
17.8177953865
 20
11.8580161766
 30
0.0
 10
17.8168497277
 20
11.8580161766
 30
0.0
  0
ENDSEC
  0
SECTION
  2
OBJECTS
  0
DICTIONARY
  5
C
100
AcDbDictionary
280
0
281
1
  3
ACAD_GROUP
350
D
  3
ACAD_MLINESTYLE
350
17
  3
ACAD_LAYOUT
350
1A
  3
ACAD_PLOTSETTINGS
350
19
  3
ACAD_PLOTSTYLENAME
350
E
  0
DICTIONARY
  5
D
102
{ACAD_REACTORS
330
C
102
}
100
AcDbDictionary
280
0
281
1
  0
ACDBDICTIONARYWDFLT
  5
E
102
{ACAD_REACTORS
330
C
102
}
100
AcDbDictionary
281
1
  3
Normal
350
F
100
AcDbDictionaryWithDefault
340
F
  0
DICTIONARY
  5
17
102
{ACAD_REACTORS
330
C
102
}
100
AcDbDictionary
280
0
281
1
  3
Standard
350
18
  0
DICTIONARY
  5
19
102
{ACAD_REACTORS
330
C
102
}
100
AcDbDictionary
281
1
  0
DICTIONARY
  5
1A
102
{ACAD_REACTORS
330
C
102
}
100
AcDbDictionary
281
1
  3
Model
350
2D3
  3
Layout1
350
2D4
  0
ACDBPLACEHOLDER
  5
F
102
{ACAD_REACTORS
330
E
102
}
  0
MLINESTYLE
  5
18
102
{ACAD_REACTORS
330
17
102
}
100
AcDbMlineStyle
  2
STANDARD
 70
0
  3

 62
256
 51
90.0
 52
90.0
 71
2
 49
0.5
 62
256
  6
BYLAYER
 49
-0.5
 62
256
  6
BYLAYER
  0
LAYOUT
  5
2D3
102
{ACAD_REACTORS
330
1A
102
}
100
AcDbPlotSettings
  1

  2
none_device
  4
ANSI_C_(22.00_x_17.00_Inches)
  6

 40
0.0
 41
0.0
 42
0.0
 43
0.0
 44
558.8
 45
431.8
 46
0.0
 47
0.0
 48
0.0
 49
0.0
140
0.0
141
0.0
142
1.0
143
1.0
 70
1024
 72
0
 73
0
 74
0
  7

 75
0
147
1.0
148
0.0
149
0.0
100
AcDbLayout
  1
Model
 70
0
 71
0
 10
0.0
 20
0.0
 11
22.0
 21
17.0
 12
0.0
 22
0.0
 32
0.0
 14
0.0
 24
0.0
 34
0.0
 15
0.0
 25
0.0
 35
0.0
146
0.0
 13
0.0
 23
0.0
 33
0.0
 16
1.0
 26
0.0
 36
0.0
 17
0.0
 27
1.0
 37
0.0
 76
0
330
21C
345
0
346
0
  0
LAYOUT
  5
2D4
102
{ACAD_REACTORS
330
1A
102
}
100
AcDbPlotSettings
  1

  2
none_device
  4
ANSI_C_(22.00_x_17.00_Inches)
  6

 40
0.0
 41
0.0
 42
0.0
 43
0.0
 44
558.8
 45
431.8
 46
0.0
 47
0.0
 48
0.0
 49
0.0
140
0.0
141
0.0
142
1.0
143
1.0
 70
0
 72
0
 73
0
 74
0
  7

 75
0
147
1.0
148
0.0
149
0.0
100
AcDbLayout
  1
Layout1
 70
0
 71
1
 10
0.0
 20
0.0
 11
22.0
 21
17.0
 12
0.0
 22
0.0
 32
0.0
 14
0.0
 24
0.0
 34
0.0
 15
0.0
 25
0.0
 35
0.0
146
0.0
 13
0.0
 23
0.0
 33
0.0
 16
1.0
 26
0.0
 36
0.0
 17
0.0
 27
1.0
 37
0.0
 76
0
330
21D
345
0
346
0
  0
ENDSEC
  0
EOF